  0
SECTION
  2
HEADER
  9
$ACADVER
  1
AC1009
  9
$INSBASE
 10
0.0
 20
0.0
 30
0.0
  9
$EXTMIN
 10
-0.0013891691027084
 20
-0.0071422984491392
 30
-0.000000000000013
  9
$EXTMAX
 10
210.02173718095631
 20
297.01072481144132
 30
0.0000000000000023
  9
$LIMMIN
 10
0.0
 20
0.0
  9
$LIMMAX
 10
420.0
 20
297.0
  9
$ORTHOMODE
 70
     1
  9
$REGENMODE
 70
     1
  9
$FILLMODE
 70
     1
  9
$QTEXTMODE
 70
     0
  9
$MIRRTEXT
 70
     1
  9
$DRAGMODE
 70
     2
  9
$LTSCALE
 40
0.4
  9
$OSMODE
 70
    39
  9
$ATTMODE
 70
     1
  9
$TEXTSIZE
 40
2.5
  9
$TRACEWID
 40
1.0
  9
$TEXTSTYLE
  7
STANDARD
  9
$CLAYER
  8
0
  9
$CELTYPE
  6
BYLAYER
  9
$CECOLOR
 62
   256
  9
$DIMSCALE
 40
0.0
  9
$DIMASZ
 40
2.0
  9
$DIMEXO
 40
0.625
  9
$DIMDLI
 40
3.75
  9
$DIMRND
 40
0.0
  9
$DIMDLE
 40
0.0
  9
$DIMEXE
 40
1.25
  9
$DIMTP
 40
0.0
  9
$DIMTM
 40
0.0
  9
$DIMTXT
 40
2.5
  9
$DIMCEN
 40
0.0
  9
$DIMTSZ
 40
0.0
  9
$DIMTOL
 70
     0
  9
$DIMLIM
 70
     0
  9
$DIMTIH
 70
     0
  9
$DIMTOH
 70
     0
  9
$DIMSE1
 70
     0
  9
$DIMSE2
 70
     0
  9
$DIMTAD
 70
     1
  9
$DIMZIN
 70
     8
  9
$DIMBLK
  1

  9
$DIMASO
 70
     1
  9
$DIMSHO
 70
     1
  9
$DIMPOST
  1

  9
$DIMAPOST
  1

  9
$DIMALT
 70
     0
  9
$DIMALTD
 70
     3
  9
$DIMALTF
 40
0.03937007874016
  9
$DIMLFAC
 40
1.0
  9
$DIMTOFL
 70
     1
  9
$DIMTVP
 40
0.0
  9
$DIMTIX
 70
     0
  9
$DIMSOXD
 70
     0
  9
$DIMSAH
 70
     0
  9
$DIMBLK1
  1

  9
$DIMBLK2
  1

  9
$DIMSTYLE
  2
DIMS
  9
$DIMCLRD
 70
     0
  9
$DIMCLRE
 70
     0
  9
$DIMCLRT
 70
     7
  9
$DIMTFAC
 40
1.0
  9
$DIMGAP
 40
0.625
  9
$LUNITS
 70
     2
  9
$LUPREC
 70
     4
  9
$SKETCHINC
 40
1.0
  9
$FILLETRAD
 40
0.0
  9
$AUNITS
 70
     0
  9
$AUPREC
 70
     0
  9
$MENU
  1
.
  9
$ELEVATION
 40
0.0
  9
$PELEVATION
 40
0.0
  9
$THICKNESS
 40
0.0
  9
$LIMCHECK
 70
     0
  9
$BLIPMODE
 70
     0
  9
$CHAMFERA
 40
10.0
  9
$CHAMFERB
 40
10.0
  9
$SKPOLY
 70
     0
  9
$TDCREATE
 40
2451639.7154235072
  9
$TDUPDATE
 40
2458683.718612222
  9
$TDINDWG
 40
0.1443666551
  9
$TDUSRTIMER
 40
0.1443665162
  9
$USRTIMER
 70
     1
  9
$ANGBASE
 50
0.0
  9
$ANGDIR
 70
     0
  9
$PDMODE
 70
     0
  9
$PDSIZE
 40
0.0
  9
$PLINEWID
 40
0.0
  9
$COORDS
 70
     1
  9
$SPLFRAME
 70
     0
  9
$SPLINETYPE
 70
     6
  9
$SPLINESEGS
 70
     8
  9
$ATTDIA
 70
     1
  9
$ATTREQ
 70
     1
  9
$HANDLING
 70
     1
  9
$HANDSEED
  5
40CB
  9
$SURFTAB1
 70
     6
  9
$SURFTAB2
 70
     6
  9
$SURFTYPE
 70
     6
  9
$SURFU
 70
     6
  9
$SURFV
 70
     6
  9
$UCSNAME
  2

  9
$UCSORG
 10
0.0
 20
0.0
 30
0.0
  9
$UCSXDIR
 10
1.0
 20
0.0
 30
0.0
  9
$UCSYDIR
 10
0.0
 20
1.0
 30
0.0
  9
$PUCSNAME
  2

  9
$PUCSORG
 10
0.0
 20
0.0
 30
0.0
  9
$PUCSXDIR
 10
1.0
 20
0.0
 30
0.0
  9
$PUCSYDIR
 10
0.0
 20
1.0
 30
0.0
  9
$USERI1
 70
     0
  9
$USERI2
 70
     0
  9
$USERI3
 70
     0
  9
$USERI4
 70
     0
  9
$USERI5
 70
     0
  9
$USERR1
 40
0.0
  9
$USERR2
 40
0.0
  9
$USERR3
 40
0.0
  9
$USERR4
 40
0.0
  9
$USERR5
 40
0.0
  9
$WORLDVIEW
 70
     1
  9
$SHADEDGE
 70
     3
  9
$SHADEDIF
 70
    70
  9
$TILEMODE
 70
     1
  9
$MAXACTVP
 70
    48
  9
$PLIMCHECK
 70
     0
  9
$PEXTMIN
 10
0.0
 20
0.0
 30
0.0
  9
$PEXTMAX
 10
0.0
 20
0.0
 30
0.0
  9
$PLIMMIN
 10
0.0
 20
0.0
  9
$PLIMMAX
 10
12.0
 20
9.0
  9
$UNITMODE
 70
     0
  9
$VISRETAIN
 70
     1
  9
$PLINEGEN
 70
     0
  9
$PSLTSCALE
 70
     0
  0
ENDSEC
  0
SECTION
  2
TABLES
  0
TABLE
  2
VPORT
 70
     1
  0
VPORT
  2
*ACTIVE
 70
     0
 10
0.0
 20
0.0
 11
1.0
 21
1.0
 12
105.0101740059268
 22
148.50179125649601
 13
0.0
 23
0.0
 14
10.0
 24
10.0
 15
10.0
 25
10.0
 16
0.0
 26
0.0
 36
1.0
 17
0.0
 27
0.0
 37
0.0
 40
299.99164401694873
 41
1.656716417910447
 42
50.0
 43
0.0
 44
0.0
 50
0.0
 51
0.0
 71
     0
 72
   100
 73
     1
 74
     3
 75
     0
 76
     0
 77
     0
 78
     0
  0
ENDTAB
  0
TABLE
  2
LTYPE
 70
     2
  0
LTYPE
  2
CONTINUOUS
 70
     0
  3
Solid line
 72
    65
 73
     0
 40
0.0
  0
LTYPE
  2
CENTER1
 70
     0
  3
----- - ----- - ----- - ----- - 
 72
    65
 73
     4
 40
10.0
 49
6.25
 49
-1.25
 49
1.25
 49
-1.25
  0
ENDTAB
  0
TABLE
  2
LAYER
 70
    11
  0
LAYER
  2
0
 70
     0
 62
     7
  6
CONTINUOUS
  0
LAYER
  2
TITLE
 70
     0
 62
     7
  6
CONTINUOUS
  0
LAYER
  2
DEFPOINTS
 70
     0
 62
     7
  6
CONTINUOUS
  0
LAYER
  2
TEXT
 70
     0
 62
     7
  6
CONTINUOUS
  0
LAYER
  2
MODEL
 70
     0
 62
     7
  6
CONTINUOUS
  0
LAYER
  2
DIMS
 70
     0
 62
     1
  6
CONTINUOUS
  0
LAYER
  2
CENTER
 70
     0
 62
     6
  6
CENTER1
  0
LAYER
  2
GENKYO
 70
     0
 62
     3
  6
CONTINUOUS
  0
LAYER
  2
HATCH
 70
     0
 62
     9
  6
CONTINUOUS
  0
LAYER
  2
SHITAJI
 70
     0
 62
     3
  6
CONTINUOUS
  0
LAYER
  2
BIS
 70
     0
 62
     7
  6
CONTINUOUS
  0
ENDTAB
  0
TABLE
  2
STYLE
 70
     3
  0
STYLE
  2
STANDARD
 70
     0
 40
0.0
 41
1.0
 50
0.0
 71
     0
 42
2.5
  3
romans.shx
  4
bigfont.shx
  0
STYLE
  2
ANNOTATIVE
 70
     0
 40
0.0
 41
1.0
 50
0.0
 71
     0
 42
0.2
  3
txt
  4

  0
STYLE
  2
DIMS
 70
     0
 40
0.0
 41
0.75
 50
0.0
 71
     0
 42
2.5
  3
romans.shx
  4
bigfont.shx
  0
ENDTAB
  0
TABLE
  2
VIEW
 70
     1
  0
VIEW
  2
PRINT
 70
     1
 40
128.5
 10
98.875866602002347
 20
145.24226553880581
 41
88.0
 11
0.0
 21
0.0
 31
1.0
 12
0.0
 22
0.0
 32
0.0
 42
50.0
 43
0.0
 44
0.0
 50
0.0
 71
     0
  0
ENDTAB
  0
TABLE
  2
UCS
 70
     0
  0
ENDTAB
  0
TABLE
  2
APPID
 70
     8
  0
APPID
  2
ACAD
 70
     0
  0
APPID
  2
ACADANNOTATIVE
 70
     0
  0
APPID
  2
ACAD_MLEADERVER
 70
     0
  0
APPID
  2
ACAD_EXEMPT_FROM_CAD_STANDARDS
 70
     0
  0
APPID
  2
ACAD_DSTYLE_DIMJAG
 70
     0
  0
APPID
  2
ACAD_DSTYLE_DIMTALN
 70
     0
  0
APPID
  2
ACAD_PSEXT
 70
     0
  0
APPID
  2
ACAD_NAV_VCDISPLAY
 70
     0
  0
ENDTAB
  0
TABLE
  2
DIMSTYLE
 70
     4
  0
DIMSTYLE
  2
STANDARD
 70
     0
  3

  4

  5

  6

  7

 40
1.0
 41
0.18
 42
0.0625
 43
0.38
 44
0.18
 45
0.0
 46
0.0
 47
0.0
 48
0.0
140
0.18
141
0.09
142
0.0
143
25.399999999999999
144
1.0
145
0.0
146
1.0
147
0.09
 71
     0
 72
     0
 73
     1
 74
     1
 75
     0
 76
     0
 77
     0
 78
     0
170
     0
171
     2
172
     0
173
     0
174
     0
175
     0
176
     0
177
     0
178
     0
  0
DIMSTYLE
  2
ANNOTATIVE
 70
     0
  3

  4

  5

  6

  7

 40
1.0
 41
0.18
 42
0.0625
 43
0.38
 44
0.18
 45
0.0
 46
0.0
 47
0.0
 48
0.0
140
0.18
141
0.09
142
0.0
143
25.399999999999999
144
1.0
145
0.0
146
1.0
147
0.09
 71
     0
 72
     0
 73
     1
 74
     1
 75
     0
 76
     0
 77
     0
 78
     0
170
     0
171
     2
172
     0
173
     0
174
     0
175
     0
176
     0
177
     0
178
     0
  0
DIMSTYLE
  2
DIMS
 70
     0
  3

  4

  5

  6

  7

 40
0.0
 41
2.0
 42
0.625
 43
3.75
 44
1.25
 45
0.0
 46
0.0
 47
0.0
 48
0.0
140
2.5
141
0.0
142
0.0
143
0.03937007874016
144
1.0
145
0.0
146
1.0
147
0.625
 71
     0
 72
     0
 73
     0
 74
     0
 75
     0
 76
     0
 77
     1
 78
     8
170
     0
171
     3
172
     1
173
     0
174
     0
175
     0
176
     0
177
     0
178
     7
  0
DIMSTYLE
  2
DIMS1
 70
     0
  3

  4

  5

  6

  7

 40
1.0
 41
2.0
 42
1.0
 43
5.0
 44
1.0
 45
0.0
 46
0.0
 47
0.0
 48
0.0
140
2.5
141
0.0
142
0.0
143
0.03937007874016
144
1.0
145
0.0
146
1.0
147
0.625
 71
     0
 72
     0
 73
     0
 74
     0
 75
     0
 76
     0
 77
     1
 78
     8
170
     0
171
     3
172
     1
173
     0
174
     1
175
     0
176
     0
177
     0
178
     7
  0
ENDTAB
  0
ENDSEC
  0
SECTION
  2
BLOCKS
  0
BLOCK
  8
0
  2
$MODEL_SPACE
 70
     0
 10
0.0
 20
0.0
 30
0.0
  3
$MODEL_SPACE
  1

  0
ENDBLK
  5
3FED
  8
0
  0
BLOCK
 67
     1
  8
0
  2
$PAPER_SPACE
 70
     0
 10
0.0
 20
0.0
 30
0.0
  3
$PAPER_SPACE
  1

  0
ENDBLK
  5
3FE9
 67
     1
  8
0
  0
BLOCK
  8
0
  2
A$C0F3965A2
 70
     0
 10
0.0
 20
0.0
 30
0.0
  3
A$C0F3965A2
  1

  0
INSERT
  5
3A8D
  8
0
  2
*U3
 10
0.0
 20
0.0
 30
0.0
  0
ENDBLK
  5
3A8E
  8
0
  0
BLOCK
  8
0
  2
*U3
 70
     1
 10
0.0
 20
0.0
 30
0.0
  3
*U3
  1

  0
TEXT
  5
3F17
  8
TEXT
 10
-102.375
 20
-19.333333333333329
 30
0.0
 40
2.5
  1
%%U鉄骨階段Ｂ（先付）
  0
TEXT
  5
3F18
  8
TEXT
 10
-98.625
 20
-23.5
 30
0.0
 40
2.5
  1
%%Uリベット止メ
  0
ENDBLK
  5
3F1A
  8
0
  0
BLOCK
  8
0
  2
*D4
 70
     1
 10
0.0
 20
0.0
 30
0.0
  3
*D4
  1

  0
LINE
  5
3D98
  8
DIMS
 62
     0
 10
69.544999999999987
 20
206.875
 30
0.0
 11
54.544999999999987
 21
206.875
 31
0.0
  0
LINE
  5
3D99
  8
DIMS
 62
     0
 10
67.758999999999986
 20
189.875
 30
0.0
 11
54.544999999999987
 21
189.875
 31
0.0
  0
LINE
  5
3D9A
  8
DIMS
 62
     0
 10
55.544999999999987
 20
204.875
 30
0.0
 11
55.544999999999987
 21
191.875
 31
0.0
  0
SOLID
  5
3D9B
  8
DIMS
 62
     0
 10
55.211666666666652
 20
204.875
 30
0.0
 11
55.878333333333323
 21
204.875
 31
0.0
 12
55.544999999999987
 22
206.875
 32
0.0
 13
55.544999999999987
 23
206.875
 33
0.0
  0
SOLID
  5
3D9C
  8
DIMS
 62
     0
 10
55.211666666666652
 20
191.875
 30
0.0
 11
55.878333333333323
 21
191.875
 31
0.0
 12
55.544999999999987
 22
189.875
 32
0.0
 13
55.544999999999987
 23
189.875
 33
0.0
  0
INSERT
  5
3D9D
  8
0
  2
*U5
 10
0.0
 20
0.0
 30
0.0
  0
POINT
  5
3D9E
  8
DEFPOINTS
 62
     0
 10
70.544999999999987
 20
206.875
 30
0.0
  0
POINT
  5
3D9F
  8
DEFPOINTS
 62
     0
 10
68.758999999999986
 20
189.875
 30
0.0
  0
POINT
  5
3DA0
  8
DEFPOINTS
 62
     0
 10
55.544999999999987
 20
189.875
 30
0.0
  0
ENDBLK
  5
3D46
  8
0
  0
BLOCK
  8
0
  2
*U5
 70
     1
 10
0.0
 20
0.0
 30
0.0
  3
*U5
  1

  0
TEXT
  5
3F2E
  8
DIMS
 62
     7
 10
54.919999999999959
 20
196.4553571428572
 30
0.0
 40
2.5
  1
17
 50
90.0
 41
0.75
  7
DIMS
  0
ENDBLK
  5
3F30
  8
0
  0
BLOCK
  8
0
  2
*D6
 70
     1
 10
0.0
 20
0.0
 30
0.0
  3
*D6
  1

  0
LINE
  5
3DA1
  8
DIMS
 62
     0
 10
68.844000000000023
 20
204.37499999999989
 30
0.0
 11
59.544999999999952
 21
204.37499999999989
 31
0.0
  0
LINE
  5
3DA2
  8
DIMS
 62
     0
 10
67.758999999999986
 20
189.875
 30
0.0
 11
59.544999999999952
 21
189.875
 31
0.0
  0
LINE
  5
3DA3
  8
DIMS
 62
     0
 10
60.544999999999959
 20
202.37499999999989
 30
0.0
 11
60.544999999999959
 21
191.875
 31
0.0
  0
SOLID
  5
3DA4
  8
DIMS
 62
     0
 10
60.211666666666609
 20
202.37499999999989
 30
0.0
 11
60.878333333333288
 21
202.37499999999989
 31
0.0
 12
60.544999999999959
 22
204.37499999999989
 32
0.0
 13
60.544999999999959
 23
204.37499999999989
 33
0.0
  0
SOLID
  5
3DA5
  8
DIMS
 62
     0
 10
60.211666666666609
 20
191.875
 30
0.0
 11
60.878333333333288
 21
191.875
 31
0.0
 12
60.544999999999959
 22
189.875
 32
0.0
 13
60.544999999999959
 23
189.875
 33
0.0
  0
INSERT
  5
3DA6
  8
0
  2
*U7
 10
0.0
 20
0.0
 30
0.0
  0
POINT
  5
3DA7
  8
DEFPOINTS
 62
     0
 10
69.844000000000023
 20
204.37499999999989
 30
0.0
  0
POINT
  5
3DA8
  8
DEFPOINTS
 62
     0
 10
68.758999999999986
 20
189.875
 30
0.0
  0
POINT
  5
3DA9
  8
DEFPOINTS
 62
     0
 10
60.544999999999959
 20
189.875
 30
0.0
  0
ENDBLK
  5
3D52
  8
0
  0
BLOCK
  8
0
  2
*U7
 70
     1
 10
0.0
 20
0.0
 30
0.0
  3
*U7
  1

  0
TEXT
  5
3F32
  8
DIMS
 62
     7
 10
59.919999999999931
 20
193.8660714285713
 30
0.0
 40
2.5
  1
14.5
 50
90.0
 41
0.75
  7
DIMS
  0
ENDBLK
  5
3F34
  8
0
  0
BLOCK
  8
0
  2
*D8
 70
     1
 10
0.0
 20
0.0
 30
0.0
  3
*D8
  1

  0
LINE
  5
3DAA
  8
DIMS
 62
     0
 10
105.54600000000001
 20
206.875
 30
0.0
 11
120.54600000000001
 21
206.875
 31
0.0
  0
LINE
  5
3DAB
  8
DIMS
 62
     0
 10
108.54600000000001
 20
204.375
 30
0.0
 11
120.54600000000001
 21
204.375
 31
0.0
  0
LINE
  5
3DAC
  8
DIMS
 62
     0
 10
119.54600000000001
 20
208.875
 30
0.0
 11
119.54600000000001
 21
210.875
 31
0.0
  0
LINE
  5
3DAD
  8
DIMS
 62
     0
 10
119.54600000000001
 20
202.375
 30
0.0
 11
119.54600000000001
 21
200.375
 31
0.0
  0
LINE
  5
3DAE
  8
DIMS
 62
     0
 10
119.54600000000001
 20
216.96064545627129
 30
0.0
 11
119.54600000000001
 21
206.875
 31
0.0
  0
INSERT
  5
3DAF
  8
0
  2
*U9
 10
0.0
 20
0.0
 30
0.0
  0
LINE
  5
3DB0
  8
DIMS
 62
     0
 10
119.54600000000001
 20
206.875
 30
0.0
 11
119.54600000000001
 21
204.375
 31
0.0
  0
LINE
  5
3DB1
  8
DIMS
 62
     0
 10
119.54600000000001
 20
206.875
 30
0.0
 11
119.54600000000001
 21
204.375
 31
0.0
  0
SOLID
  5
3DB2
  8
DIMS
 62
     0
 10
119.21266666666671
 20
208.875
 30
0.0
 11
119.87933333333331
 21
208.875
 31
0.0
 12
119.54600000000001
 22
206.875
 32
0.0
 13
119.54600000000001
 23
206.875
 33
0.0
  0
SOLID
  5
3DB3
  8
DIMS
 62
     0
 10
119.21266666666671
 20
202.375
 30
0.0
 11
119.87933333333331
 21
202.375
 31
0.0
 12
119.54600000000001
 22
204.375
 32
0.0
 13
119.54600000000001
 23
204.375
 33
0.0
  0
POINT
  5
3DB4
  8
DEFPOINTS
 62
     0
 10
104.54600000000001
 20
206.875
 30
0.0
  0
POINT
  5
3DB5
  8
DEFPOINTS
 62
     0
 10
107.54600000000001
 20
204.375
 30
0.0
  0
POINT
  5
3DB6
  8
DEFPOINTS
 62
     0
 10
119.54600000000001
 20
204.375
 30
0.0
  0
ENDBLK
  5
3D5E
  8
0
  0
BLOCK
  8
0
  2
*U9
 70
     1
 10
0.0
 20
0.0
 30
0.0
  3
*U9
  1

  0
TEXT
  5
3F36
  8
DIMS
 62
     7
 10
118.92100000000001
 20
212.1392168848428
 30
0.0
 40
2.5
  1
2.5
 50
90.0
 41
0.75
  7
DIMS
  0
ENDBLK
  5
3F38
  8
0
  0
BLOCK
  8
0
  2
*D10
 70
     1
 10
0.0
 20
0.0
 30
0.0
  3
*D10
  1

  0
LINE
  5
3DB7
  8
DIMS
 62
     0
 10
108.54600000000001
 20
206.07499999999999
 30
0.0
 11
115.54600000000001
 21
206.07499999999999
 31
0.0
  0
LINE
  5
3DB8
  8
DIMS
 62
     0
 10
108.54600000000001
 20
204.375
 30
0.0
 11
115.54600000000001
 21
204.375
 31
0.0
  0
LINE
  5
3DB9
  8
DIMS
 62
     0
 10
114.54600000000001
 20
208.07499999999999
 30
0.0
 11
114.54600000000001
 21
210.07499999999999
 31
0.0
  0
LINE
  5
3DBA
  8
DIMS
 62
     0
 10
114.54600000000001
 20
202.375
 30
0.0
 11
114.54600000000001
 21
200.375
 31
0.0
  0
LINE
  5
3DBB
  8
DIMS
 62
     0
 10
114.54600000000001
 20
217.05780575212219
 30
0.0
 11
114.54600000000001
 21
206.07499999999999
 31
0.0
  0
INSERT
  5
3DBC
  8
0
  2
*U11
 10
0.0
 20
0.0
 30
0.0
  0
LINE
  5
3DBD
  8
DIMS
 62
     0
 10
114.54600000000001
 20
206.07499999999999
 30
0.0
 11
114.54600000000001
 21
204.375
 31
0.0
  0
LINE
  5
3DBE
  8
DIMS
 62
     0
 10
114.54600000000001
 20
206.07499999999999
 30
0.0
 11
114.54600000000001
 21
204.375
 31
0.0
  0
SOLID
  5
3DBF
  8
DIMS
 62
     0
 10
114.21266666666671
 20
208.07499999999999
 30
0.0
 11
114.87933333333331
 21
208.07499999999999
 31
0.0
 12
114.54600000000001
 22
206.07499999999999
 32
0.0
 13
114.54600000000001
 23
206.07499999999999
 33
0.0
  0
SOLID
  5
3DC0
  8
DIMS
 62
     0
 10
114.21266666666671
 20
202.375
 30
0.0
 11
114.87933333333331
 21
202.375
 31
0.0
 12
114.54600000000001
 22
204.375
 32
0.0
 13
114.54600000000001
 23
204.375
 33
0.0
  0
POINT
  5
3DC1
  8
DEFPOINTS
 62
     0
 10
107.54600000000001
 20
206.07499999999999
 30
0.0
  0
POINT
  5
3DC2
  8
DEFPOINTS
 62
     0
 10
107.54600000000001
 20
204.375
 30
0.0
  0
POINT
  5
3DC3
  8
DEFPOINTS
 62
     0
 10
114.54600000000001
 20
204.375
 30
0.0
  0
ENDBLK
  5
3D6E
  8
0
  0
BLOCK
  8
0
  2
*U11
 70
     1
 10
0.0
 20
0.0
 30
0.0
  3
*U11
  1

  0
TEXT
  5
3F3A
  8
DIMS
 62
     7
 10
113.92100000000001
 20
212.23637718069369
 30
0.0
 40
2.5
  1
1.7
 50
90.0
 41
0.75
  7
DIMS
  0
ENDBLK
  5
3F3C
  8
0
  0
BLOCK
  8
0
  2
*D12
 70
     1
 10
0.0
 20
0.0
 30
0.0
  3
*D12
  1

  0
LINE
  5
3DC4
  8
DIMS
 62
     0
 10
108.54600000000001
 20
204.375
 30
0.0
 11
125.54600000000001
 21
204.375
 31
0.0
  0
LINE
  5
3DC5
  8
DIMS
 62
     0
 10
108.54600000000001
 20
199.875
 30
0.0
 11
125.54600000000001
 21
199.875
 31
0.0
  0
LINE
  5
3DC6
  8
DIMS
 62
     0
 10
124.54600000000001
 20
206.375
 30
0.0
 11
124.54600000000001
 21
208.375
 31
0.0
  0
LINE
  5
3DC7
  8
DIMS
 62
     0
 10
124.54600000000001
 20
197.875
 30
0.0
 11
124.54600000000001
 21
195.875
 31
0.0
  0
LINE
  5
3DC8
  8
DIMS
 62
     0
 10
124.54600000000001
 20
218.1300757642619
 30
0.0
 11
124.54600000000001
 21
204.375
 31
0.0
  0
INSERT
  5
3DC9
  8
0
  2
*U13
 10
0.0
 20
0.0
 30
0.0
  0
LINE
  5
3DCA
  8
DIMS
 62
     0
 10
124.54600000000001
 20
204.375
 30
0.0
 11
124.54600000000001
 21
199.875
 31
0.0
  0
LINE
  5
3DCB
  8
DIMS
 62
     0
 10
124.54600000000001
 20
204.375
 30
0.0
 11
124.54600000000001
 21
199.875
 31
0.0
  0
SOLID
  5
3DCC
  8
DIMS
 62
     0
 10
124.21266666666661
 20
206.375
 30
0.0
 11
124.87933333333331
 21
206.375
 31
0.0
 12
124.54600000000001
 22
204.375
 32
0.0
 13
124.54600000000001
 23
204.375
 33
0.0
  0
SOLID
  5
3DCD
  8
DIMS
 62
     0
 10
124.21266666666661
 20
197.875
 30
0.0
 11
124.87933333333331
 21
197.875
 31
0.0
 12
124.54600000000001
 22
199.875
 32
0.0
 13
124.54600000000001
 23
199.875
 33
0.0
  0
POINT
  5
3DCE
  8
DEFPOINTS
 62
     0
 10
107.54600000000001
 20
204.375
 30
0.0
  0
POINT
  5
3DCF
  8
DEFPOINTS
 62
     0
 10
107.54600000000001
 20
199.875
 30
0.0
  0
POINT
  5
3DD0
  8
DEFPOINTS
 62
     0
 10
124.54600000000001
 20
199.875
 30
0.0
  0
ENDBLK
  5
3D7E
  8
0
  0
BLOCK
  8
0
  2
*U13
 70
     1
 10
0.0
 20
0.0
 30
0.0
  3
*U13
  1

  0
TEXT
  5
3F3E
  8
DIMS
 62
     7
 10
123.92099999999991
 20
209.04079004997629
 30
0.0
 40
2.5
  1
4.5以下
 50
90.0
 41
0.75
  7
DIMS
  0
ENDBLK
  5
3F40
  8
0
  0
BLOCK
  8
0
  2
*D14
 70
     1
 10
0.0
 20
0.0
 30
0.0
  3
*D14
  1

  0
LINE
  5
3DD1
  8
DIMS
 62
     0
 10
67.544999999999987
 20
204.875
 30
0.0
 11
67.544999999999987
 21
219.875
 31
0.0
  0
LINE
  5
3DD2
  8
DIMS
 62
     0
 10
107.54600000000001
 20
207.375
 30
0.0
 11
107.54600000000001
 21
219.875
 31
0.0
  0
LINE
  5
3DD3
  8
DIMS
 62
     0
 10
69.544999999999987
 20
218.875
 30
0.0
 11
105.54600000000001
 21
218.875
 31
0.0
  0
SOLID
  5
3DD4
  8
DIMS
 62
     0
 10
69.544999999999987
 20
219.2083333333334
 30
0.0
 11
69.544999999999987
 21
218.54166666666671
 31
0.0
 12
67.544999999999987
 22
218.875
 32
0.0
 13
67.544999999999987
 23
218.875
 33
0.0
  0
SOLID
  5
3DD5
  8
DIMS
 62
     0
 10
105.54600000000001
 20
219.2083333333334
 30
0.0
 11
105.54600000000001
 21
218.54166666666671
 31
0.0
 12
107.54600000000001
 22
218.875
 32
0.0
 13
107.54600000000001
 23
218.875
 33
0.0
  0
INSERT
  5
3DD6
  8
0
  2
*U15
 10
0.0
 20
0.0
 30
0.0
  0
POINT
  5
3DD7
  8
DEFPOINTS
 62
     0
 10
67.544999999999987
 20
203.875
 30
0.0
  0
POINT
  5
3DD8
  8
DEFPOINTS
 62
     0
 10
107.54600000000001
 20
206.375
 30
0.0
  0
POINT
  5
3DD9
  8
DEFPOINTS
 62
     0
 10
107.54600000000001
 20
218.875
 30
0.0
  0
ENDBLK
  5
3D8E
  8
0
  0
BLOCK
  8
0
  2
*U15
 70
     1
 10
0.0
 20
0.0
 30
0.0
  3
*U15
  1

  0
TEXT
  5
3F42
  8
DIMS
 62
     7
 10
85.759785714285741
 20
219.5
 30
0.0
 40
2.5
  1
40
 41
0.75
  7
DIMS
  0
ENDBLK
  5
3F44
  8
0
  0
BLOCK
  8
0
  2
*U16
 70
     1
 10
0.0
 20
0.0
 30
0.0
  3
*U16
  1

  0
TEXT
  5
3F4E
  8
DIMS
 62
     7
 10
85.759785714285741
 20
219.5
 30
0.0
 40
2.5
  1
40
 41
0.75
  7
DIMS
  0
ENDBLK
  5
3F50
  8
0
  0
BLOCK
  8
0
  2
*U17
 70
     1
 10
0.0
 20
0.0
 30
0.0
  3
*U17
  1

  0
TEXT
  5
3F52
  8
DIMS
 62
     7
 10
123.92099999999991
 20
209.04079004997629
 30
0.0
 40
2.5
  1
4.5以下
 50
90.0
 41
0.75
  7
DIMS
  0
ENDBLK
  5
3F54
  8
0
  0
BLOCK
  8
0
  2
*U18
 70
     1
 10
0.0
 20
0.0
 30
0.0
  3
*U18
  1

  0
TEXT
  5
3F66
  8
DIMS
 62
     7
 10
113.92100000000001
 20
212.23637718069369
 30
0.0
 40
2.5
  1
1.7
 50
90.0
 41
0.75
  7
DIMS
  0
ENDBLK
  5
3F68
  8
0
  0
BLOCK
  8
0
  2
*U19
 70
     1
 10
0.0
 20
0.0
 30
0.0
  3
*U19
  1

  0
TEXT
  5
3F6A
  8
DIMS
 62
     7
 10
118.92100000000001
 20
212.1392168848428
 30
0.0
 40
2.5
  1
2.5
 50
90.0
 41
0.75
  7
DIMS
  0
ENDBLK
  5
3F6C
  8
0
  0
BLOCK
  8
0
  2
*U20
 70
     1
 10
0.0
 20
0.0
 30
0.0
  3
*U20
  1

  0
TEXT
  5
3F6E
  8
DIMS
 62
     7
 10
59.919999999999931
 20
193.8660714285713
 30
0.0
 40
2.5
  1
14.5
 50
90.0
 41
0.75
  7
DIMS
  0
ENDBLK
  5
3F70
  8
0
  0
BLOCK
  8
0
  2
*U21
 70
     1
 10
0.0
 20
0.0
 30
0.0
  3
*U21
  1

  0
TEXT
  5
3F72
  8
DIMS
 62
     7
 10
54.919999999999959
 20
196.4553571428572
 30
0.0
 40
2.5
  1
17
 50
90.0
 41
0.75
  7
DIMS
  0
ENDBLK
  5
3F74
  8
0
  0
BLOCK
  8
0
  2
*U22
 70
     1
 10
0.0
 20
0.0
 30
0.0
  3
*U22
  1

  0
TEXT
  5
3F76
  8
TEXT
 10
97.375
 20
265.04166666666669
 30
0.0
 40
2.5
  1
%%U鉄骨階段Ｂ（先付）
  0
TEXT
  5
3F77
  8
TEXT
 10
101.125
 20
260.875
 30
0.0
 40
2.5
  1
%%Uリベット止メ
  0
ENDBLK
  5
3F79
  8
0
  0
BLOCK
  8
0
  2
*U24
 70
     1
 10
0.0
 20
0.0
 30
0.0
  3
*U24
  1

  0
TEXT
  5
40C4
  8
TITLE
 10
-37.351190476190467
 20
-3.75
 30
0.0
 40
2.5
  1
H30.7.2：ビス位置訂正
  0
ENDBLK
  5
40C6
  8
0
  0
BLOCK
  8
0
  2
*U25
 70
     1
 10
0.0
 20
0.0
 30
0.0
  3
*U25
  1

  0
TEXT
  5
40C8
  8
TITLE
 10
27.523809523809529
 20
43.75
 30
0.0
 40
2.5
  1
H30.7.2：ビス位置訂正
  0
ENDBLK
  5
40CA
  8
0
  0
ENDSEC
  0
SECTION
  2
ENTITIES
  0
LINE
  5
1055
  8
TITLE
 10
20.0
 20
32.5
 30
0.0
 11
199.75
 21
32.5
 31
0.0
  0
LINE
  5
1056
  8
TITLE
 10
20.0
 20
52.5
 30
0.0
 11
199.75
 21
52.5
 31
0.0
  0
LINE
  5
1057
  8
TITLE
 10
20.0
 20
62.5
 30
0.0
 11
199.75
 21
62.5
 31
0.0
  0
LINE
  5
1058
  8
TITLE
 10
64.875
 20
39.16666666666665
 30
0.0
 11
109.8749999999999
 21
39.16666666666665
 31
0.0
  0
LINE
  5
1059
  8
TITLE
 10
64.875
 20
45.8333333333333
 30
0.0
 11
109.8749999999999
 21
45.8333333333333
 31
0.0
  0
LINE
  5
105A
  8
TITLE
 10
20.0
 20
67.5
 30
0.0
 11
199.75
 21
67.5
 31
0.0
  0
LINE
  5
105E
  8
TITLE
 10
20.0
 20
47.5
 30
0.0
 11
64.875
 21
47.5
 31
0.0
  0
LINE
  5
105F
  8
TITLE
 10
20.0
 20
42.5
 30
0.0
 11
64.875
 21
42.5
 31
0.0
  0
LINE
  5
1060
  8
TITLE
 10
20.0
 20
47.5
 30
0.0
 11
64.875
 21
47.5
 31
0.0
  0
LINE
  5
1061
  8
TITLE
 10
20.0
 20
37.5
 30
0.0
 11
64.875
 21
37.5
 31
0.0
  0
LINE
  5
1069
  8
TITLE
 10
64.875
 20
67.5
 30
0.0
 11
64.875
 21
32.5
 31
0.0
  0
LINE
  5
106E
  8
TITLE
 10
172.46755249781691
 20
38.423454330981961
 30
0.0
 11
173.17186919796649
 21
39.12777103113114
 31
0.0
  0
LINE
  5
106F
  8
TITLE
 10
172.55483737046401
 20
38.423454330981961
 30
0.0
 11
173.2591540706139
 21
39.12777103113114
 31
0.0
  0
LINE
  5
1070
  8
TITLE
 10
172.6421222431112
 20
38.423454330981961
 30
0.0
 11
173.34643894326069
 21
39.12777103113114
 31
0.0
  0
LINE
  5
1071
  8
TITLE
 10
172.7294071157512
 20
38.423454330981961
 30
0.0
 11
173.433723815908
 21
39.12777103113114
 31
0.0
  0
LINE
  5
1072
  8
TITLE
 10
172.8166919883985
 20
38.423454330981961
 30
0.0
 11
173.52100868854791
 21
39.12777103113114
 31
0.0
  0
LINE
  5
1073
  8
TITLE
 10
172.90397686104541
 20
38.423454330981961
 30
0.0
 11
173.60829356119541
 21
39.12777103113114
 31
0.0
  0
LINE
  5
1074
  8
TITLE
 10
172.9912617336928
 20
38.423454330981961
 30
0.0
 11
173.6955784338422
 21
39.12777103113114
 31
0.0
  0
LINE
  5
1075
  8
TITLE
 10
173.0785466063399
 20
38.423454330981961
 30
0.0
 11
173.7828633064895
 21
39.12777103113114
 31
0.0
  0
LINE
  5
1076
  8
TITLE
 10
172.2947538600435
 20
34.322836424122229
 30
0.0
 11
173.15670774170599
 21
35.184790305784759
 31
0.0
  0
LINE
  5
1077
  8
TITLE
 10
172.35079091551671
 20
34.291588606948068
 30
0.0
 11
173.25261030160959
 21
35.193407993034228
 31
0.0
  0
LINE
  5
1078
  8
TITLE
 10
172.44014668954841
 20
34.29365950832905
 30
0.0
 11
173.34922418261789
 21
35.202737001402433
 31
0.0
  0
LINE
  5
1079
  8
TITLE
 10
172.5302638594369
 20
34.296491805577872
 30
0.0
 11
173.44656687467591
 21
35.212794820813201
 31
0.0
  0
LINE
  5
107A
  8
TITLE
 10
172.62116284594401
 20
34.300105919434301
 30
0.0
 11
173.54465669864339
 21
35.223599772133788
 31
0.0
  0
LINE
  5
107B
  8
TITLE
 10
172.7128651691707
 20
34.304523370017321
 30
0.0
 11
174.35817392121379
 21
35.949832122056712
 31
0.0
  0
LINE
  5
107C
  8
TITLE
 10
172.80539353300171
 20
34.309766861197588
 30
0.0
 11
174.35817392121379
 21
35.862547249409289
 31
0.0
  0
LINE
  5
107D
  8
TITLE
 10
172.89877191799641
 20
34.31586037355202
 30
0.0
 11
174.35817392121379
 21
35.775262376762001
 31
0.0
  0
LINE
  5
107E
  8
TITLE
 10
172.9930256840496
 20
34.32282926695818
 30
0.0
 11
174.35817392121379
 21
35.68797750411516
 31
0.0
  0
LINE
  5
107F
  8
TITLE
 10
173.08818168389271
 20
34.330700394146717
 30
0.0
 11
174.35817392121379
 21
35.600692631471212
 31
0.0
  0
LINE
  5
1080
  8
TITLE
 10
172.45146938162509
 20
37.010813252449921
 30
0.0
 11
173.1597936370915
 21
37.719137507916329
 31
0.0
  0
LINE
  5
1081
  8
TITLE
 10
172.49059017030109
 20
36.962649168479011
 30
0.0
 11
173.2470785097384
 21
37.719137507916329
 31
0.0
  0
LINE
  5
1082
  8
TITLE
 10
172.57787504294831
 20
36.962649168479011
 30
0.0
 11
173.3343633823857
 21
37.719137507916329
 31
0.0
  0
LINE
  5
1083
  8
TITLE
 10
172.66515991559569
 20
36.962649168479011
 30
0.0
 11
173.42164825503289
 21
37.719137507916329
 31
0.0
  0
LINE
  5
1084
  8
TITLE
 10
172.752444788243
 20
36.962649168479011
 30
0.0
 11
173.508933127673
 21
37.719137507916329
 31
0.0
  0
LINE
  5
1085
  8
TITLE
 10
172.8397296608899
 20
36.962649168479011
 30
0.0
 11
173.59621800031991
 21
37.719137507916329
 31
0.0
  0
LINE
  5
1086
  8
TITLE
 10
172.92701453353001
 20
36.962649168479011
 30
0.0
 11
173.68350287296721
 21
37.719137507916329
 31
0.0
  0
LINE
  5
1087
  8
TITLE
 10
173.01429940617709
 20
36.962649168479011
 30
0.0
 11
173.7707877456146
 21
37.719137507916329
 31
0.0
  0
LINE
  5
1088
  8
TITLE
 10
173.10158427882419
 20
36.962649168479011
 30
0.0
 11
173.85807261826159
 21
37.719137507916329
 31
0.0
  0
LINE
  5
108D
  8
TITLE
 10
109.8749999999999
 20
42.5
 30
0.0
 11
199.75
 21
42.5
 31
0.0
  0
LINE
  5
108E
  8
TITLE
 10
154.8749999999998
 20
67.5
 30
0.0
 11
154.8749999999998
 21
52.5
 31
0.0
  0
LINE
  5
108F
  8
TITLE
 10
109.8749999999999
 20
67.5
 30
0.0
 11
109.875
 21
32.5
 31
0.0
  0
LINE
  5
1091
  8
TITLE
 10
139.9462940002561
 20
38.284883585264211
 30
0.0
 11
141.36013374838211
 21
39.698723333390092
 31
0.0
  0
LINE
  5
1092
  8
TITLE
 10
140.0933162955269
 20
38.344621007887781
 30
0.0
 11
141.36013374838211
 21
39.611438460742818
 31
0.0
  0
LINE
  5
1093
  8
TITLE
 10
140.2335037822171
 20
38.397523621927277
 30
0.0
 11
141.36013374838211
 21
39.524153588095828
 31
0.0
  0
LINE
  5
1094
  8
TITLE
 10
139.6256263884739
 20
38.138785718775637
 30
0.0
 11
141.32660142470601
 21
39.839760755008328
 31
0.0
  0
LINE
  5
1095
  8
TITLE
 10
139.79104971230311
 20
38.21692416995824
 30
0.0
 11
141.36013374838211
 21
39.786008206037273
 31
0.0
  0
LINE
  5
1096
  8
TITLE
 10
138.0822591989286
 20
37.206412637753452
 30
0.0
 11
140.5272332402117
 21
39.651386679040783
 31
0.0
  0
LINE
  5
1097
  8
TITLE
 10
138.17835846748929
 20
37.21522703366314
 30
0.0
 11
140.65121190913311
 21
39.68808047531104
 31
0.0
  0
LINE
  5
1098
  8
TITLE
 10
138.17835846748929
 20
37.127942161019618
 30
0.0
 11
140.7713804755156
 21
39.720964169046248
 31
0.0
  0
LINE
  5
1099
  8
TITLE
 10
138.17835846748929
 20
37.040657288372778
 30
0.0
 11
140.888125162742
 21
39.750423983625851
 31
0.0
  0
LINE
  5
109A
  8
TITLE
 10
138.17835846748929
 20
36.953372415725497
 30
0.0
 11
141.00176757038659
 21
39.776781518622741
 31
0.0
  0
LINE
  5
109B
  8
TITLE
 10
138.17835846748929
 20
36.8660875430785
 30
0.0
 11
141.11257891923859
 21
39.80030799483503
 31
0.0
  0
LINE
  5
109C
  8
TITLE
 10
138.17835846748929
 20
36.778802670431219
 30
0.0
 11
141.2207904891041
 21
39.821234692053849
 31
0.0
  0
LINE
  5
109D
  8
TITLE
 10
137.9246858038361
 20
37.13612411530471
 30
0.0
 11
140.39897371736859
 21
39.61041202884055
 31
0.0
  0
LINE
  5
109E
  8
TITLE
 10
125.33823048282299
 20
41.10407912057218
 30
0.0
 11
122.41937018706069
 21
38.185218824809752
 31
0.0
  0
LINE
  5
109F
  8
TITLE
 10
123.38447913735121
 20
33.451262901534548
 30
0.0
 11
127.153326110336
 21
37.220109874517227
 31
0.0
  0
LINE
  5
10A0
  8
TITLE
 10
123.2968840985492
 20
33.45095273537882
 30
0.0
 11
127.1536362764916
 21
37.307704913320251
 31
0.0
  0
LINE
  5
10A1
  8
TITLE
 10
123.2112351791919
 20
33.452588688660242
 30
0.0
 11
127.1608025945805
 21
37.402156104049403
 31
0.0
  0
LINE
  5
10A2
  8
TITLE
 10
123.1274103954688
 20
33.456048777583987
 30
0.0
 11
127.1485402342861
 21
37.477178616409091
 31
0.0
  0
LINE
  5
10A3
  8
TITLE
 10
123.0453024283687
 20
33.461225683142871
 30
0.0
 11
127.143363328728
 21
37.559286583495009
 31
0.0
  0
LINE
  5
10A4
  8
TITLE
 10
122.9648162964986
 20
33.4680244239091
 30
0.0
 11
127.1365645879614
 21
37.6397727153714
 31
0.0
  0
LINE
  5
10A5
  8
TITLE
 10
122.8603401779431
 20
33.450833178000913
 30
0.0
 11
127.1282285247258
 21
37.71872152479019
 31
0.0
  0
LINE
  5
10A6
  8
TITLE
 10
123.56608722700901
 20
33.458301245895441
 30
0.0
 11
127.146287765975
 21
37.038501784862213
 31
0.0
  0
LINE
  5
10A7
  8
TITLE
 10
123.47415987532089
 20
33.453658766853771
 30
0.0
 11
127.1509302450166
 21
37.130429136551733
 31
0.0
  0
LINE
  5
10A8
  8
TITLE
 10
123.8573909979948
 20
33.487750398940882
 30
0.0
 11
127.1168386129295
 21
36.747198013875483
 31
0.0
  0
LINE
  5
10A9
  8
TITLE
 10
123.66044827911109
 20
33.465377425351491
 30
0.0
 11
127.1392115865191
 21
36.944140732759131
 31
0.0
  0
LINE
  5
10AA
  8
TITLE
 10
123.7574626493616
 20
33.475106922954751
 30
0.0
 11
127.12948208891559
 21
36.847126362508739
 31
0.0
  0
LINE
  5
10AB
  8
TITLE
 10
122.7730553052957
 20
33.450833178000629
 30
0.0
 11
127.1184306994864
 21
37.796208572191269
 31
0.0
  0
LINE
  5
10AC
  8
TITLE
 10
122.6857704326453
 20
33.450833178000629
 30
0.0
 11
127.1072389624086
 21
37.87230170776418
 31
0.0
  0
LINE
  5
10AD
  8
TITLE
 10
122.59848556000171
 20
33.450833178000629
 30
0.0
 11
127.0947144793161
 21
37.947062097314962
 31
0.0
  0
LINE
  5
10AE
  8
TITLE
 10
122.5112006873545
 20
33.450833178000629
 30
0.0
 11
127.0809125858308
 21
38.020545076476893
 31
0.0
  0
LINE
  5
10AF
  8
TITLE
 10
122.4239158147076
 20
33.450833178000629
 30
0.0
 11
127.06588350361601
 21
38.09280086690957
 31
0.0
  0
LINE
  5
10B0
  8
TITLE
 10
122.33663094205779
 20
33.450833178000629
 30
0.0
 11
127.04967294494649
 21
38.163875180883373
 31
0.0
  0
LINE
  5
10B1
  8
TITLE
 10
122.24934606941051
 20
33.450833178000629
 30
0.0
 11
127.0323226261436
 21
38.23380973472787
 31
0.0
  0
LINE
  5
10B2
  8
TITLE
 10
122.16206119677319
 20
33.450833178000629
 30
0.0
 11
127.0138707060766
 21
38.302642687304072
 31
0.0
  0
LINE
  5
10B3
  8
TITLE
 10
122.07477632412569
 20
33.450833178000629
 30
0.0
 11
126.9943521626071
 21
38.370409016481908
 31
0.0
  0
LINE
  5
10B4
  8
TITLE
 10
121.9874914514786
 20
33.450833178000913
 30
0.0
 11
126.9737991173361
 21
38.437140843857939
 31
0.0
  0
LINE
  5
10B5
  8
TITLE
 10
121.9002065788323
 20
33.450833178000629
 30
0.0
 11
126.936536166849
 21
38.487162766017732
 31
0.0
  0
LINE
  5
10B6
  8
TITLE
 10
121.8129217061845
 20
33.450833178000629
 30
0.0
 11
126.8492512942022
 21
38.487162766017732
 31
0.0
  0
LINE
  5
10B7
  8
TITLE
 10
121.72563683353719
 20
33.450833178000913
 30
0.0
 11
126.7619664215549
 21
38.487162766017448
 31
0.0
  0
LINE
  5
10B8
  8
TITLE
 10
121.6383519608912
 20
33.450833178000629
 30
0.0
 11
126.6746815489069
 21
38.487162766017732
 31
0.0
  0
LINE
  5
10B9
  8
TITLE
 10
119.85068909498391
 20
35.678274453828379
 30
0.0
 11
125.2764937617292
 21
41.10407912057218
 31
0.0
  0
LINE
  5
10BA
  8
TITLE
 10
119.82361753197451
 20
35.73848776346513
 30
0.0
 11
125.1892088890814
 21
41.10407912057218
 31
0.0
  0
LINE
  5
10BB
  8
TITLE
 10
119.79741619693181
 20
35.79957130106925
 30
0.0
 11
125.1019240164335
 21
41.10407912057218
 31
0.0
  0
LINE
  5
10BC
  8
TITLE
 10
119.77210340953511
 20
35.861543386320882
 30
0.0
 11
125.0146391437876
 21
41.10407912057218
 31
0.0
  0
LINE
  5
10BD
  8
TITLE
 10
119.7476989814178
 20
35.92442383085033
 30
0.0
 11
124.9273542711399
 21
41.10407912057218
 31
0.0
  0
LINE
  5
10BE
  8
TITLE
 10
119.55935903193949
 20
36.608932607828791
 30
0.0
 11
124.0545055446686
 21
41.10407912057218
 31
0.0
  0
LINE
  5
10BF
  8
TITLE
 10
119.54685359953299
 20
36.683712048076728
 30
0.0
 11
123.9672206720286
 21
41.10407912057218
 31
0.0
  0
LINE
  5
10C0
  8
TITLE
 10
119.6401178100719
 20
36.253267022746172
 30
0.0
 11
124.49092990791171
 21
41.10407912057218
 31
0.0
  0
LINE
  5
10C1
  8
TITLE
 10
119.6216817176948
 20
36.322115803015933
 30
0.0
 11
124.4036450352644
 21
41.10407912057218
 31
0.0
  0
LINE
  5
10C2
  8
TITLE
 10
119.6043477600807
 20
36.39206671804542
 30
0.0
 11
124.3163601626206
 21
41.10407912057218
 31
0.0
  0
LINE
  5
10C3
  8
TITLE
 10
119.58815414519999
 20
36.463157975812251
 30
0.0
 11
124.22907528997369
 21
41.10407912057218
 31
0.0
  0
LINE
  5
10C4
  8
TITLE
 10
119.5731426444103
 20
36.535431347660058
 30
0.0
 11
124.1417904173156
 21
41.10407912057218
 31
0.0
  0
LINE
  5
10C5
  8
TITLE
 10
119.7242243448936
 20
35.988234066972531
 30
0.0
 11
124.8400693984926
 21
41.10407912057218
 31
0.0
  0
LINE
  5
10C6
  8
TITLE
 10
119.70170269854751
 20
36.052997293274132
 30
0.0
 11
124.7527845258455
 21
41.10407912057218
 31
0.0
  0
LINE
  5
10C7
  8
TITLE
 10
119.6801591723346
 20
36.118738639708653
 30
0.0
 11
124.66549965319891
 21
41.10407912057218
 31
0.0
  0
LINE
  5
10C8
  8
TITLE
 10
119.6596210153478
 20
36.18548535537532
 30
0.0
 11
124.5782147805599
 21
41.10407912057218
 31
0.0
  0
LINE
  5
10C9
  8
TITLE
 10
121.28921247032299
 20
33.450833178000629
 30
0.0
 11
124.06602082510079
 21
36.227641532797733
 31
0.0
  0
LINE
  5
10CA
  8
TITLE
 10
121.5510670882431
 20
33.450833178000629
 30
0.0
 11
126.5873966762605
 21
38.487162766017732
 31
0.0
  0
LINE
  5
10CB
  8
TITLE
 10
121.46378221559659
 20
33.450833178000629
 30
0.0
 11
126.5001118036122
 21
38.487162766017448
 31
0.0
  0
LINE
  5
10CC
  8
TITLE
 10
121.37649734294889
 20
33.450833178000629
 30
0.0
 11
126.41282693096559
 21
38.487162766017732
 31
0.0
  0
LINE
  5
10CD
  8
TITLE
 10
121.20192759766201
 20
33.450833178000913
 30
0.0
 11
123.8610965150265
 21
36.110002095365793
 31
0.0
  0
LINE
  5
10CE
  8
TITLE
 10
121.11464272501399
 20
33.450833178000913
 30
0.0
 11
123.7186552097545
 21
36.05484566274059
 31
0.0
  0
LINE
  5
10CF
  8
TITLE
 10
121.0273578523668
 20
33.450833178000629
 30
0.0
 11
123.5994184705411
 21
36.022893796174799
 31
0.0
  0
LINE
  5
10D0
  8
TITLE
 10
120.9400729797204
 20
33.450833178000629
 30
0.0
 11
123.49378910120311
 21
36.004549299483543
 31
0.0
  0
LINE
  5
10D1
  8
TITLE
 10
120.8527881070725
 20
33.450833178000629
 30
0.0
 11
123.3975748664184
 21
35.995619937345822
 31
0.0
  0
LINE
  5
10D2
  8
TITLE
 10
120.76550323442559
 20
33.450833178000522
 30
0.0
 11
123.30849127269011
 21
35.99382121626509
 31
0.0
  0
LINE
  5
10D3
  8
TITLE
 10
120.678218361779
 20
33.450833178000629
 30
0.0
 11
123.22512982985
 21
35.99774464607215
 31
0.0
  0
LINE
  5
10D4
  8
TITLE
 10
120.5909334891316
 20
33.450833178000629
 30
0.0
 11
123.1465504968818
 21
36.006450185750751
 31
0.0
  0
LINE
  5
10D5
  8
TITLE
 10
120.5036486164841
 20
33.450833178000629
 30
0.0
 11
123.0720905350867
 21
36.019275096603288
 31
0.0
  0
LINE
  5
10D6
  8
TITLE
 10
120.4163637438228
 20
33.450833178000913
 30
0.0
 11
123.00126389369569
 21
36.035733327855723
 31
0.0
  0
LINE
  5
10D7
  8
TITLE
 10
120.3290788711967
 20
33.450833178000913
 30
0.0
 11
122.93370364306691
 21
36.05545794987021
 31
0.0
  0
LINE
  5
10D8
  8
TITLE
 10
120.24179399854999
 20
33.450833178000629
 30
0.0
 11
122.8691268949387
 21
36.078166074389188
 31
0.0
  0
LINE
  5
10D9
  8
TITLE
 10
120.15450912590229
 20
33.450833178000629
 30
0.0
 11
122.8073123541471
 21
36.10363640624481
 31
0.0
  0
LINE
  5
10DA
  8
TITLE
 10
120.0672242532565
 20
33.450833178000629
 30
0.0
 11
122.74808539198639
 21
36.131694316731213
 31
0.0
  0
LINE
  5
10DB
  8
TITLE
 10
119.9799393806088
 20
33.450833178000629
 30
0.0
 11
122.6913078215826
 21
36.162201618974557
 31
0.0
  0
LINE
  5
10DC
  8
TITLE
 10
119.892654507961
 20
33.450833178000629
 30
0.0
 11
122.6368707391245
 21
36.195049409163772
 31
0.0
  0
LINE
  5
10DD
  8
TITLE
 10
119.8053696353136
 20
33.450833178000629
 30
0.0
 11
122.5846894423362
 21
36.230152985022741
 31
0.0
  0
LINE
  5
10DE
  8
TITLE
 10
119.6307998900197
 20
33.450833178000629
 30
0.0
 11
122.4868557481595
 21
36.306889036140113
 31
0.0
  0
LINE
  5
10DF
  8
TITLE
 10
119.54351501740329
 20
33.450833178000629
 30
0.0
 11
122.44112745603979
 21
36.34844561666516
 31
0.0
  0
LINE
  5
10E0
  8
TITLE
 10
119.718084762667
 20
33.450833178000522
 30
0.0
 11
122.53469980975861
 21
36.267448225091961
 31
0.0
  0
LINE
  5
10E2
  8
TITLE
 10
119.6991955842628
 20
38.494466613062869
 30
0.0
 11
122.30880809173919
 21
41.10407912057218
 31
0.0
  0
LINE
  5
10E3
  8
TITLE
 10
119.5356817625027
 20
36.759825083693897
 30
0.0
 11
123.8799357993811
 21
41.10407912057218
 31
0.0
  0
LINE
  5
10E4
  8
TITLE
 10
119.52590477776231
 20
36.837332971600169
 30
0.0
 11
123.7926509267341
 21
41.10407912057218
 31
0.0
  0
LINE
  5
10E5
  8
TITLE
 10
119.51759060022469
 20
36.916303666709759
 30
0.0
 11
123.7053660540867
 21
41.10407912057218
 31
0.0
  0
LINE
  5
10E6
  8
TITLE
 10
119.5108149115577
 20
36.996812850689793
 30
0.0
 11
123.61808118143961
 21
41.10407912057218
 31
0.0
  0
LINE
  5
10E7
  8
TITLE
 10
119.5056623657136
 20
37.078945177492884
 30
0.0
 11
123.5307963087926
 21
41.10407912057218
 31
0.0
  0
LINE
  5
10E8
  8
TITLE
 10
119.5022281098661
 20
37.162795794283362
 30
0.0
 11
123.4435114361454
 21
41.10407912057218
 31
0.0
  0
LINE
  5
10E9
  8
TITLE
 10
119.50061965915749
 20
37.248472216222588
 30
0.0
 11
123.3562265634983
 21
41.10407912057218
 31
0.0
  0
LINE
  5
10EA
  8
TITLE
 10
119.50095923156221
 20
37.336096661273778
 30
0.0
 11
123.26894169085099
 21
41.10407912057218
 31
0.0
  0
LINE
  5
10EB
  8
TITLE
 10
119.5033866891868
 20
37.425808991536051
 30
0.0
 11
123.18165681820371
 21
41.10407912057218
 31
0.0
  0
LINE
  5
10EC
  8
TITLE
 10
119.508063290866
 20
37.517770465861403
 30
0.0
 11
123.0943719455567
 21
41.10407912057218
 31
0.0
  0
LINE
  5
10ED
  8
TITLE
 10
119.5151765482412
 20
37.61216859589581
 30
0.0
 11
123.0070870729167
 21
41.10407912057218
 31
0.0
  0
LINE
  5
10EE
  8
TITLE
 10
119.5249466109308
 20
37.709223531232887
 30
0.0
 11
122.9198022002699
 21
41.10407912057218
 31
0.0
  0
LINE
  5
10EF
  8
TITLE
 10
119.5376348155601
 20
37.809196608509247
 30
0.0
 11
122.8325173276224
 21
41.10407912057218
 31
0.0
  0
LINE
  5
10F0
  8
TITLE
 10
119.553555371068
 20
37.912402036663451
 30
0.0
 11
122.7452324549751
 21
41.10407912057218
 31
0.0
  0
LINE
  5
10F1
  8
TITLE
 10
119.5730917166423
 20
38.019223254885461
 30
0.0
 11
122.6579475823283
 21
41.10407912057218
 31
0.0
  0
LINE
  5
10F2
  8
TITLE
 10
119.59672006767261
 20
38.130136478562797
 30
0.0
 11
122.5706627096809
 21
41.10407912057218
 31
0.0
  0
LINE
  5
10F3
  8
TITLE
 10
119.62504444435901
 20
38.245745727882799
 30
0.0
 11
122.4833778370337
 21
41.10407912057218
 31
0.0
  0
LINE
  5
10F4
  8
TITLE
 10
119.6588508908735
 20
38.366837047043369
 30
0.0
 11
122.3960929643866
 21
41.10407912057218
 31
0.0
  0
LINE
  5
10F5
  8
TITLE
 10
119.7475570630407
 20
38.630112964483331
 30
0.0
 11
122.2215232190926
 21
41.10407912057218
 31
0.0
  0
LINE
  5
10F6
  8
TITLE
 10
123.7842161662909
 20
38.47709818073524
 30
0.0
 11
123.7942807515736
 21
38.487162766017732
 31
0.0
  0
LINE
  5
10F7
  8
TITLE
 10
123.846069687748
 20
38.451666829545736
 30
0.0
 11
123.8815656242203
 21
38.487162766017732
 31
0.0
  0
LINE
  5
10F8
  8
TITLE
 10
119.87837471686829
 20
38.935500363634233
 30
0.0
 11
122.0469534738053
 21
41.10407912057218
 31
0.0
  0
LINE
  5
10F9
  8
TITLE
 10
119.8061210691303
 20
38.77596184321375
 30
0.0
 11
122.1342383464455
 21
41.10407912057218
 31
0.0
  0
LINE
  5
10FA
  8
TITLE
 10
119.99855021796169
 20
35.389711213578451
 30
0.0
 11
122.0544190242497
 21
37.445580019865147
 31
0.0
  0
LINE
  5
10FB
  8
TITLE
 10
119.9673574068533
 20
35.445803275119722
 30
0.0
 11
122.0729252477288
 21
37.551371115991991
 31
0.0
  0
LINE
  5
10FC
  8
TITLE
 10
119.9369620260148
 20
35.502692766959562
 30
0.0
 11
122.1051251839025
 21
37.670855924819641
 31
0.0
  0
LINE
  5
10FD
  8
TITLE
 10
119.9073764141266
 20
35.560392027709511
 30
0.0
 11
122.1607584701225
 21
37.81377408368386
 31
0.0
  0
LINE
  5
10FE
  8
TITLE
 10
119.8786139441456
 20
35.61891443032178
 30
0.0
 11
122.2803928826204
 21
38.020693368814698
 31
0.0
  0
LINE
  5
10FF
  8
TITLE
 10
120.0305290909705
 20
35.33440521393819
 30
0.0
 11
122.04537152320729
 21
37.349247646174959
 31
0.0
  0
LINE
  5
1100
  8
TITLE
 10
120.47256755522849
 20
34.729025206448192
 30
0.0
 11
122.27930117902849
 21
36.535758830238251
 31
0.0
  0
LINE
  5
1101
  8
TITLE
 10
120.5992525161101
 20
34.593855549403287
 30
0.0
 11
122.3975003441045
 21
36.392103377374923
 31
0.0
  0
LINE
  5
1102
  8
TITLE
 10
120.5563192463168
 20
34.638207152264549
 30
0.0
 11
122.3559745190458
 21
36.43786242496342
 31
0.0
  0
LINE
  5
1103
  8
TITLE
 10
120.514090557313
 20
34.68326333588022
 30
0.0
 11
122.3165647872935
 21
36.48573756585585
 31
0.0
  0
LINE
  5
1104
  8
TITLE
 10
120.3916458255553
 20
34.822673222058548
 30
0.0
 11
122.21141576110131
 21
36.64244315760417
 31
0.0
  0
LINE
  5
1105
  8
TITLE
 10
120.3522521212294
 20
34.87056439038021
 30
0.0
 11
122.1809433794772
 21
36.69925564862789
 31
0.0
  0
LINE
  5
1106
  8
TITLE
 10
120.3135741703726
 20
34.919171312170391
 30
0.0
 11
122.1529221823248
 21
36.758519324122631
 31
0.0
  0
LINE
  5
1107
  8
TITLE
 10
120.27561595025711
 20
34.968497964702692
 30
0.0
 11
122.12749083113501
 21
36.82037284558016
 31
0.0
  0
LINE
  5
1108
  8
TITLE
 10
120.16610875714279
 20
35.120845389507913
 30
0.0
 11
122.06873736886099
 21
37.023474001244189
 31
0.0
  0
LINE
  5
1109
  8
TITLE
 10
120.2383820510445
 20
35.018548938136249
 30
0.0
 11
122.104824553463
 21
36.884991440554771
 31
0.0
  0
LINE
  5
110A
  8
TITLE
 10
120.20187769474779
 20
35.069329454486891
 30
0.0
 11
122.08514542238881
 21
36.952597182127853
 31
0.0
  0
LINE
  5
110B
  8
TITLE
 10
120.1310817927648
 20
35.173103297818642
 30
0.0
 11
122.0559687700523
 21
37.097990275081123
 31
0.0
  0
LINE
  5
110C
  8
TITLE
 10
120.0968040634874
 20
35.226110441196241
 30
0.0
 11
122.0473277703136
 21
37.176634147990008
 31
0.0
  0
LINE
  5
110D
  8
TITLE
 10
120.0632835705832
 20
35.279874820909953
 30
0.0
 11
122.0434802906088
 21
37.260071540929218
 31
0.0
  0
LINE
  5
110E
  8
TITLE
 10
120.431751902741
 20
34.77549442660748
 30
0.0
 11
122.2442300364996
 21
36.587972560356157
 31
0.0
  0
LINE
  5
110F
  8
TITLE
 10
121.7420937297891
 20
41.10407912057218
 30
0.0
 11
120.6213018105438
 21
39.98328720132664
 31
0.0
  0
LINE
  5
1110
  8
TITLE
 10
120.3023601853122
 20
39.62134045001514
 30
0.0
 11
121.78509885586379
 21
41.10407912057218
 31
0.0
  0
LINE
  5
1111
  8
TITLE
 10
120.0962783141606
 20
39.327973706222721
 30
0.0
 11
121.872383728511
 21
41.10407912057218
 31
0.0
  0
LINE
  5
1112
  8
TITLE
 10
119.97055903818359
 20
39.114969557597817
 30
0.0
 11
121.959668601158
 21
41.10407912057218
 31
0.0
  0
LINE
  5
1113
  8
TITLE
 10
124.5422261388137
 20
33.64887630388786
 30
0.0
 11
126.9557127079826
 21
36.062362873056571
 31
0.0
  0
LINE
  5
1114
  8
TITLE
 10
124.29369694209061
 20
33.574916852455239
 30
0.0
 11
127.0296721594151
 21
36.310892069779811
 31
0.0
  0
LINE
  5
1115
  8
TITLE
 10
124.41470140681901
 20
33.608636444536252
 30
0.0
 11
126.9959525673341
 21
36.18988760505151
 31
0.0
  0
LINE
  5
1116
  8
TITLE
 10
124.1781613964546
 20
33.5466661794663
 30
0.0
 11
127.0579228324042
 21
36.426427615416067
 31
0.0
  0
LINE
  5
1117
  8
TITLE
 10
124.06731190958
 20
33.52310156523879
 30
0.0
 11
127.0814874466307
 21
36.5372771022856
 31
0.0
  0
LINE
  5
1118
  8
TITLE
 10
123.96054665794659
 20
33.503621186252602
 30
0.0
 11
127.10096782561671
 21
36.644042353919097
 31
0.0
  0
LINE
  5
1119
  8
TITLE
 10
124.8234209858055
 20
33.755501405585413
 30
0.0
 11
126.8490876062875
 21
35.781168026070389
 31
0.0
  0
LINE
  5
111A
  8
TITLE
 10
124.67774191356381
 20
33.69710720598718
 30
0.0
 11
126.9074818058828
 21
35.926847098305771
 31
0.0
  0
LINE
  5
111B
  8
TITLE
 10
124.98272433684321
 20
33.827519883972151
 30
0.0
 11
126.7770691278983
 21
35.621864675026629
 31
0.0
  0
LINE
  5
111C
  8
TITLE
 10
125.1618332045707
 20
33.919343879053947
 30
0.0
 11
126.6852451328142
 21
35.442755807295789
 31
0.0
  0
LINE
  5
111F
  8
TITLE
 10
131.62276507624671
 20
38.689841925901888
 30
0.0
 11
132.7781583346721
 21
39.845235184330868
 31
0.0
  0
LINE
  5
1120
  8
TITLE
 10
131.71004994889401
 20
38.689841925901888
 30
0.0
 11
132.86544320731949
 21
39.845235184330868
 31
0.0
  0
LINE
  5
1121
  8
TITLE
 10
131.7973348215408
 20
38.689841925901888
 30
0.0
 11
132.95272807996659
 21
39.845235184330868
 31
0.0
  0
LINE
  5
1122
  8
TITLE
 10
131.88461969418819
 20
38.689841925901888
 30
0.0
 11
133.04001295261361
 21
39.845235184330868
 31
0.0
  0
LINE
  5
1123
  8
TITLE
 10
131.9719045668356
 20
38.689841925901888
 30
0.0
 11
133.127297825261
 21
39.845235184330868
 31
0.0
  0
LINE
  5
1124
  8
TITLE
 10
132.05918943948251
 20
38.689841925901888
 30
0.0
 11
133.21458269790759
 21
39.845235184330868
 31
0.0
  0
LINE
  5
1125
  8
TITLE
 10
131.011770967724
 20
38.689841925901888
 30
0.0
 11
132.16716422614911
 21
39.845235184330868
 31
0.0
  0
LINE
  5
1126
  8
TITLE
 10
131.09905584037119
 20
38.689841925901888
 30
0.0
 11
132.2544490987961
 21
39.845235184330868
 31
0.0
  0
LINE
  5
1127
  8
TITLE
 10
131.18634071301801
 20
38.689841925901888
 30
0.0
 11
132.3417339714436
 21
39.845235184330868
 31
0.0
  0
LINE
  5
1128
  8
TITLE
 10
131.2736255856654
 20
38.689841925901888
 30
0.0
 11
132.42901884409059
 21
39.845235184330868
 31
0.0
  0
LINE
  5
1129
  8
TITLE
 10
131.36091045830531
 20
38.689841925901888
 30
0.0
 11
132.51630371673801
 21
39.845235184330868
 31
0.0
  0
LINE
  5
112A
  8
TITLE
 10
131.44819533095239
 20
38.689841925901888
 30
0.0
 11
132.6035885893848
 21
39.845235184330868
 31
0.0
  0
LINE
  5
112B
  8
TITLE
 10
131.53548020359949
 20
38.689841925901888
 30
0.0
 11
132.69087346203199
 21
39.845235184330868
 31
0.0
  0
LINE
  5
112C
  8
TITLE
 10
131.58783114675879
 20
34.290664364088187
 30
0.0
 11
132.76881084983481
 21
35.47164406716476
 31
0.0
  0
LINE
  5
112D
  8
TITLE
 10
131.67511601940561
 20
34.290664364088187
 30
0.0
 11
132.93325710182361
 21
35.548805446506208
 31
0.0
  0
LINE
  5
112E
  8
TITLE
 10
131.7624008920528
 20
34.290664364088187
 30
0.0
 11
133.19069160982869
 21
35.718955081863868
 31
0.0
  0
LINE
  5
112F
  8
TITLE
 10
131.0641219108827
 20
34.290664364088187
 30
0.0
 11
132.121546663706
 21
35.348089116911311
 31
0.0
  0
LINE
  5
1130
  8
TITLE
 10
131.15140678353001
 20
34.290664364088187
 30
0.0
 11
132.21053226598781
 21
35.349789846546223
 31
0.0
  0
LINE
  5
1131
  8
TITLE
 10
131.238691656177
 20
34.290664364088187
 30
0.0
 11
132.30468771114431
 21
35.356660419062869
 31
0.0
  0
LINE
  5
1132
  8
TITLE
 10
131.32597652881711
 20
34.290664364088187
 30
0.0
 11
132.40519659512449
 21
35.3698844303958
 31
0.0
  0
LINE
  5
1133
  8
TITLE
 10
131.41326140146421
 20
34.290664364088187
 30
0.0
 11
132.5137681585486
 21
35.391171121172853
 31
0.0
  0
LINE
  5
1134
  8
TITLE
 10
131.5005462741114
 20
34.290664364088187
 30
0.0
 11
132.6332124734231
 21
35.423330563399958
 31
0.0
  0
LINE
  5
1135
  8
TITLE
 10
131.84968576470001
 20
34.290664364088187
 30
0.0
 11
135.1387854337799
 21
37.57976403316809
 31
0.0
  0
LINE
  5
1136
  8
TITLE
 10
131.936970637347
 20
34.290664364088187
 30
0.0
 11
135.1387854337799
 21
37.49247916052078
 31
0.0
  0
LINE
  5
1137
  8
TITLE
 10
132.02425550999411
 20
34.290664364088187
 30
0.0
 11
135.1387854337799
 21
37.405194287873947
 31
0.0
  0
LINE
  5
113A
  8
TITLE
 10
124.374436026848
 20
38.019899569533898
 30
0.0
 11
124.8416992233321
 21
38.487162766017732
 31
0.0
  0
LINE
  5
113B
  8
TITLE
 10
124.4423873928959
 20
37.913281190288131
 30
0.0
 11
125.0162689686257
 21
38.487162766017732
 31
0.0
  0
LINE
  5
113C
  8
TITLE
 10
124.5009526056257
 20
37.797276657723188
 30
0.0
 11
125.1908387139206
 21
38.487162766017732
 31
0.0
  0
LINE
  5
113D
  8
TITLE
 10
124.5264229374814
 20
37.73546211693175
 30
0.0
 11
125.2781235865676
 21
38.487162766017732
 31
0.0
  0
LINE
  5
113E
  8
TITLE
 10
124.4728946951391
 20
37.85650361988435
 30
0.0
 11
125.1035538412728
 21
38.487162766017732
 31
0.0
  0
LINE
  5
113F
  8
TITLE
 10
124.409539602707
 20
37.967718272745891
 30
0.0
 11
124.92898409597861
 21
38.487162766017732
 31
0.0
  0
LINE
  5
1140
  8
TITLE
 10
124.3371407867786
 20
38.069889202111852
 30
0.0
 11
124.7544143506846
 21
38.487162766017732
 31
0.0
  0
LINE
  5
1141
  8
TITLE
 10
124.2124856345074
 20
38.207088667754761
 30
0.0
 11
124.4925597327745
 21
38.487162766017732
 31
0.0
  0
LINE
  5
1142
  8
TITLE
 10
124.2561433951965
 20
38.163461555839781
 30
0.0
 11
124.5798446053719
 21
38.487162766017732
 31
0.0
  0
LINE
  5
1143
  8
TITLE
 10
124.2976999757305
 20
38.117733263710413
 30
0.0
 11
124.6671294780375
 21
38.487162766017732
 31
0.0
  0
LINE
  5
1144
  8
TITLE
 10
124.16672658692301
 20
38.248614492810631
 30
0.0
 11
124.4052748601341
 21
38.487162766017903
 31
0.0
  0
LINE
  5
1145
  8
TITLE
 10
124.06883018163791
 20
38.325287832837788
 30
0.0
 11
124.230705114819
 21
38.487162766017903
 31
0.0
  0
LINE
  5
1146
  8
TITLE
 10
124.1188514460176
 20
38.28802422457494
 30
0.0
 11
124.317989987461
 21
38.487162766017732
 31
0.0
  0
LINE
  5
1147
  8
TITLE
 10
123.9621458542659
 20
38.393173250769522
 30
0.0
 11
124.05613536951439
 21
38.487162766017732
 31
0.0
  0
LINE
  5
1148
  8
TITLE
 10
123.90533336324251
 20
38.423645632393047
 30
0.0
 11
123.96885049686711
 21
38.487162766017732
 31
0.0
  0
LINE
  5
1149
  8
TITLE
 10
124.01661645152041
 20
38.360358975367141
 30
0.0
 11
124.1434202421719
 21
38.487162766017903
 31
0.0
  0
LINE
  5
114A
  8
TITLE
 10
125.66539193621099
 20
34.248332865401942
 30
0.0
 11
126.3562561464686
 21
34.939197075659067
 31
0.0
  0
LINE
  5
114B
  8
TITLE
 10
125.3741686879834
 20
34.044394489821443
 30
0.0
 11
126.5601945220491
 21
35.230420323887273
 31
0.0
  0
LINE
  5
114C
  8
TITLE
 10
124.5491310620002
 20
37.67088536880317
 30
0.0
 11
125.3654084592151
 21
38.487162766017448
 31
0.0
  0
LINE
  5
114D
  8
TITLE
 10
124.5688556840169
 20
37.603325118166147
 30
0.0
 11
125.4526933318746
 21
38.487162766017448
 31
0.0
  0
LINE
  5
114E
  8
TITLE
 10
124.58531391526709
 20
37.532498476783537
 30
0.0
 11
125.53997820450179
 21
38.487162766017732
 31
0.0
  0
LINE
  5
114F
  8
TITLE
 10
124.59813882611979
 20
37.458038514988793
 30
0.0
 11
125.6272630771489
 21
38.487162766017732
 31
0.0
  0
LINE
  5
1150
  8
TITLE
 10
124.6068443657983
 20
37.37945918202081
 30
0.0
 11
125.7145479497955
 21
38.487162766017732
 31
0.0
  0
LINE
  5
1151
  8
TITLE
 10
124.6089690745244
 20
37.207014145452028
 30
0.0
 11
125.88911769509021
 21
38.487162766017732
 31
0.0
  0
LINE
  5
1152
  8
TITLE
 10
124.600039712387
 20
37.11079991066746
 30
0.0
 11
125.9764025677372
 21
38.487162766017732
 31
0.0
  0
LINE
  5
1153
  8
TITLE
 10
124.5816952156959
 20
37.005170541329029
 30
0.0
 11
126.063687440385
 21
38.487162766017732
 31
0.0
  0
LINE
  5
1154
  8
TITLE
 10
124.6107677956052
 20
37.296097739180162
 30
0.0
 11
125.80183282244271
 21
38.487162766017732
 31
0.0
  0
LINE
  5
1155
  8
TITLE
 10
124.5497433491297
 20
36.885933802115929
 30
0.0
 11
126.1509723130323
 21
38.487162766017448
 31
0.0
  0
LINE
  5
1156
  8
TITLE
 10
124.4945869165047
 20
36.743492496843849
 30
0.0
 11
126.23825718567861
 21
38.487162766017448
 31
0.0
  0
LINE
  5
1157
  8
TITLE
 10
124.3769474790779
 20
36.538568186776708
 30
0.0
 11
126.325542058306
 21
38.487162766017732
 31
0.0
  0
LINE
  5
1158
  8
TITLE
 10
130.92448609507699
 20
38.689841925901888
 30
0.0
 11
132.07987935350201
 21
39.845235184330868
 31
0.0
  0
LINE
  5
1159
  8
TITLE
 10
130.71498242029401
 20
34.290664364088187
 30
0.0
 11
131.77240717311699
 21
35.348089116911311
 31
0.0
  0
LINE
  5
115A
  8
TITLE
 10
130.80226729294131
 20
34.290664364088187
 30
0.0
 11
131.8596920457644
 21
35.348089116911311
 31
0.0
  0
LINE
  5
115B
  8
TITLE
 10
130.8895521655885
 20
34.290664364088187
 30
0.0
 11
131.94697691841171
 21
35.348089116911311
 31
0.0
  0
LINE
  5
115C
  8
TITLE
 10
130.1617067820934
 20
34.87209207029332
 30
0.0
 11
130.63770382871161
 21
35.348089116911311
 31
0.0
  0
LINE
  5
115D
  8
TITLE
 10
130.1617067820934
 20
34.784807197646167
 30
0.0
 11
130.7249887013588
 21
35.348089116911311
 31
0.0
  0
LINE
  5
115E
  8
TITLE
 10
130.1617067820934
 20
34.697522324999333
 30
0.0
 11
130.81227357400579
 21
35.348089116911311
 31
0.0
  0
LINE
  5
115F
  8
TITLE
 10
130.1617067820934
 20
34.61023745235191
 30
0.0
 11
130.8995584466528
 21
35.348089116911311
 31
0.0
  0
LINE
  5
1160
  8
TITLE
 10
130.1617067820934
 20
34.52295257970475
 30
0.0
 11
130.98684331929991
 21
35.348089116911311
 31
0.0
  0
LINE
  5
1161
  8
TITLE
 10
130.1617067820934
 20
34.43566770705749
 30
0.0
 11
131.0741281919471
 21
35.348089116911311
 31
0.0
  0
LINE
  5
1162
  8
TITLE
 10
130.1617067820934
 20
34.3483828344106
 30
0.0
 11
131.16141306459431
 21
35.348089116911311
 31
0.0
  0
LINE
  5
1163
  8
TITLE
 10
130.19127318441861
 20
34.290664364088187
 30
0.0
 11
131.24869793724159
 21
35.348089116911311
 31
0.0
  0
LINE
  5
1164
  8
TITLE
 10
130.2785580570654
 20
34.290664364088187
 30
0.0
 11
131.3359828098888
 21
35.348089116911311
 31
0.0
  0
LINE
  5
1165
  8
TITLE
 10
130.36584292970539
 20
34.290664364088187
 30
0.0
 11
131.42326768253579
 21
35.348089116911311
 31
0.0
  0
LINE
  5
1166
  8
TITLE
 10
130.4531278023527
 20
34.290664364088187
 30
0.0
 11
131.51055255517599
 21
35.348089116911311
 31
0.0
  0
LINE
  5
1167
  8
TITLE
 10
130.5404126749998
 20
34.290664364088187
 30
0.0
 11
131.59783742782301
 21
35.348089116911311
 31
0.0
  0
LINE
  5
1168
  8
TITLE
 10
130.62769754764699
 20
34.290664364088187
 30
0.0
 11
131.68512230047
 21
35.348089116911311
 31
0.0
  0
LINE
  5
1169
  8
TITLE
 10
130.97683703823549
 20
34.290664364088187
 30
0.0
 11
132.03426179105901
 21
35.348089116911311
 31
0.0
  0
LINE
  5
116A
  8
TITLE
 10
130.1617067820934
 20
35.13394668823112
 30
0.0
 11
130.37584921077729
 21
35.348089116911311
 31
0.0
  0
LINE
  5
116B
  8
TITLE
 10
130.1617067820934
 20
35.046661815584109
 30
0.0
 11
130.46313408342451
 21
35.348089116911311
 31
0.0
  0
LINE
  5
116C
  8
TITLE
 10
130.1617067820934
 20
34.959376942936821
 30
0.0
 11
130.55041895606419
 21
35.348089116911311
 31
0.0
  0
LINE
  5
116D
  8
TITLE
 10
130.1617067820934
 20
35.308516433522172
 30
0.0
 11
130.2012794654828
 21
35.348089116911311
 31
0.0
  0
LINE
  5
116E
  8
TITLE
 10
130.1617067820934
 20
35.221231560875083
 30
0.0
 11
130.2885643381301
 21
35.348089116911311
 31
0.0
  0
LINE
  5
116F
  8
TITLE
 10
130.75522780646941
 20
37.036740802303846
 30
0.0
 11
130.8727180180498
 21
37.154231013884171
 31
0.0
  0
LINE
  5
1170
  8
TITLE
 10
130.84251267911691
 20
37.036740802303846
 30
0.0
 11
130.8727180180498
 21
37.066946141236997
 31
0.0
  0
LINE
  5
1171
  8
TITLE
 10
130.4933731885277
 20
37.036740802303846
 30
0.0
 11
130.8727180180498
 21
37.416085631822241
 31
0.0
  0
LINE
  5
1172
  8
TITLE
 10
130.5806580611752
 20
37.036740802303846
 30
0.0
 11
130.8727180180498
 21
37.328800759175117
 31
0.0
  0
LINE
  5
1173
  8
TITLE
 10
130.66794293382239
 20
37.036740802303846
 30
0.0
 11
130.8727180180498
 21
37.24151588653114
 31
0.0
  0
LINE
  5
1174
  8
TITLE
 10
130.23151857059401
 20
37.036740802303846
 30
0.0
 11
130.8727180180498
 21
37.677940249759899
 31
0.0
  0
LINE
  5
1175
  8
TITLE
 10
130.3188034432406
 20
37.036740802303846
 30
0.0
 11
130.8727180180498
 21
37.590655377112718
 31
0.0
  0
LINE
  5
1176
  8
TITLE
 10
130.40608831588801
 20
37.036740802303846
 30
0.0
 11
130.8727180180498
 21
37.503370504469252
 31
0.0
  0
LINE
  5
1177
  8
TITLE
 10
129.88237908000531
 20
37.036740802303846
 30
0.0
 11
130.8727180180498
 21
38.027079740348583
 31
0.0
  0
LINE
  5
1178
  8
TITLE
 10
129.96966395265221
 20
37.036740802303846
 30
0.0
 11
130.8727180180498
 21
37.939794867701472
 31
0.0
  0
LINE
  5
1179
  8
TITLE
 10
130.05694882529949
 20
37.036740802303846
 30
0.0
 11
130.8727180180498
 21
37.85250999505417
 31
0.0
  0
LINE
  5
117A
  8
TITLE
 10
130.14423369794679
 20
37.036740802303846
 30
0.0
 11
130.8727180180498
 21
37.76522512240718
 31
0.0
  0
LINE
  5
117B
  8
TITLE
 10
129.5928977933286
 20
39.627660312961851
 30
0.0
 11
129.8104726646975
 21
39.845235184330868
 31
0.0
  0
LINE
  5
117C
  8
TITLE
 10
129.5928977933286
 20
39.8022300582561
 30
0.0
 11
129.63590291940321
 21
39.845235184330868
 31
0.0
  0
LINE
  5
117D
  8
TITLE
 10
129.5928977933286
 20
39.714945185609132
 30
0.0
 11
129.7231877920504
 21
39.845235184330868
 31
0.0
  0
LINE
  5
117E
  8
TITLE
 10
129.5928977933286
 20
39.01666620443887
 30
0.0
 11
130.4214667732204
 21
39.845235184330868
 31
0.0
  0
LINE
  5
117F
  8
TITLE
 10
129.5928977933286
 20
38.929381331791703
 30
0.0
 11
130.50875164586779
 21
39.845235184330868
 31
0.0
  0
LINE
  5
1180
  8
TITLE
 10
129.5928977933286
 20
38.8420964591444
 30
0.0
 11
130.59603651851461
 21
39.845235184330868
 31
0.0
  0
LINE
  5
1181
  8
TITLE
 10
129.5928977933286
 20
38.754811586497688
 30
0.0
 11
130.68332139116171
 21
39.845235184330868
 31
0.0
  0
LINE
  5
1182
  8
TITLE
 10
129.5928977933286
 20
38.056532605327433
 30
0.0
 11
131.3816003723318
 21
39.845235184330868
 31
0.0
  0
LINE
  5
1183
  8
TITLE
 10
129.5928977933286
 20
37.969247732680238
 30
0.0
 11
131.46888524497911
 21
39.845235184330868
 31
0.0
  0
LINE
  5
1184
  8
TITLE
 10
129.5928977933286
 20
37.881962860033141
 30
0.0
 11
131.5561701176261
 21
39.845235184330868
 31
0.0
  0
LINE
  5
1185
  8
TITLE
 10
129.5928977933286
 20
37.794677987385853
 30
0.0
 11
131.64345499027351
 21
39.845235184330868
 31
0.0
  0
LINE
  5
1186
  8
TITLE
 10
129.5928977933286
 20
37.707393114738821
 30
0.0
 11
131.7307398629207
 21
39.845235184330868
 31
0.0
  0
LINE
  5
1187
  8
TITLE
 10
129.5928977933286
 20
37.620108242091568
 30
0.0
 11
131.8180247355678
 21
39.845235184330868
 31
0.0
  0
LINE
  5
1188
  8
TITLE
 10
129.5928977933286
 20
37.532823369444273
 30
0.0
 11
131.9053096082078
 21
39.845235184330868
 31
0.0
  0
LINE
  5
1189
  8
TITLE
 10
129.5928977933286
 20
37.4455384968009
 30
0.0
 11
131.99259448085499
 21
39.845235184330868
 31
0.0
  0
LINE
  5
118A
  8
TITLE
 10
129.5928977933286
 20
38.492956968555852
 30
0.0
 11
130.9451760090962
 21
39.845235184330868
 31
0.0
  0
LINE
  5
118B
  8
TITLE
 10
129.5928977933286
 20
38.40567209590882
 30
0.0
 11
131.03246088174319
 21
39.845235184330868
 31
0.0
  0
LINE
  5
118C
  8
TITLE
 10
129.5928977933286
 20
38.318387223265219
 30
0.0
 11
131.11974575439041
 21
39.845235184330868
 31
0.0
  0
LINE
  5
118D
  8
TITLE
 10
129.5928977933286
 20
38.231102350618052
 30
0.0
 11
131.20703062703751
 21
39.845235184330868
 31
0.0
  0
LINE
  5
118E
  8
TITLE
 10
129.5928977933286
 20
38.143817477970771
 30
0.0
 11
131.2943154996845
 21
39.845235184330868
 31
0.0
  0
LINE
  5
118F
  8
TITLE
 10
129.5928977933286
 20
38.667526713850251
 30
0.0
 11
130.7706062638091
 21
39.845235184330868
 31
0.0
  0
LINE
  5
1190
  8
TITLE
 10
129.5928977933286
 20
38.580241841202977
 30
0.0
 11
130.8578911364562
 21
39.845235184330868
 31
0.0
  0
LINE
  5
1191
  8
TITLE
 10
129.5928977933286
 20
37.358253624153768
 30
0.0
 11
130.8727180180498
 21
38.638073848871151
 31
0.0
  0
LINE
  5
1192
  8
TITLE
 10
129.5928977933286
 20
37.270968751506771
 30
0.0
 11
130.8727180180498
 21
38.550788976224297
 31
0.0
  0
LINE
  5
1193
  8
TITLE
 10
129.6205244620636
 20
37.036740802303846
 30
0.0
 11
130.8727180180498
 21
38.288934358286241
 31
0.0
  0
LINE
  5
1194
  8
TITLE
 10
129.70780933471059
 20
37.036740802303846
 30
0.0
 11
130.8727180180498
 21
38.201649485642712
 31
0.0
  0
LINE
  5
1195
  8
TITLE
 10
129.79509420735769
 20
37.036740802303846
 30
0.0
 11
130.8727180180498
 21
38.114364612995892
 31
0.0
  0
LINE
  5
1196
  8
TITLE
 10
129.5928977933286
 20
37.183683878863292
 30
0.0
 11
130.8727180180498
 21
38.463504103580831
 31
0.0
  0
LINE
  5
1197
  8
TITLE
 10
129.5928977933286
 20
37.096399006216117
 30
0.0
 11
130.8727180180498
 21
38.376219230933962
 31
0.0
  0
LINE
  5
1198
  8
TITLE
 10
129.5928977933286
 20
39.103951077082471
 30
0.0
 11
130.33418190057321
 21
39.845235184330868
 31
0.0
  0
LINE
  5
1199
  8
TITLE
 10
129.5928977933286
 20
39.191235949729773
 30
0.0
 11
130.246897027926
 21
39.845235184330868
 31
0.0
  0
LINE
  5
119A
  8
TITLE
 10
129.5928977933286
 20
39.365805695020413
 30
0.0
 11
130.07232728263199
 21
39.845235184330868
 31
0.0
  0
LINE
  5
119B
  8
TITLE
 10
129.5928977933286
 20
39.278520822373707
 30
0.0
 11
130.15961215527881
 21
39.845235184330868
 31
0.0
  0
LINE
  5
119C
  8
TITLE
 10
129.5928977933286
 20
39.540375440314719
 30
0.0
 11
129.8977575373446
 21
39.845235184330868
 31
0.0
  0
LINE
  5
119D
  8
TITLE
 10
129.5928977933286
 20
39.453090567667559
 30
0.0
 11
129.9850424099846
 21
39.845235184330868
 31
0.0
  0
LINE
  5
119E
  8
TITLE
 10
139.8749999999998
 20
52.5
 30
0.0
 11
139.8749999999998
 21
42.5
 31
0.0
  0
LINE
  5
119F
  8
TITLE
 10
135.979095482638
 20
36.674376629097722
 30
0.0
 11
137.40085015379179
 21
38.096131300251457
 31
0.0
  0
LINE
  5
11A0
  8
TITLE
 10
136.07288564064109
 20
36.680881914460642
 30
0.0
 11
137.5316075596385
 21
38.139603833454352
 31
0.0
  0
LINE
  5
11A1
  8
TITLE
 10
136.16835074212031
 20
36.68906214329273
 30
0.0
 11
137.6678888718005
 21
38.188600272965751
 31
0.0
  0
LINE
  5
11A2
  8
TITLE
 10
135.60094273715171
 20
36.994502864780848
 30
0.0
 11
136.49015255532359
 21
37.883712682960208
 31
0.0
  0
LINE
  5
11A3
  8
TITLE
 10
135.60094273715171
 20
36.907217992133852
 30
0.0
 11
136.59399317660231
 21
37.900268431588373
 31
0.0
  0
LINE
  5
11A4
  8
TITLE
 10
135.60094273715171
 20
36.819933119486812
 30
0.0
 11
136.70020082482381
 21
37.919191207166492
 31
0.0
  0
LINE
  5
11A5
  8
TITLE
 10
135.60094273715171
 20
36.732648246842899
 30
0.0
 11
136.80897126922611
 21
37.94067677892123
 31
0.0
  0
LINE
  5
11A6
  8
TITLE
 10
135.61900412636621
 20
36.663424763414113
 30
0.0
 11
136.92053195825571
 21
37.964952595300439
 31
0.0
  0
LINE
  5
11A7
  8
TITLE
 10
135.70691449470959
 20
36.66405025911029
 30
0.0
 11
137.03514973620381
 21
37.992285500604808
 31
0.0
  0
LINE
  5
11A8
  8
TITLE
 10
135.79618745172851
 20
36.66603834348544
 30
0.0
 11
137.153141170075
 21
38.022992061829051
 31
0.0
  0
LINE
  5
11A9
  8
TITLE
 10
135.8868898937078
 20
36.669455912818123
 30
0.0
 11
137.27488665635011
 21
38.057452675456908
 31
0.0
  0
LINE
  5
11AA
  8
TITLE
 10
135.60094273715171
 20
37.169072610075091
 30
0.0
 11
136.28891381967961
 21
37.857043692603803
 31
0.0
  0
LINE
  5
11AB
  8
TITLE
 10
135.60094273715171
 20
37.081787737427859
 30
0.0
 11
136.3885090000156
 21
37.869354000292262
 31
0.0
  0
LINE
  5
11AC
  8
TITLE
 10
135.60094273715171
 20
37.78006671859815
 30
0.0
 11
135.63972242446181
 21
37.818846405915977
 31
0.0
  0
LINE
  5
11AD
  8
TITLE
 10
132.14647431212981
 20
38.689841925901888
 30
0.0
 11
133.30186757055509
 21
39.845235184330868
 31
0.0
  0
LINE
  5
11AE
  8
TITLE
 10
132.233759184777
 20
38.689841925901888
 30
0.0
 11
133.38915244320251
 21
39.845235184330868
 31
0.0
  0
LINE
  5
11AF
  8
TITLE
 10
132.321044057417
 20
38.689841925901888
 30
0.0
 11
133.47643731584921
 21
39.845235184330868
 31
0.0
  0
LINE
  5
11B0
  8
TITLE
 10
132.40832893006399
 20
38.689841925901888
 30
0.0
 11
133.56372218849631
 21
39.845235184330868
 31
0.0
  0
LINE
  5
11B1
  8
TITLE
 10
132.4956138027112
 20
38.689841925901888
 30
0.0
 11
133.65100706113651
 21
39.845235184330868
 31
0.0
  0
LINE
  5
11B2
  8
TITLE
 10
132.58289867535819
 20
38.689841925901888
 30
0.0
 11
133.7382919337839
 21
39.845235184330868
 31
0.0
  0
LINE
  5
11B3
  8
TITLE
 10
132.67018354800561
 20
38.689841925901888
 30
0.0
 11
133.82557680643069
 21
39.845235184330868
 31
0.0
  0
LINE
  5
11B4
  8
TITLE
 10
132.75746842065249
 20
38.689841925901888
 30
0.0
 11
133.91286167907771
 21
39.845235184330868
 31
0.0
  0
LINE
  5
11B5
  8
TITLE
 10
133.8234146472609
 20
38.010090699581497
 30
0.0
 11
135.1387854337799
 21
39.325461486096771
 31
0.0
  0
LINE
  5
11B6
  8
TITLE
 10
133.8234146472609
 20
37.922805826934209
 30
0.0
 11
135.1387854337799
 21
39.238176613449937
 31
0.0
  0
LINE
  5
11B7
  8
TITLE
 10
133.8234146472609
 20
37.835520954290601
 30
0.0
 11
135.1387854337799
 21
39.150891740802649
 31
0.0
  0
LINE
  5
11B8
  8
TITLE
 10
133.8234146472609
 20
37.748236081643427
 30
0.0
 11
135.1387854337799
 21
39.063606868159169
 31
0.0
  0
LINE
  5
11B9
  8
TITLE
 10
133.8234146472609
 20
38.446515062813731
 30
0.0
 11
135.1387854337799
 21
39.761885849332486
 31
0.0
  0
LINE
  5
11BA
  8
TITLE
 10
133.8234146472609
 20
38.359230190166471
 30
0.0
 11
135.1387854337799
 21
39.674600976685213
 31
0.0
  0
LINE
  5
11BB
  8
TITLE
 10
133.8234146472609
 20
38.271945317519439
 30
0.0
 11
135.1387854337799
 21
39.587316104038223
 31
0.0
  0
LINE
  5
11BC
  8
TITLE
 10
133.8234146472609
 20
38.184660444872151
 30
0.0
 11
135.1387854337799
 21
39.500031231391368
 31
0.0
  0
LINE
  5
11BD
  8
TITLE
 10
133.8234146472609
 20
38.097375572224898
 30
0.0
 11
135.1387854337799
 21
39.412746358744073
 31
0.0
  0
LINE
  5
11BE
  8
TITLE
 10
132.8447532932997
 20
38.689841925901888
 30
0.0
 11
134.00014655172509
 21
39.845235184330868
 31
0.0
  0
LINE
  5
11BF
  8
TITLE
 10
132.93203816594681
 20
38.689841925901888
 30
0.0
 11
134.0874314243722
 21
39.845235184330868
 31
0.0
  0
LINE
  5
11C0
  8
TITLE
 10
133.01932303859411
 20
38.689841925901888
 30
0.0
 11
134.17471629701939
 21
39.845235184330868
 31
0.0
  0
LINE
  5
11C1
  8
TITLE
 10
133.10660791124121
 20
38.689841925901888
 30
0.0
 11
134.2620011696668
 21
39.845235184330868
 31
0.0
  0
LINE
  5
11C2
  8
TITLE
 10
133.19389278388121
 20
38.689841925901888
 30
0.0
 11
134.34928604231391
 21
39.845235184330868
 31
0.0
  0
LINE
  5
11C3
  8
TITLE
 10
133.2811776565286
 20
38.689841925901888
 30
0.0
 11
134.4365709149609
 21
39.845235184330868
 31
0.0
  0
LINE
  5
11C4
  8
TITLE
 10
133.36846252917559
 20
38.689841925901888
 30
0.0
 11
134.523855787608
 21
39.845235184330868
 31
0.0
  0
LINE
  5
11C5
  8
TITLE
 10
133.45574740182249
 20
38.689841925901888
 30
0.0
 11
134.61114066024791
 21
39.845235184330868
 31
0.0
  0
LINE
  5
11C6
  8
TITLE
 10
133.8234146472609
 20
38.533799935460891
 30
0.0
 11
135.13484989613079
 21
39.845235184330868
 31
0.0
  0
LINE
  5
11C7
  8
TITLE
 10
133.54303227447011
 20
38.689841925901888
 30
0.0
 11
134.6984255328949
 21
39.845235184330868
 31
0.0
  0
LINE
  5
11C8
  8
TITLE
 10
133.63031714711701
 20
38.689841925901888
 30
0.0
 11
134.7857104055422
 21
39.845235184330868
 31
0.0
  0
LINE
  5
11C9
  8
TITLE
 10
133.71760201976409
 20
38.689841925901888
 30
0.0
 11
134.87299527818971
 21
39.845235184330868
 31
0.0
  0
LINE
  5
11CA
  8
TITLE
 10
133.8048868924111
 20
38.689841925901888
 30
0.0
 11
134.96028015083641
 21
39.845235184330868
 31
0.0
  0
LINE
  5
11CB
  8
TITLE
 10
133.8234146472609
 20
38.621084808108321
 30
0.0
 11
135.0475650234838
 21
39.845235184330868
 31
0.0
  0
LINE
  5
11CC
  8
TITLE
 10
133.9649085022254
 20
34.747474521331917
 30
0.0
 11
134.68197527653601
 21
35.464541295642867
 31
0.0
  0
LINE
  5
11CD
  8
TITLE
 10
132.11154038264141
 20
34.290664364088187
 30
0.0
 11
135.1387854337799
 21
37.317909415226509
 31
0.0
  0
LINE
  5
11CE
  8
TITLE
 10
132.19882525528141
 20
34.290664364088187
 30
0.0
 11
135.1387854337799
 21
37.230624542582973
 31
0.0
  0
LINE
  5
11CF
  8
TITLE
 10
132.28611012792879
 20
34.290664364088187
 30
0.0
 11
135.1387854337799
 21
37.143339669935827
 31
0.0
  0
LINE
  5
11D0
  8
TITLE
 10
132.37339500057581
 20
34.290664364088187
 30
0.0
 11
135.1387854337799
 21
37.056054797292489
 31
0.0
  0
LINE
  5
11D1
  8
TITLE
 10
132.4606798732228
 20
34.290664364088187
 30
0.0
 11
135.1387854337799
 21
36.968769924645187
 31
0.0
  0
LINE
  5
11D2
  8
TITLE
 10
132.54906446653101
 20
34.291764084749339
 30
0.0
 11
135.13768571311871
 21
36.880385331336917
 31
0.0
  0
LINE
  5
11D3
  8
TITLE
 10
132.64055128721481
 20
34.295966032789181
 30
0.0
 11
135.13348376507511
 21
36.788898510649801
 31
0.0
  0
LINE
  5
11D4
  8
TITLE
 10
132.73554203711211
 20
34.303671910036272
 30
0.0
 11
135.12577788783199
 21
36.693907760755721
 31
0.0
  0
LINE
  5
11D5
  8
TITLE
 10
132.83451018011971
 20
34.315355180399969
 30
0.0
 11
135.11409461746459
 21
36.59493961774821
 31
0.0
  0
LINE
  5
11D6
  8
TITLE
 10
132.93806686818081
 20
34.331626995810282
 30
0.0
 11
135.09782280205741
 21
36.49138292968685
 31
0.0
  0
LINE
  5
11D7
  8
TITLE
 10
133.0470246953906
 20
34.35329995038019
 30
0.0
 11
135.0761498474881
 21
36.382425102474123
 31
0.0
  0
LINE
  5
11D8
  8
TITLE
 10
133.16250562646869
 20
34.381496008807481
 30
0.0
 11
135.0479537890572
 21
36.26694417139953
 31
0.0
  0
LINE
  5
11D9
  8
TITLE
 10
133.28613763006021
 20
34.4178431397482
 30
0.0
 11
135.01160665811969
 21
36.14331216780807
 31
0.0
  0
LINE
  5
11DA
  8
TITLE
 10
133.4204500329497
 20
34.464870669998241
 30
0.0
 11
134.96457912787
 21
36.0089997649183
 31
0.0
  0
LINE
  5
11DB
  8
TITLE
 10
133.45254868230819
 20
35.980812154347248
 30
0.0
 11
135.1387854337799
 21
37.6670489058152
 31
0.0
  0
LINE
  5
11DC
  8
TITLE
 10
133.7429555842748
 20
34.612806476028211
 30
0.0
 11
134.81664332183931
 21
35.686494213593278
 31
0.0
  0
LINE
  5
11DD
  8
TITLE
 10
133.56978837649439
 20
34.526924140895751
 30
0.0
 11
134.90252565697261
 21
35.859661421373183
 31
0.0
  0
LINE
  5
11DE
  8
TITLE
 10
133.8234146472609
 20
37.399096591054892
 30
0.0
 11
135.1387854337799
 21
38.71446737757379
 31
0.0
  0
LINE
  5
11DF
  8
TITLE
 10
133.8234146472609
 20
37.311811718408201
 30
0.0
 11
135.1387854337799
 21
38.627182504926637
 31
0.0
  0
LINE
  5
11E0
  8
TITLE
 10
133.8234146472609
 20
37.224526845760892
 30
0.0
 11
135.1387854337799
 21
38.539897632279782
 31
0.0
  0
LINE
  5
11E1
  8
TITLE
 10
133.82171391762611
 20
36.960971498188172
 30
0.0
 11
135.1387854337799
 21
38.278043014338223
 31
0.0
  0
LINE
  5
11E2
  8
TITLE
 10
133.81484334510961
 20
36.866816053027613
 30
0.0
 11
135.1387854337799
 21
38.190758141694303
 31
0.0
  0
LINE
  5
11E3
  8
TITLE
 10
133.80161933378361
 20
36.766307169047529
 30
0.0
 11
135.1387854337799
 21
38.103473269047612
 31
0.0
  0
LINE
  5
11E4
  8
TITLE
 10
133.8234146472609
 20
37.137241973117092
 30
0.0
 11
135.1387854337799
 21
38.452612759632487
 31
0.0
  0
LINE
  5
11E5
  8
TITLE
 10
133.8234146472609
 20
37.049957100469811
 30
0.0
 11
135.1387854337799
 21
38.365327886985199
 31
0.0
  0
LINE
  5
11E6
  8
TITLE
 10
133.7803326429997
 20
36.657735605623948
 30
0.0
 11
135.1387854337799
 21
38.016188396400302
 31
0.0
  0
LINE
  5
11E7
  8
TITLE
 10
133.74817320077901
 20
36.538291290752412
 30
0.0
 11
135.1387854337799
 21
37.928903523756908
 31
0.0
  0
LINE
  5
11E8
  8
TITLE
 10
133.6998596970077
 20
36.402692914337273
 30
0.0
 11
135.1387854337799
 21
37.841618651109457
 31
0.0
  0
LINE
  5
11E9
  8
TITLE
 10
133.62269831766579
 20
36.238246662352068
 30
0.0
 11
135.1387854337799
 21
37.754333778462041
 31
0.0
  0
LINE
  5
11EA
  8
TITLE
 10
135.60094273715171
 20
37.518212100660072
 30
0.0
 11
135.90860738553451
 21
37.82587674904677
 31
0.0
  0
LINE
  5
11EB
  8
TITLE
 10
135.60094273715171
 20
37.43092722801655
 30
0.0
 11
136.00118090381011
 21
37.831165394675402
 31
0.0
  0
LINE
  5
11EC
  8
TITLE
 10
135.60094273715171
 20
37.343642355369397
 30
0.0
 11
136.09535955470369
 21
37.838059172922272
 31
0.0
  0
LINE
  5
11ED
  8
TITLE
 10
135.60094273715171
 20
37.256357482722137
 30
0.0
 11
136.1912360352961
 21
37.846650780866653
 31
0.0
  0
LINE
  5
11EE
  8
TITLE
 10
135.60094273715171
 20
37.692781845951302
 30
0.0
 11
135.72795005783831
 21
37.819789166644803
 31
0.0
  0
LINE
  5
11EF
  8
TITLE
 10
135.60094273715171
 20
37.605496973307169
 30
0.0
 11
135.81755557183391
 21
37.822109807993421
 31
0.0
  0
LINE
  5
11F0
  8
TITLE
 10
133.8234146472609
 20
37.486381463702017
 30
0.0
 11
135.1387854337799
 21
38.80175225022078
 31
0.0
  0
LINE
  5
11F1
  8
TITLE
 10
133.8234146472609
 20
37.660951208996451
 30
0.0
 11
135.1387854337799
 21
38.976321995511867
 31
0.0
  0
LINE
  5
11F2
  8
TITLE
 10
133.8234146472609
 20
37.573666336349298
 30
0.0
 11
135.1387854337799
 21
38.889037122868068
 31
0.0
  0
LINE
  5
11F3
  8
TITLE
 10
138.17835846748929
 20
35.905953943966949
 30
0.0
 11
139.49372925400081
 21
37.221324730485698
 31
0.0
  0
LINE
  5
11F4
  8
TITLE
 10
138.17835846748929
 20
35.818669071319633
 30
0.0
 11
139.49372925400081
 21
37.134039857838403
 31
0.0
  0
LINE
  5
11F5
  8
TITLE
 10
138.17835846748929
 20
35.731384198672792
 30
0.0
 11
139.49372925400081
 21
37.04675498519137
 31
0.0
  0
LINE
  5
11F6
  8
TITLE
 10
138.17835846748929
 20
35.644099326025639
 30
0.0
 11
139.49372925400081
 21
36.95947011254426
 31
0.0
  0
LINE
  5
11F7
  8
TITLE
 10
138.17835846748929
 20
35.556814453381698
 30
0.0
 11
139.49372925400081
 21
36.872185239897249
 31
0.0
  0
LINE
  5
11F8
  8
TITLE
 10
138.17835846748929
 20
35.469529580734722
 30
0.0
 11
139.49372925400081
 21
36.784900367250117
 31
0.0
  0
LINE
  5
11F9
  8
TITLE
 10
138.17835846748929
 20
35.382244708090937
 30
0.0
 11
139.49372925400081
 21
36.697615494602829
 31
0.0
  0
LINE
  5
11FA
  8
TITLE
 10
138.17835846748929
 20
34.771250599561078
 30
0.0
 11
139.49372925400081
 21
36.086621386079813
 31
0.0
  0
LINE
  5
11FB
  8
TITLE
 10
138.17835846748929
 20
34.683965726917293
 30
0.0
 11
139.49372925400081
 21
35.999336513432702
 31
0.0
  0
LINE
  5
11FC
  8
TITLE
 10
138.17835846748929
 20
35.294959835443642
 30
0.0
 11
139.49372925400081
 21
36.610330621959037
 31
0.0
  0
LINE
  5
11FD
  8
TITLE
 10
138.17835846748929
 20
35.207674962796787
 30
0.0
 11
139.49372925400081
 21
36.523045749312061
 31
0.0
  0
LINE
  5
11FE
  8
TITLE
 10
138.17835846748929
 20
35.120390090149499
 30
0.0
 11
139.49372925400081
 21
36.435760876664901
 31
0.0
  0
LINE
  5
11FF
  8
TITLE
 10
138.17835846748929
 20
35.033105217502197
 30
0.0
 11
139.49372925400081
 21
36.348476004021222
 31
0.0
  0
LINE
  5
1200
  8
TITLE
 10
138.17835846748929
 20
34.945820344855221
 30
0.0
 11
139.49372925400081
 21
36.261191131374133
 31
0.0
  0
LINE
  5
1201
  8
TITLE
 10
138.17835846748929
 20
34.858535472208061
 30
0.0
 11
139.49372925400081
 21
36.173906258726831
 31
0.0
  0
LINE
  5
1202
  8
TITLE
 10
138.17835846748929
 20
34.596680854269977
 30
0.0
 11
139.49372925400081
 21
35.912051640785648
 31
0.0
  0
LINE
  5
1203
  8
TITLE
 10
138.17835846748929
 20
34.509395981623143
 30
0.0
 11
139.49372925400081
 21
35.824766768138403
 31
0.0
  0
LINE
  5
1204
  8
TITLE
 10
138.17835846748929
 20
34.422111108979493
 30
0.0
 11
139.49372925400081
 21
35.737481895494888
 31
0.0
  0
LINE
  5
1205
  8
TITLE
 10
138.17835846748929
 20
34.334826236332191
 30
0.0
 11
139.49372925400081
 21
35.650197022847742
 31
0.0
  0
LINE
  5
1206
  8
TITLE
 10
138.22148146789169
 20
34.290664364088187
 30
0.0
 11
139.49372925400081
 21
35.562912150200482
 31
0.0
  0
LINE
  5
1207
  8
TITLE
 10
138.5706209584805
 20
34.290664364088187
 30
0.0
 11
139.49372925400081
 21
35.213772659615529
 31
0.0
  0
LINE
  5
1208
  8
TITLE
 10
138.6579058311205
 20
34.290664364088187
 30
0.0
 11
139.49372925400081
 21
35.126487786968553
 31
0.0
  0
LINE
  5
1209
  8
TITLE
 10
138.74519070376761
 20
34.290664364088187
 30
0.0
 11
139.49372925400081
 21
35.039202914321251
 31
0.0
  0
LINE
  5
120A
  8
TITLE
 10
138.83247557641471
 20
34.290664364088187
 30
0.0
 11
139.49372925400081
 21
34.951918041674091
 31
0.0
  0
LINE
  5
120B
  8
TITLE
 10
138.4833360858334
 20
34.290664364088187
 30
0.0
 11
139.49372925400081
 21
35.30105753226281
 31
0.0
  0
LINE
  5
120C
  8
TITLE
 10
138.30876634053931
 20
34.290664364088187
 30
0.0
 11
139.49372925400081
 21
35.475627277557102
 31
0.0
  0
LINE
  5
120D
  8
TITLE
 10
138.3960512131861
 20
34.290664364088187
 30
0.0
 11
139.49372925400081
 21
35.388342404909807
 31
0.0
  0
LINE
  5
120E
  8
TITLE
 10
138.91976044906201
 20
34.290664364088187
 30
0.0
 11
139.49372925400081
 21
34.864633169026852
 31
0.0
  0
LINE
  5
120F
  8
TITLE
 10
139.00704532170911
 20
34.290664364088187
 30
0.0
 11
139.49372925400081
 21
34.77734829638333
 31
0.0
  0
LINE
  5
1210
  8
TITLE
 10
139.0943301943563
 20
34.290664364088187
 30
0.0
 11
139.49372925400081
 21
34.690063423736319
 31
0.0
  0
LINE
  5
1211
  8
TITLE
 10
139.18161506700361
 20
34.290664364088187
 30
0.0
 11
139.49372925400081
 21
34.602778551089173
 31
0.0
  0
LINE
  5
1212
  8
TITLE
 10
139.26889993965071
 20
34.290664364088187
 30
0.0
 11
139.49372925400081
 21
34.515493678445829
 31
0.0
  0
LINE
  5
1213
  8
TITLE
 10
139.3561848122977
 20
34.290664364088187
 30
0.0
 11
139.49372925400081
 21
34.428208805798818
 31
0.0
  0
LINE
  5
1214
  8
TITLE
 10
139.44346968494469
 20
34.290664364088187
 30
0.0
 11
139.49372925400081
 21
34.340923933151231
 31
0.0
  0
LINE
  5
1215
  8
TITLE
 10
138.17835846748929
 20
36.080523689261071
 30
0.0
 11
139.49372925400081
 21
37.395894475776458
 31
0.0
  0
LINE
  5
1216
  8
TITLE
 10
138.17835846748929
 20
35.99323881661379
 30
0.0
 11
139.49372925400081
 21
37.308609603133107
 31
0.0
  0
LINE
  5
1217
  8
TITLE
 10
138.17835846748929
 20
36.342378307199127
 30
0.0
 11
139.49372925400081
 21
37.65774909371455
 31
0.0
  0
LINE
  5
1218
  8
TITLE
 10
138.17835846748929
 20
36.255093434555199
 30
0.0
 11
139.49372925400081
 21
37.570464221067269
 31
0.0
  0
LINE
  5
1219
  8
TITLE
 10
138.17835846748929
 20
36.16780856190838
 30
0.0
 11
139.49372925400081
 21
37.483179348423782
 31
0.0
  0
LINE
  5
121A
  8
TITLE
 10
138.17835846748929
 20
36.691517797784051
 30
0.0
 11
139.49372925400081
 21
38.006888584302828
 31
0.0
  0
LINE
  5
121B
  8
TITLE
 10
138.17835846748929
 20
36.604232925136792
 30
0.0
 11
139.49372925400081
 21
37.919603711655853
 31
0.0
  0
LINE
  5
121C
  8
TITLE
 10
138.17835846748929
 20
36.516948052493269
 30
0.0
 11
139.49372925400081
 21
37.832318839008821
 31
0.0
  0
LINE
  5
121D
  8
TITLE
 10
138.17835846748929
 20
36.429663179846308
 30
0.0
 11
139.49372925400081
 21
37.745033966361852
 31
0.0
  0
LINE
  5
121E
  8
TITLE
 10
136.26559155389481
 20
36.69901808241287
 30
0.0
 11
137.81064334461749
 21
38.244069873139097
 31
0.0
  0
LINE
  5
121F
  8
TITLE
 10
136.36472098974971
 20
36.710862645627842
 30
0.0
 11
137.96114514669421
 21
38.30728680256891
 31
0.0
  0
LINE
  5
1220
  8
TITLE
 10
137.37058204309901
 20
36.931159845160053
 30
0.0
 11
139.82868408240751
 21
39.389261884468468
 31
0.0
  0
LINE
  5
1221
  8
TITLE
 10
137.00768852730599
 20
36.830120947300962
 30
0.0
 11
139.29926065819851
 21
39.121693078193701
 31
0.0
  0
LINE
  5
1222
  8
TITLE
 10
137.12484853071859
 20
36.859996078069862
 30
0.0
 11
139.49081270551719
 21
39.225960252872227
 31
0.0
  0
LINE
  5
1223
  8
TITLE
 10
137.24566571198179
 20
36.893528386682952
 30
0.0
 11
139.6658927124887
 21
39.313755387196792
 31
0.0
  0
LINE
  5
1224
  8
TITLE
 10
137.50014370117421
 20
36.973436630584509
 30
0.0
 11
139.98182835518611
 21
39.455121284592522
 31
0.0
  0
LINE
  5
1225
  8
TITLE
 10
137.63503932762691
 20
37.021047384393491
 30
0.0
 11
140.12712112781179
 21
39.51312918457802
 31
0.0
  0
LINE
  5
1226
  8
TITLE
 10
137.77615856357431
 20
37.074881747686213
 30
0.0
 11
140.26584947541559
 21
39.564572659535251
 31
0.0
  0
LINE
  5
1227
  8
TITLE
 10
136.6748015050558
 20
36.75908854299243
 30
0.0
 11
138.4835440896166
 21
38.56783112755339
 31
0.0
  0
LINE
  5
1228
  8
TITLE
 10
136.465866267725
 20
36.724723050955809
 30
0.0
 11
138.1211753907107
 21
38.38003217394192
 31
0.0
  0
LINE
  5
1229
  8
TITLE
 10
136.56917158942679
 20
36.740743500007142
 30
0.0
 11
138.293361398309
 21
38.46493330889281
 31
0.0
  0
LINE
  5
122A
  8
TITLE
 10
136.78294519211201
 20
36.779947357401412
 30
0.0
 11
138.82879720034271
 21
38.825799365632172
 31
0.0
  0
LINE
  5
122B
  8
TITLE
 10
136.8938219711826
 20
36.803539263828867
 30
0.0
 11
139.08383951003401
 21
38.993556802679812
 31
0.0
  0
LINE
  5
122C
  8
TITLE
 10
156.25726551436341
 20
38.971862895652478
 30
0.0
 11
157.14069087006891
 21
39.855288251358168
 31
0.0
  0
LINE
  5
122D
  8
TITLE
 10
156.25726551436341
 20
38.884578023009112
 30
0.0
 11
157.22797574271621
 21
39.855288251358168
 31
0.0
  0
LINE
  5
122E
  8
TITLE
 10
156.25726551436341
 20
38.797293150361853
 30
0.0
 11
157.31526061536351
 21
39.855288251358168
 31
0.0
  0
LINE
  5
122F
  8
TITLE
 10
156.25726551436341
 20
38.273583914482472
 30
0.0
 11
157.83896985123889
 21
39.855288251358168
 31
0.0
  0
LINE
  5
1230
  8
TITLE
 10
156.25726551436341
 20
38.186299041835447
 30
0.0
 11
157.92625472388619
 21
39.855288251358168
 31
0.0
  0
LINE
  5
1231
  8
TITLE
 10
156.25726551436341
 20
38.099014169188209
 30
0.0
 11
158.01353959653341
 21
39.855288251358168
 31
0.0
  0
LINE
  5
1232
  8
TITLE
 10
156.25726551436341
 20
38.448153659776601
 30
0.0
 11
157.66440010595201
 21
39.855288251358168
 31
0.0
  0
LINE
  5
1233
  8
TITLE
 10
156.25726551436341
 20
38.360868787129462
 30
0.0
 11
157.7516849785919
 21
39.855288251358168
 31
0.0
  0
LINE
  5
1234
  8
TITLE
 10
156.25726551436341
 20
38.710008277714969
 30
0.0
 11
157.4025454880105
 21
39.855288251358168
 31
0.0
  0
LINE
  5
1235
  8
TITLE
 10
156.25726551436341
 20
38.62272340507117
 30
0.0
 11
157.48983036065761
 21
39.855288251358168
 31
0.0
  0
LINE
  5
1236
  8
TITLE
 10
156.25726551436341
 20
38.535438532424187
 30
0.0
 11
157.57711523330491
 21
39.855288251358168
 31
0.0
  0
LINE
  5
1237
  8
TITLE
 10
156.25726551436341
 20
37.837159551250281
 30
0.0
 11
157.2526812447021
 21
38.832575281585363
 31
0.0
  0
LINE
  5
1238
  8
TITLE
 10
156.25726551436341
 20
37.749874678606758
 30
0.0
 11
157.2526812447021
 21
38.745290408941692
 31
0.0
  0
LINE
  5
1239
  8
TITLE
 10
156.25726551436341
 20
38.011729296540921
 30
0.0
 11
157.2526812447021
 21
39.007145026879783
 31
0.0
  0
LINE
  5
123A
  8
TITLE
 10
156.25726551436341
 20
37.924444423897249
 30
0.0
 11
157.2526812447021
 21
38.919860154232467
 31
0.0
  0
LINE
  5
123B
  8
TITLE
 10
155.87822847828201
 20
39.029250222799938
 30
0.0
 11
156.70426650684041
 21
39.855288251358168
 31
0.0
  0
LINE
  5
123C
  8
TITLE
 10
155.9655133509292
 20
39.029250222799938
 30
0.0
 11
156.7915513794805
 21
39.855288251358168
 31
0.0
  0
LINE
  5
123D
  8
TITLE
 10
156.05279822357659
 20
39.029250222799938
 30
0.0
 11
156.87883625212791
 21
39.855288251358168
 31
0.0
  0
LINE
  5
123E
  8
TITLE
 10
156.14008309621661
 20
39.029250222799938
 30
0.0
 11
156.9661211247747
 21
39.855288251358168
 31
0.0
  0
LINE
  5
123F
  8
TITLE
 10
156.2273679688634
 20
39.029250222799938
 30
0.0
 11
157.05340599742169
 21
39.855288251358168
 31
0.0
  0
LINE
  5
1240
  8
TITLE
 10
155.41660137924501
 20
34.290664364088187
 30
0.0
 11
157.2526812447021
 21
36.12674422954489
 31
0.0
  0
LINE
  5
1241
  8
TITLE
 10
155.50388625189191
 20
34.290664364088187
 30
0.0
 11
157.2526812447021
 21
36.039459356901702
 31
0.0
  0
LINE
  5
1242
  8
TITLE
 10
156.25726551436341
 20
35.567752862442163
 30
0.0
 11
157.2526812447021
 21
36.563168592780727
 31
0.0
  0
LINE
  5
1243
  8
TITLE
 10
156.25726551436341
 20
35.480467989795052
 30
0.0
 11
157.2526812447021
 21
36.475883720133879
 31
0.0
  0
LINE
  5
1244
  8
TITLE
 10
156.25726551436341
 20
35.393183117147757
 30
0.0
 11
157.2526812447021
 21
36.38859884748647
 31
0.0
  0
LINE
  5
1245
  8
TITLE
 10
156.25726551436341
 20
35.305898244500902
 30
0.0
 11
157.2526812447021
 21
36.301313974839182
 31
0.0
  0
LINE
  5
1246
  8
TITLE
 10
156.25726551436341
 20
35.218613371857117
 30
0.0
 11
157.2526812447021
 21
36.21402910219247
 31
0.0
  0
LINE
  5
1247
  8
TITLE
 10
156.25726551436341
 20
35.916892353030747
 30
0.0
 11
157.2526812447021
 21
36.912308083366113
 31
0.0
  0
LINE
  5
1248
  8
TITLE
 10
156.25726551436341
 20
35.829607480383871
 30
0.0
 11
157.2526812447021
 21
36.825023210718548
 31
0.0
  0
LINE
  5
1249
  8
TITLE
 10
156.25726551436341
 20
35.74232260773644
 30
0.0
 11
157.2526812447021
 21
36.73773833807531
 31
0.0
  0
LINE
  5
124A
  8
TITLE
 10
156.25726551436341
 20
35.655037735089188
 30
0.0
 11
157.2526812447021
 21
36.650453465427887
 31
0.0
  0
LINE
  5
124B
  8
TITLE
 10
155.59117112453919
 20
34.290664364088187
 30
0.0
 11
157.2526812447021
 21
35.95217448425425
 31
0.0
  0
LINE
  5
124C
  8
TITLE
 10
155.6784559971864
 20
34.290664364088187
 30
0.0
 11
157.2526812447021
 21
35.864889611607111
 31
0.0
  0
LINE
  5
124D
  8
TITLE
 10
155.76574086983379
 20
34.290664364088187
 30
0.0
 11
157.2526812447021
 21
35.77760473896376
 31
0.0
  0
LINE
  5
124E
  8
TITLE
 10
155.85302574248081
 20
34.290664364088187
 30
0.0
 11
157.2526812447021
 21
35.69031986631645
 31
0.0
  0
LINE
  5
124F
  8
TITLE
 10
155.94031061512061
 20
34.290664364088187
 30
0.0
 11
157.2526812447021
 21
35.603034993669482
 31
0.0
  0
LINE
  5
1250
  8
TITLE
 10
156.02759548776771
 20
34.290664364088187
 30
0.0
 11
157.2526812447021
 21
35.51575012102218
 31
0.0
  0
LINE
  5
1251
  8
TITLE
 10
156.1148803604151
 20
34.290664364088187
 30
0.0
 11
157.2526812447021
 21
35.428465248375332
 31
0.0
  0
LINE
  5
1252
  8
TITLE
 10
156.20216523306249
 20
34.290664364088187
 30
0.0
 11
157.2526812447021
 21
35.341180375727923
 31
0.0
  0
LINE
  5
1253
  8
TITLE
 10
156.28945010570939
 20
34.290664364088187
 30
0.0
 11
157.2526812447021
 21
35.253895503080749
 31
0.0
  0
LINE
  5
1254
  8
TITLE
 10
156.37673497835681
 20
34.290664364088187
 30
0.0
 11
157.2526812447021
 21
35.166610630433439
 31
0.0
  0
LINE
  5
1255
  8
TITLE
 10
156.4640198510038
 20
34.290664364088187
 30
0.0
 11
157.31645191436661
 21
35.143096427454772
 31
0.0
  0
LINE
  5
1256
  8
TITLE
 10
156.5513047236509
 20
34.290664364088187
 30
0.0
 11
157.4037367870136
 21
35.143096427454772
 31
0.0
  0
LINE
  5
1257
  8
TITLE
 10
156.63858959629781
 20
34.290664364088187
 30
0.0
 11
157.49102165966079
 21
35.143096427454772
 31
0.0
  0
LINE
  5
1258
  8
TITLE
 10
156.25726551436341
 20
36.702456206847728
 30
0.0
 11
157.2526812447021
 21
37.697871937182938
 31
0.0
  0
LINE
  5
1259
  8
TITLE
 10
156.25726551436341
 20
36.615171334200909
 30
0.0
 11
157.2526812447021
 21
37.61058706453975
 31
0.0
  0
LINE
  5
125A
  8
TITLE
 10
156.25726551436341
 20
36.527886461553869
 30
0.0
 11
157.2526812447021
 21
37.523302191892462
 31
0.0
  0
LINE
  5
125B
  8
TITLE
 10
156.25726551436341
 20
36.440601588906631
 30
0.0
 11
157.2526812447021
 21
37.436017319245018
 31
0.0
  0
LINE
  5
125C
  8
TITLE
 10
156.25726551436341
 20
36.353316716259719
 30
0.0
 11
157.2526812447021
 21
37.348732446597758
 31
0.0
  0
LINE
  5
125D
  8
TITLE
 10
156.25726551436341
 20
36.266031843612033
 30
0.0
 11
157.2526812447021
 21
37.261447573950747
 31
0.0
  0
LINE
  5
125E
  8
TITLE
 10
156.25726551436341
 20
36.178746970968703
 30
0.0
 11
157.2526812447021
 21
37.174162701303892
 31
0.0
  0
LINE
  5
125F
  8
TITLE
 10
156.25726551436341
 20
36.091462098321401
 30
0.0
 11
157.2526812447021
 21
37.086877828656732
 31
0.0
  0
LINE
  5
1260
  8
TITLE
 10
156.25726551436341
 20
36.004177225674347
 30
0.0
 11
157.2526812447021
 21
36.999592956009309
 31
0.0
  0
LINE
  5
1261
  8
TITLE
 10
156.25726551436341
 20
37.662589805959463
 30
0.0
 11
157.2526812447021
 21
38.658005536294247
 31
0.0
  0
LINE
  5
1262
  8
TITLE
 10
156.25726551436341
 20
37.575304933312182
 30
0.0
 11
157.2526812447021
 21
38.570720663647812
 31
0.0
  0
LINE
  5
1263
  8
TITLE
 10
156.25726551436341
 20
37.226165442723868
 30
0.0
 11
157.2526812447021
 21
38.221581173062042
 31
0.0
  0
LINE
  5
1264
  8
TITLE
 10
156.25726551436341
 20
37.138880570076459
 30
0.0
 11
157.2526812447021
 21
38.134296300415208
 31
0.0
  0
LINE
  5
1265
  8
TITLE
 10
156.25726551436341
 20
37.488020060665193
 30
0.0
 11
157.2526812447021
 21
38.483435791003892
 31
0.0
  0
LINE
  5
1266
  8
TITLE
 10
156.25726551436341
 20
37.40073518801789
 30
0.0
 11
157.2526812447021
 21
38.396150918356902
 31
0.0
  0
LINE
  5
1267
  8
TITLE
 10
156.25726551436341
 20
37.313450315370751
 30
0.0
 11
157.2526812447021
 21
38.308866045709479
 31
0.0
  0
LINE
  5
1268
  8
TITLE
 10
156.25726551436341
 20
36.964310824785677
 30
0.0
 11
157.2526812447021
 21
37.95972655512076
 31
0.0
  0
LINE
  5
1269
  8
TITLE
 10
156.25726551436341
 20
36.87702595213883
 30
0.0
 11
157.2526812447021
 21
37.87244168247728
 31
0.0
  0
LINE
  5
126A
  8
TITLE
 10
156.25726551436341
 20
36.78974107949503
 30
0.0
 11
157.2526812447021
 21
37.785156809830248
 31
0.0
  0
LINE
  5
126B
  8
TITLE
 10
156.25726551436341
 20
37.051595697433108
 30
0.0
 11
157.2526812447021
 21
38.047011427768062
 31
0.0
  0
LINE
  5
126E
  8
TITLE
 10
147.6481874641326
 20
34.552458732449317
 30
0.0
 11
149.61920505014211
 21
36.523476318458442
 31
0.0
  0
LINE
  5
126F
  8
TITLE
 10
147.6481874641326
 20
34.465173859801901
 30
0.0
 11
149.57332672906301
 21
36.390313124733098
 31
0.0
  0
LINE
  5
1270
  8
TITLE
 10
147.6481874641326
 20
34.377888987154783
 30
0.0
 11
149.52744840798471
 21
36.257149931010652
 31
0.0
  0
LINE
  5
1271
  8
TITLE
 10
147.64824771371281
 20
34.290664364088187
 30
0.0
 11
149.48157008690609
 21
36.123986737284781
 31
0.0
  0
LINE
  5
1272
  8
TITLE
 10
147.7355325863528
 20
34.290664364088187
 30
0.0
 11
149.43569176582741
 21
35.990823543562747
 31
0.0
  0
LINE
  5
1273
  8
TITLE
 10
147.6481874641326
 20
34.814313350390748
 30
0.0
 11
149.756840013378
 21
36.922965899635919
 31
0.0
  0
LINE
  5
1274
  8
TITLE
 10
147.6481874641326
 20
34.72702847774346
 30
0.0
 11
149.71096169229921
 21
36.789802705910297
 31
0.0
  0
LINE
  5
1275
  8
TITLE
 10
147.6481874641326
 20
34.6397436050962
 30
0.0
 11
149.6650833712205
 21
36.656639512184682
 31
0.0
  0
LINE
  5
1276
  8
TITLE
 10
147.6481874641326
 20
35.338022586266497
 30
0.0
 11
150.0321099398426
 21
37.721945061983462
 31
0.0
  0
LINE
  5
1277
  8
TITLE
 10
147.6481874641326
 20
35.250737713619053
 30
0.0
 11
149.9862316187639
 21
37.588781868257691
 31
0.0
  0
LINE
  5
1278
  8
TITLE
 10
147.6481874641326
 20
35.16345284097585
 30
0.0
 11
149.94035329768519
 21
37.455618674532147
 31
0.0
  0
LINE
  5
1279
  8
TITLE
 10
147.6481874641326
 20
35.076167968328413
 30
0.0
 11
149.8944749766066
 21
37.322455480806113
 31
0.0
  0
LINE
  5
127A
  8
TITLE
 10
147.6481874641326
 20
34.988883095681118
 30
0.0
 11
149.848596655535
 21
37.18929228708425
 31
0.0
  0
LINE
  5
127B
  8
TITLE
 10
147.6481874641326
 20
34.901598223037773
 30
0.0
 11
149.8027183344567
 21
37.056129093358066
 31
0.0
  0
LINE
  5
127C
  8
TITLE
 10
147.82281745899991
 20
34.290664364088187
 30
0.0
 11
149.3898134447486
 21
35.857660349836813
 31
0.0
  0
LINE
  5
127D
  8
TITLE
 10
147.91010233164721
 20
34.290664364088187
 30
0.0
 11
149.34393512367001
 21
35.72449715611107
 31
0.0
  0
LINE
  5
127E
  8
TITLE
 10
148.25924182223571
 20
34.290664364088187
 30
0.0
 11
149.3690350844534
 21
35.400457626305773
 31
0.0
  0
LINE
  5
127F
  8
TITLE
 10
148.34652669488281
 20
34.290664364088187
 30
0.0
 11
149.45631995709351
 21
35.400457626305773
 31
0.0
  0
LINE
  5
1280
  8
TITLE
 10
148.43381156753011
 20
34.290664364088187
 30
0.0
 11
149.54360482974079
 21
35.400457626305773
 31
0.0
  0
LINE
  5
1281
  8
TITLE
 10
147.9973872042942
 20
34.290664364088187
 30
0.0
 11
149.29805680259139
 21
35.591333962385292
 31
0.0
  0
LINE
  5
1282
  8
TITLE
 10
148.0846720769415
 20
34.290664364088187
 30
0.0
 11
149.25217848151291
 21
35.458170768659663
 31
0.0
  0
LINE
  5
1283
  8
TITLE
 10
148.1719569495886
 20
34.290664364088187
 30
0.0
 11
149.28175021180661
 21
35.400457626305773
 31
0.0
  0
LINE
  5
1284
  8
TITLE
 10
148.41462498437861
 20
36.715454215042733
 30
0.0
 11
150.35325818739281
 21
38.654087418056932
 31
0.0
  0
LINE
  5
1285
  8
TITLE
 10
148.36874666329999
 20
36.582291021316969
 30
0.0
 11
150.30737986631459
 21
38.52092422433158
 31
0.0
  0
LINE
  5
1286
  8
TITLE
 10
148.08360621260971
 20
35.860726207394549
 30
0.0
 11
150.07798826092099
 21
37.855108255709652
 31
0.0
  0
LINE
  5
1287
  8
TITLE
 10
148.27699002114289
 20
36.315964633868887
 30
0.0
 11
150.21562322415721
 21
38.25459783687986
 31
0.0
  0
LINE
  5
1288
  8
TITLE
 10
148.2311117000641
 20
36.182801440146783
 30
0.0
 11
150.16974490307851
 21
38.121434643157599
 31
0.0
  0
LINE
  5
1289
  8
TITLE
 10
148.32286834222151
 20
36.449127827591298
 30
0.0
 11
150.2615015452356
 21
38.387761030605212
 31
0.0
  0
LINE
  5
128A
  8
TITLE
 10
148.18523337899299
 20
36.049638246420848
 30
0.0
 11
150.12386658199981
 21
37.988271449431942
 31
0.0
  0
LINE
  5
128B
  8
TITLE
 10
148.46050330545751
 20
36.848617408768639
 30
0.0
 11
150.39913650847151
 21
38.787250611783129
 31
0.0
  0
LINE
  5
128C
  8
TITLE
 10
143.6620326247922
 20
38.42194243128835
 30
0.0
 11
145.0953784448551
 21
39.855288251358168
 31
0.0
  0
LINE
  5
128D
  8
TITLE
 10
143.6620326247922
 20
38.334657558645027
 30
0.0
 11
145.1826633175022
 21
39.855288251358168
 31
0.0
  0
LINE
  5
128E
  8
TITLE
 10
143.6620326247922
 20
38.247372685997711
 30
0.0
 11
145.26994819014931
 21
39.855288251358168
 31
0.0
  0
LINE
  5
128F
  8
TITLE
 10
143.6620326247922
 20
38.160087813350728
 30
0.0
 11
145.35723306279641
 21
39.855288251358168
 31
0.0
  0
LINE
  5
1290
  8
TITLE
 10
143.6620326247922
 20
38.072802940706957
 30
0.0
 11
145.4445179354436
 21
39.855288251358168
 31
0.0
  0
LINE
  5
1291
  8
TITLE
 10
143.6620326247922
 20
37.985518068059648
 30
0.0
 11
145.5318028080909
 21
39.855288251358168
 31
0.0
  0
LINE
  5
1292
  8
TITLE
 10
143.6620326247922
 20
37.8982331954128
 30
0.0
 11
145.61908768073809
 21
39.855288251358168
 31
0.0
  0
LINE
  5
1293
  8
TITLE
 10
143.6620326247922
 20
37.810948322765782
 30
0.0
 11
145.70637255338499
 21
39.855288251358168
 31
0.0
  0
LINE
  5
1294
  8
TITLE
 10
143.6620326247922
 20
37.72366345011821
 30
0.0
 11
145.7936574260321
 21
39.855288251358168
 31
0.0
  0
LINE
  5
1295
  8
TITLE
 10
143.37226385357269
 20
38.743167768598532
 30
0.0
 11
144.48438433633211
 21
39.855288251358168
 31
0.0
  0
LINE
  5
1296
  8
TITLE
 10
143.45954872621951
 20
38.743167768598532
 30
0.0
 11
144.5716692089793
 21
39.855288251358168
 31
0.0
  0
LINE
  5
1297
  8
TITLE
 10
143.54683359886681
 20
38.743167768598532
 30
0.0
 11
144.6589540816264
 21
39.855288251358168
 31
0.0
  0
LINE
  5
1298
  8
TITLE
 10
143.63411847151369
 20
38.743167768598532
 30
0.0
 11
144.74623895427351
 21
39.855288251358168
 31
0.0
  0
LINE
  5
1299
  8
TITLE
 10
143.6620326247922
 20
38.683797049229788
 30
0.0
 11
144.83352382692101
 21
39.855288251358168
 31
0.0
  0
LINE
  5
129A
  8
TITLE
 10
143.6620326247922
 20
38.596512176582962
 30
0.0
 11
144.920808699568
 21
39.855288251358168
 31
0.0
  0
LINE
  5
129B
  8
TITLE
 10
143.6620326247922
 20
38.509227303935511
 30
0.0
 11
145.008093572208
 21
39.855288251358168
 31
0.0
  0
LINE
  5
129C
  8
TITLE
 10
143.98228306256101
 20
34.290664364088187
 30
0.0
 11
145.11080893897969
 21
35.419190240506921
 31
0.0
  0
LINE
  5
129D
  8
TITLE
 10
144.06956793520101
 20
34.290664364088187
 30
0.0
 11
145.19809381161971
 21
35.419190240506921
 31
0.0
  0
LINE
  5
129E
  8
TITLE
 10
144.1568528078482
 20
34.290664364088187
 30
0.0
 11
145.28537868426699
 21
35.419190240506921
 31
0.0
  0
LINE
  5
129F
  8
TITLE
 10
144.24413768049519
 20
34.290664364088187
 30
0.0
 11
145.3726635569146
 21
35.419190240506921
 31
0.0
  0
LINE
  5
12A0
  8
TITLE
 10
144.33142255314249
 20
34.290664364088187
 30
0.0
 11
145.45994842956159
 21
35.419190240506921
 31
0.0
  0
LINE
  5
12A1
  8
TITLE
 10
142.58572510021381
 20
34.290664364088187
 30
0.0
 11
144.9063022877084
 21
36.611241551586332
 31
0.0
  0
LINE
  5
12A2
  8
TITLE
 10
142.673009972861
 20
34.290664364088187
 30
0.0
 11
144.9063022877084
 21
36.523956678939172
 31
0.0
  0
LINE
  5
12A3
  8
TITLE
 10
142.76029484550801
 20
34.290664364088187
 30
0.0
 11
144.9063022877084
 21
36.436671806292331
 31
0.0
  0
LINE
  5
12A4
  8
TITLE
 10
142.8475797181552
 20
34.290664364088187
 30
0.0
 11
144.9063022877084
 21
36.349386933648809
 31
0.0
  0
LINE
  5
12A5
  8
TITLE
 10
142.93486459080219
 20
34.290664364088187
 30
0.0
 11
144.9063022877084
 21
36.262102061001222
 31
0.0
  0
LINE
  5
12A6
  8
TITLE
 10
143.02214946344949
 20
34.290664364088187
 30
0.0
 11
144.9063022877084
 21
36.174817188353799
 31
0.0
  0
LINE
  5
12A7
  8
TITLE
 10
143.10943433608981
 20
34.290664364088187
 30
0.0
 11
144.9063022877084
 21
36.087532315707101
 31
0.0
  0
LINE
  5
12A8
  8
TITLE
 10
143.19671920873691
 20
34.290664364088187
 30
0.0
 11
144.9063022877084
 21
36.000247443059799
 31
0.0
  0
LINE
  5
12A9
  8
TITLE
 10
143.2840040813839
 20
34.290664364088187
 30
0.0
 11
144.9063022877084
 21
35.912962570412809
 31
0.0
  0
LINE
  5
12AA
  8
TITLE
 10
143.371288954031
 20
34.290664364088187
 30
0.0
 11
144.9063022877084
 21
35.825677697765542
 31
0.0
  0
LINE
  5
12AB
  8
TITLE
 10
143.6620326247922
 20
35.977965997189919
 30
0.0
 11
144.9063022877084
 21
37.222235660112808
 31
0.0
  0
LINE
  5
12AC
  8
TITLE
 10
143.6620326247922
 20
35.89068112454251
 30
0.0
 11
144.9063022877084
 21
37.134950787465641
 31
0.0
  0
LINE
  5
12AD
  8
TITLE
 10
143.6620326247922
 20
35.803396251895201
 30
0.0
 11
144.9063022877084
 21
37.047665914818552
 31
0.0
  0
LINE
  5
12AE
  8
TITLE
 10
143.6620326247922
 20
35.716111379247756
 30
0.0
 11
144.9063022877084
 21
36.960381042171392
 31
0.0
  0
LINE
  5
12AF
  8
TITLE
 10
143.6620326247922
 20
35.628826506604291
 30
0.0
 11
144.9063022877084
 21
36.873096169524537
 31
0.0
  0
LINE
  5
12B0
  8
TITLE
 10
143.6620326247922
 20
35.541541633957721
 30
0.0
 11
144.9063022877084
 21
36.785811296877121
 31
0.0
  0
LINE
  5
12B1
  8
TITLE
 10
143.6620326247922
 20
35.454256761310283
 30
0.0
 11
144.9063022877084
 21
36.698526424229811
 31
0.0
  0
LINE
  5
12B2
  8
TITLE
 10
143.45857382667839
 20
34.290664364088187
 30
0.0
 11
144.9063022877084
 21
35.73839282511824
 31
0.0
  0
LINE
  5
12B3
  8
TITLE
 10
143.54585869932521
 20
34.290664364088187
 30
0.0
 11
144.9063022877084
 21
35.65110795247476
 31
0.0
  0
LINE
  5
12B4
  8
TITLE
 10
143.63314357197271
 20
34.290664364088187
 30
0.0
 11
144.9063022877084
 21
35.5638230798276
 31
0.0
  0
LINE
  5
12B5
  8
TITLE
 10
143.72042844461961
 20
34.290664364088187
 30
0.0
 11
144.9063022877084
 21
35.476538207184248
 31
0.0
  0
LINE
  5
12B6
  8
TITLE
 10
143.80771331726669
 20
34.290664364088187
 30
0.0
 11
144.93623919368571
 21
35.419190240506921
 31
0.0
  0
LINE
  5
12B7
  8
TITLE
 10
143.89499818991379
 20
34.290664364088187
 30
0.0
 11
145.02352406633281
 21
35.419190240506921
 31
0.0
  0
LINE
  5
12B8
  8
TITLE
 10
143.6620326247922
 20
36.152535742483799
 30
0.0
 11
144.9063022877084
 21
37.396805405404052
 31
0.0
  0
LINE
  5
12B9
  8
TITLE
 10
143.6620326247922
 20
36.065250869836738
 30
0.0
 11
144.9063022877084
 21
37.30952053275675
 31
0.0
  0
LINE
  5
12BA
  8
TITLE
 10
143.6620326247922
 20
36.414390360421862
 30
0.0
 11
144.9063022877084
 21
37.658660023341533
 31
0.0
  0
LINE
  5
12BB
  8
TITLE
 10
143.6620326247922
 20
36.327105487774702
 30
0.0
 11
144.9063022877084
 21
37.571375150694401
 31
0.0
  0
LINE
  5
12BC
  8
TITLE
 10
143.6620326247922
 20
36.23982061513076
 30
0.0
 11
144.9063022877084
 21
37.484090278050878
 31
0.0
  0
LINE
  5
12BD
  8
TITLE
 10
143.6620326247922
 20
37.63637857747122
 30
0.0
 11
145.8809422986723
 21
39.855288251358168
 31
0.0
  0
LINE
  5
12BE
  8
TITLE
 10
143.6620326247922
 20
37.549093704824067
 30
0.0
 11
145.96822717131951
 21
39.855288251358168
 31
0.0
  0
LINE
  5
12BF
  8
TITLE
 10
143.6620326247922
 20
37.461808832177113
 30
0.0
 11
144.9063022877084
 21
38.706078495100122
 31
0.0
  0
LINE
  5
12C0
  8
TITLE
 10
143.6620326247922
 20
37.374523959533569
 30
0.0
 11
144.9063022877084
 21
38.61879362245282
 31
0.0
  0
LINE
  5
12C1
  8
TITLE
 10
143.6620326247922
 20
37.287239086885997
 30
0.0
 11
144.9063022877084
 21
38.531508749805852
 31
0.0
  0
LINE
  5
12C2
  8
TITLE
 10
143.6620326247922
 20
37.199954214242467
 30
0.0
 11
144.9063022877084
 21
38.444223877158812
 31
0.0
  0
LINE
  5
12C3
  8
TITLE
 10
143.6620326247922
 20
37.112669341595222
 30
0.0
 11
144.9063022877084
 21
38.356939004515169
 31
0.0
  0
LINE
  5
12C4
  8
TITLE
 10
143.6620326247922
 20
37.025384468948197
 30
0.0
 11
144.9063022877084
 21
38.269654131867902
 31
0.0
  0
LINE
  5
12C5
  8
TITLE
 10
143.6620326247922
 20
36.93809959630137
 30
0.0
 11
144.9063022877084
 21
38.182369259224672
 31
0.0
  0
LINE
  5
12C6
  8
TITLE
 10
143.6620326247922
 20
36.850814723653798
 30
0.0
 11
144.9063022877084
 21
38.095084386577227
 31
0.0
  0
LINE
  5
12C7
  8
TITLE
 10
143.6620326247922
 20
36.76352985100695
 30
0.0
 11
144.9063022877084
 21
38.007799513930273
 31
0.0
  0
LINE
  5
12C8
  8
TITLE
 10
143.6620326247922
 20
36.67624497835952
 30
0.0
 11
144.9063022877084
 21
37.920514641283091
 31
0.0
  0
LINE
  5
12C9
  8
TITLE
 10
143.6620326247922
 20
36.588960105712353
 30
0.0
 11
144.9063022877084
 21
37.833229768635853
 31
0.0
  0
LINE
  5
12CA
  8
TITLE
 10
143.6620326247922
 20
36.501675233069008
 30
0.0
 11
144.9063022877084
 21
37.745944895988814
 31
0.0
  0
LINE
  5
12CB
  8
TITLE
 10
142.7612697450497
 20
38.743167768598532
 30
0.0
 11
143.87339022780901
 21
39.855288251358168
 31
0.0
  0
LINE
  5
12CC
  8
TITLE
 10
142.8485546176897
 20
38.743167768598532
 30
0.0
 11
143.9606751004564
 21
39.855288251358168
 31
0.0
  0
LINE
  5
12CD
  8
TITLE
 10
142.935839490337
 20
38.743167768598532
 30
0.0
 11
144.04795997309611
 21
39.855288251358168
 31
0.0
  0
LINE
  5
12CE
  8
TITLE
 10
143.02312436298411
 20
38.743167768598532
 30
0.0
 11
144.1352448457435
 21
39.855288251358168
 31
0.0
  0
LINE
  5
12CF
  8
TITLE
 10
143.1104092356311
 20
38.743167768598532
 30
0.0
 11
144.2225297183906
 21
39.855288251358168
 31
0.0
  0
LINE
  5
12D0
  8
TITLE
 10
143.1976941082782
 20
38.743167768598532
 30
0.0
 11
144.30981459103771
 21
39.855288251358168
 31
0.0
  0
LINE
  5
12D1
  8
TITLE
 10
143.28497898092539
 20
38.743167768598532
 30
0.0
 11
144.39709946368509
 21
39.855288251358168
 31
0.0
  0
LINE
  5
12D2
  8
TITLE
 10
142.32484538181399
 20
38.743167768598532
 30
0.0
 11
143.43696586457349
 21
39.855288251358168
 31
0.0
  0
LINE
  5
12D3
  8
TITLE
 10
142.4121302544612
 20
38.743167768598532
 30
0.0
 11
143.5242507372206
 21
39.855288251358168
 31
0.0
  0
LINE
  5
12D4
  8
TITLE
 10
142.49941512710811
 20
38.743167768598532
 30
0.0
 11
143.6115356098679
 21
39.855288251358168
 31
0.0
  0
LINE
  5
12D5
  8
TITLE
 10
142.5866999997553
 20
38.743167768598532
 30
0.0
 11
143.698820482515
 21
39.855288251358168
 31
0.0
  0
LINE
  5
12D6
  8
TITLE
 10
142.67398487240209
 20
38.743167768598532
 30
0.0
 11
143.78610535516219
 21
39.855288251358168
 31
0.0
  0
LINE
  5
12D7
  8
TITLE
 10
142.2375605091666
 20
38.743167768598532
 30
0.0
 11
143.3496809919265
 21
39.855288251358168
 31
0.0
  0
LINE
  5
12D8
  8
TITLE
 10
142.15027563651941
 20
38.743167768598532
 30
0.0
 11
143.26239611927929
 21
39.855288251358168
 31
0.0
  0
LINE
  5
12D9
  8
TITLE
 10
140.3678826130585
 20
38.444617580124962
 30
0.0
 11
141.36013374838211
 21
39.436868715452469
 31
0.0
  0
LINE
  5
12DA
  8
TITLE
 10
140.49723749477721
 20
38.486687589196869
 30
0.0
 11
141.36013374838211
 21
39.349583842805188
 31
0.0
  0
LINE
  5
12DB
  8
TITLE
 10
140.62218465666251
 20
38.524349878441932
 30
0.0
 11
141.36013374838211
 21
39.262298970161382
 31
0.0
  0
LINE
  5
12DC
  8
TITLE
 10
140.74321866771911
 20
38.558099016847173
 30
0.0
 11
141.36013374838211
 21
39.175014097514548
 31
0.0
  0
LINE
  5
12DD
  8
TITLE
 10
140.86074372522799
 20
38.588339201709452
 30
0.0
 11
141.36013374838211
 21
39.08772922486726
 31
0.0
  0
LINE
  5
12DE
  8
TITLE
 10
141.3017276160156
 20
38.680183601908702
 30
0.0
 11
141.36013374838211
 21
38.738589734278392
 31
0.0
  0
LINE
  5
12DF
  8
TITLE
 10
141.1953641685615
 20
38.661105027101463
 30
0.0
 11
141.36013374838211
 21
38.82587460692568
 31
0.0
  0
LINE
  5
12E0
  8
TITLE
 10
140.97509528488999
 20
38.615405888720332
 30
0.0
 11
141.36013374838211
 21
39.000444352220271
 31
0.0
  0
LINE
  5
12E1
  8
TITLE
 10
141.08655544654471
 20
38.639581177735408
 30
0.0
 11
141.36013374838211
 21
38.913159479572847
 31
0.0
  0
LINE
  5
12E2
  8
TITLE
 10
141.8134034113061
 20
39.628283760434911
 30
0.0
 11
142.0404079022332
 21
39.855288251358168
 31
0.0
  0
LINE
  5
12E3
  8
TITLE
 10
141.8134034113061
 20
39.540998887787481
 30
0.0
 11
142.12769277488059
 21
39.855288251358168
 31
0.0
  0
LINE
  5
12E4
  8
TITLE
 10
141.8134034113061
 20
39.802853505725679
 30
0.0
 11
141.86583815693899
 21
39.855288251358168
 31
0.0
  0
LINE
  5
12E5
  8
TITLE
 10
141.8134034113061
 20
39.715568633078249
 30
0.0
 11
141.9531230295859
 21
39.855288251358168
 31
0.0
  0
LINE
  5
12E6
  8
TITLE
 10
141.8134034113061
 20
39.017289651908101
 30
0.0
 11
142.65140201075619
 21
39.855288251358168
 31
0.0
  0
LINE
  5
12E7
  8
TITLE
 10
141.8134034113061
 20
38.93000477926126
 30
0.0
 11
142.7386868834036
 21
39.855288251358168
 31
0.0
  0
LINE
  5
12E8
  8
TITLE
 10
141.8134034113061
 20
38.84271990661383
 30
0.0
 11
142.82597175605051
 21
39.855288251358168
 31
0.0
  0
LINE
  5
12E9
  8
TITLE
 10
141.8134034113061
 20
38.755435033966677
 30
0.0
 11
142.91325662869781
 21
39.855288251358168
 31
0.0
  0
LINE
  5
12EA
  8
TITLE
 10
141.8884210185781
 20
38.743167768598532
 30
0.0
 11
143.00054150134471
 21
39.855288251358168
 31
0.0
  0
LINE
  5
12EB
  8
TITLE
 10
141.97570589122509
 20
38.743167768598532
 30
0.0
 11
143.08782637399199
 21
39.855288251358168
 31
0.0
  0
LINE
  5
12EC
  8
TITLE
 10
142.06299076387251
 20
38.743167768598532
 30
0.0
 11
143.17511124663201
 21
39.855288251358168
 31
0.0
  0
LINE
  5
12ED
  8
TITLE
 10
141.8134034113061
 20
39.104574524555233
 30
0.0
 11
142.56411713810891
 21
39.855288251358168
 31
0.0
  0
LINE
  5
12EE
  8
TITLE
 10
141.8134034113061
 20
39.453714015140783
 30
0.0
 11
142.21497764752061
 21
39.855288251358168
 31
0.0
  0
LINE
  5
12EF
  8
TITLE
 10
141.8134034113061
 20
39.366429142496798
 30
0.0
 11
142.3022625201674
 21
39.855288251358168
 31
0.0
  0
LINE
  5
12F0
  8
TITLE
 10
141.8134034113061
 20
39.279144269849972
 30
0.0
 11
142.38954739281479
 21
39.855288251358168
 31
0.0
  0
LINE
  5
12F1
  8
TITLE
 10
141.8134034113061
 20
39.191859397202663
 30
0.0
 11
142.47683226546201
 21
39.855288251358168
 31
0.0
  0
LINE
  5
12F2
  8
TITLE
 10
142.32387048227221
 20
34.290664364088187
 30
0.0
 11
143.4523963586912
 21
35.419190240506921
 31
0.0
  0
LINE
  5
12F3
  8
TITLE
 10
142.4111553549194
 20
34.290664364088187
 30
0.0
 11
143.53968123133811
 21
35.419190240506921
 31
0.0
  0
LINE
  5
12F4
  8
TITLE
 10
142.49844022756699
 20
34.290664364088187
 30
0.0
 11
143.62696610398561
 21
35.419190240506921
 31
0.0
  0
LINE
  5
12F5
  8
TITLE
 10
142.23658560962531
 20
34.290664364088187
 30
0.0
 11
143.36511148605081
 21
35.419190240506921
 31
0.0
  0
LINE
  5
12F6
  8
TITLE
 10
142.14930073698531
 20
34.290664364088187
 30
0.0
 11
143.27782661340399
 21
35.419190240506921
 31
0.0
  0
LINE
  5
12F7
  8
TITLE
 10
141.36013374838211
 20
34.810770465188732
 30
0.0
 11
141.9685535237038
 21
35.419190240506921
 31
0.0
  0
LINE
  5
12F8
  8
TITLE
 10
141.36013374838211
 20
34.723485592545337
 30
0.0
 11
142.05583839635091
 21
35.419190240506921
 31
0.0
  0
LINE
  5
12F9
  8
TITLE
 10
141.36013374838211
 20
34.89805533783602
 30
0.0
 11
141.88126865105659
 21
35.419190240506921
 31
0.0
  0
LINE
  5
12FA
  8
TITLE
 10
141.36013374838211
 20
35.159909955773969
 30
0.0
 11
141.61941403311499
 21
35.419190240506921
 31
0.0
  0
LINE
  5
12FB
  8
TITLE
 10
141.36013374838211
 20
35.072625083126937
 30
0.0
 11
141.70669890576241
 21
35.419190240506921
 31
0.0
  0
LINE
  5
12FC
  8
TITLE
 10
141.36013374838211
 20
34.985340210479819
 30
0.0
 11
141.79398377840971
 21
35.419190240506921
 31
0.0
  0
LINE
  5
12FD
  8
TITLE
 10
141.36013374838211
 20
35.334479701068247
 30
0.0
 11
141.44484428782809
 21
35.419190240506921
 31
0.0
  0
LINE
  5
12FE
  8
TITLE
 10
141.36013374838211
 20
35.247194828421208
 30
0.0
 11
141.53212916046809
 21
35.419190240506921
 31
0.0
  0
LINE
  5
12FF
  8
TITLE
 10
141.36013374838211
 20
34.636200719898227
 30
0.0
 11
142.14312326899841
 21
35.419190240506921
 31
0.0
  0
LINE
  5
1300
  8
TITLE
 10
141.36013374838211
 20
34.548915847251067
 30
0.0
 11
142.23040814164551
 21
35.419190240506921
 31
0.0
  0
LINE
  5
1301
  8
TITLE
 10
141.36013374838211
 20
34.461630974603771
 30
0.0
 11
142.3176930142925
 21
35.419190240506921
 31
0.0
  0
LINE
  5
1302
  8
TITLE
 10
141.36013374838211
 20
34.374346101957073
 30
0.0
 11
142.4049778869325
 21
35.419190240506921
 31
0.0
  0
LINE
  5
1303
  8
TITLE
 10
141.36373688316101
 20
34.290664364088187
 30
0.0
 11
142.4922627595798
 21
35.419190240506921
 31
0.0
  0
LINE
  5
1304
  8
TITLE
 10
141.4510217558078
 20
34.290664364088187
 30
0.0
 11
142.57954763222659
 21
35.419190240506921
 31
0.0
  0
LINE
  5
1305
  8
TITLE
 10
141.5383066284549
 20
34.290664364088187
 30
0.0
 11
142.66683250487381
 21
35.419190240506921
 31
0.0
  0
LINE
  5
1306
  8
TITLE
 10
141.62559150110221
 20
34.290664364088187
 30
0.0
 11
142.75411737752091
 21
35.419190240506921
 31
0.0
  0
LINE
  5
1307
  8
TITLE
 10
141.71287637374951
 20
34.290664364088187
 30
0.0
 11
142.8414022501681
 21
35.419190240506921
 31
0.0
  0
LINE
  5
1308
  8
TITLE
 10
141.8001612463965
 20
34.290664364088187
 30
0.0
 11
142.92868712281521
 21
35.419190240506921
 31
0.0
  0
LINE
  5
1309
  8
TITLE
 10
141.887446119044
 20
34.290664364088187
 30
0.0
 11
143.01597199546239
 21
35.419190240506921
 31
0.0
  0
LINE
  5
130A
  8
TITLE
 10
141.97473099169071
 20
34.290664364088187
 30
0.0
 11
143.10325686810981
 21
35.419190240506921
 31
0.0
  0
LINE
  5
130B
  8
TITLE
 10
142.06201586433809
 20
34.290664364088187
 30
0.0
 11
143.19054174075711
 21
35.419190240506921
 31
0.0
  0
LINE
  5
130C
  8
TITLE
 10
146.25266465090701
 20
38.743167768598532
 30
0.0
 11
146.75493150119451
 21
39.245434618886279
 31
0.0
  0
LINE
  5
130D
  8
TITLE
 10
146.3399495235542
 20
38.743167768598532
 30
0.0
 11
146.75493150119451
 21
39.15814974623926
 31
0.0
  0
LINE
  5
130E
  8
TITLE
 10
146.427234396194
 20
38.743167768598532
 30
0.0
 11
146.75493150119451
 21
39.070864873592143
 31
0.0
  0
LINE
  5
130F
  8
TITLE
 10
146.68908901413599
 20
38.743167768598532
 30
0.0
 11
146.75493150119451
 21
38.809010255654009
 31
0.0
  0
LINE
  5
1310
  8
TITLE
 10
146.5145192688417
 20
38.743167768598532
 30
0.0
 11
146.75493150119451
 21
38.983580000948152
 31
0.0
  0
LINE
  5
1311
  8
TITLE
 10
146.6018041414884
 20
38.743167768598532
 30
0.0
 11
146.75493150119451
 21
38.896295128301027
 31
0.0
  0
LINE
  5
1312
  8
TITLE
 10
147.6481874641326
 20
35.425307458913188
 30
0.0
 11
147.66171308220009
 21
35.438833076981723
 31
0.0
  0
LINE
  5
1313
  8
TITLE
 10
146.2516897513656
 20
34.290664364088187
 30
0.0
 11
147.20820116411861
 21
35.247175776841317
 31
0.0
  0
LINE
  5
1314
  8
TITLE
 10
146.33897462401279
 20
34.290664364088187
 30
0.0
 11
147.20820116411861
 21
35.159890904194071
 31
0.0
  0
LINE
  5
1315
  8
TITLE
 10
146.42625949665981
 20
34.290664364088187
 30
0.0
 11
147.20820116411861
 21
35.072606031546798
 31
0.0
  0
LINE
  5
1316
  8
TITLE
 10
146.51354436930691
 20
34.290664364088187
 30
0.0
 11
147.20820116411861
 21
34.98532115889995
 31
0.0
  0
LINE
  5
1317
  8
TITLE
 10
146.6008292419541
 20
34.290664364088187
 30
0.0
 11
147.20820116411861
 21
34.89803628625252
 31
0.0
  0
LINE
  5
1318
  8
TITLE
 10
146.6881141146016
 20
34.290664364088187
 30
0.0
 11
147.20820116411861
 21
34.81075141360521
 31
0.0
  0
LINE
  5
1319
  8
TITLE
 10
146.7753989872416
 20
34.290664364088187
 30
0.0
 11
147.20820116411861
 21
34.723466540958057
 31
0.0
  0
LINE
  5
131A
  8
TITLE
 10
146.86268385988831
 20
34.290664364088187
 30
0.0
 11
147.20820116411861
 21
34.636181668310947
 31
0.0
  0
LINE
  5
131B
  8
TITLE
 10
146.94996873253569
 20
34.290664364088187
 30
0.0
 11
147.20820116411861
 21
34.548896795667702
 31
0.0
  0
LINE
  5
131C
  8
TITLE
 10
147.0372536051828
 20
34.290664364088187
 30
0.0
 11
147.20820116411861
 21
34.46161192302025
 31
0.0
  0
LINE
  5
131D
  8
TITLE
 10
147.12453847782959
 20
34.290664364088187
 30
0.0
 11
147.20820116411861
 21
34.37432705037314
 31
0.0
  0
LINE
  5
131E
  8
TITLE
 10
144.94339156120699
 20
38.743167768598532
 30
0.0
 11
146.0555120439667
 21
39.855288251358168
 31
0.0
  0
LINE
  5
131F
  8
TITLE
 10
145.0306764338539
 20
38.743167768598532
 30
0.0
 11
146.1427969166138
 21
39.855288251358168
 31
0.0
  0
LINE
  5
1320
  8
TITLE
 10
145.11796130650109
 20
38.743167768598532
 30
0.0
 11
146.23008178926091
 21
39.855288251358168
 31
0.0
  0
LINE
  5
1321
  8
TITLE
 10
144.41870742578971
 20
34.290664364088187
 30
0.0
 11
145.5472333022085
 21
35.419190240506921
 31
0.0
  0
LINE
  5
1322
  8
TITLE
 10
144.50599229843681
 20
34.290664364088187
 30
0.0
 11
145.6345181748556
 21
35.419190240506921
 31
0.0
  0
LINE
  5
1323
  8
TITLE
 10
144.59327717108391
 20
34.290664364088187
 30
0.0
 11
145.72180304750279
 21
35.419190240506921
 31
0.0
  0
LINE
  5
1324
  8
TITLE
 10
144.6805620437315
 20
34.290664364088187
 30
0.0
 11
145.80908792015009
 21
35.419190240506921
 31
0.0
  0
LINE
  5
1325
  8
TITLE
 10
144.76784691637829
 20
34.290664364088187
 30
0.0
 11
145.89637279279711
 21
35.419190240506921
 31
0.0
  0
LINE
  5
1326
  8
TITLE
 10
144.85513178902551
 20
34.290664364088187
 30
0.0
 11
145.9836576654443
 21
35.419190240506921
 31
0.0
  0
LINE
  5
1327
  8
TITLE
 10
144.94241666166511
 20
34.290664364088187
 30
0.0
 11
146.0709425380843
 21
35.419190240506921
 31
0.0
  0
LINE
  5
1328
  8
TITLE
 10
145.02970153431241
 20
34.290664364088187
 30
0.0
 11
146.1582274107314
 21
35.419190240506921
 31
0.0
  0
LINE
  5
1329
  8
TITLE
 10
145.55438566973001
 20
38.743167768598532
 30
0.0
 11
146.66650615249659
 21
39.855288251358168
 31
0.0
  0
LINE
  5
132A
  8
TITLE
 10
145.6416705423768
 20
38.743167768598532
 30
0.0
 11
146.7537910251441
 21
39.855288251358168
 31
0.0
  0
LINE
  5
132B
  8
TITLE
 10
145.7289554150239
 20
38.743167768598532
 30
0.0
 11
146.75493150119451
 21
39.769143854765773
 31
0.0
  0
LINE
  5
132C
  8
TITLE
 10
145.81624028767109
 20
38.743167768598532
 30
0.0
 11
146.75493150119451
 21
39.681858982121781
 31
0.0
  0
LINE
  5
132D
  8
TITLE
 10
145.90352516031851
 20
38.743167768598532
 30
0.0
 11
146.75493150119451
 21
39.594574109474671
 31
0.0
  0
LINE
  5
132E
  8
TITLE
 10
145.9908100329653
 20
38.743167768598532
 30
0.0
 11
146.75493150119451
 21
39.507289236827532
 31
0.0
  0
LINE
  5
132F
  8
TITLE
 10
146.0780949056128
 20
38.743167768598532
 30
0.0
 11
146.75493150119451
 21
39.42000436418023
 31
0.0
  0
LINE
  5
1330
  8
TITLE
 10
146.1653797782601
 20
38.743167768598532
 30
0.0
 11
146.75493150119451
 21
39.332719491533368
 31
0.0
  0
LINE
  5
1331
  8
TITLE
 10
145.46710079708981
 20
38.743167768598532
 30
0.0
 11
146.57922127984949
 21
39.855288251358168
 31
0.0
  0
LINE
  5
1332
  8
TITLE
 10
145.2052461791485
 20
38.743167768598532
 30
0.0
 11
146.31736666190801
 21
39.855288251358168
 31
0.0
  0
LINE
  5
1333
  8
TITLE
 10
145.29253105179589
 20
38.743167768598532
 30
0.0
 11
146.40465153455509
 21
39.855288251358168
 31
0.0
  0
LINE
  5
1334
  8
TITLE
 10
145.37981592444299
 20
38.743167768598532
 30
0.0
 11
146.4919364072021
 21
39.855288251358168
 31
0.0
  0
LINE
  5
1335
  8
TITLE
 10
145.5534107701954
 20
34.290664364088187
 30
0.0
 11
146.6819366466143
 21
35.419190240506921
 31
0.0
  0
LINE
  5
1336
  8
TITLE
 10
145.6406956428427
 20
34.290664364088187
 30
0.0
 11
146.76922151926141
 21
35.419190240506921
 31
0.0
  0
LINE
  5
1337
  8
TITLE
 10
145.72798051548989
 20
34.290664364088187
 30
0.0
 11
146.85650639190879
 21
35.419190240506921
 31
0.0
  0
LINE
  5
1338
  8
TITLE
 10
145.81526538813699
 20
34.290664364088187
 30
0.0
 11
146.94379126455581
 21
35.419190240506921
 31
0.0
  0
LINE
  5
1339
  8
TITLE
 10
145.90255026077679
 20
34.290664364088187
 30
0.0
 11
147.0310761371957
 21
35.419190240506921
 31
0.0
  0
LINE
  5
133A
  8
TITLE
 10
145.98983513342401
 20
34.290664364088187
 30
0.0
 11
147.1183610098426
 21
35.419190240506921
 31
0.0
  0
LINE
  5
133B
  8
TITLE
 10
146.0771200060712
 20
34.290664364088187
 30
0.0
 11
147.20564588248999
 21
35.419190240506921
 31
0.0
  0
LINE
  5
133C
  8
TITLE
 10
146.1644048787183
 20
34.290664364088187
 30
0.0
 11
147.20820116411861
 21
35.334460649484868
 31
0.0
  0
LINE
  5
133D
  8
TITLE
 10
145.1169864069598
 20
34.290664364088187
 30
0.0
 11
146.2455122833787
 21
35.419190240506921
 31
0.0
  0
LINE
  5
133E
  8
TITLE
 10
145.20427127960679
 20
34.290664364088187
 30
0.0
 11
146.33279715602561
 21
35.419190240506921
 31
0.0
  0
LINE
  5
133F
  8
TITLE
 10
145.2915561522542
 20
34.290664364088187
 30
0.0
 11
146.42008202867271
 21
35.419190240506921
 31
0.0
  0
LINE
  5
1340
  8
TITLE
 10
145.37884102490111
 20
34.290664364088187
 30
0.0
 11
146.5073669013201
 21
35.419190240506921
 31
0.0
  0
LINE
  5
1341
  8
TITLE
 10
145.46612589754861
 20
34.290664364088187
 30
0.0
 11
146.5946517739672
 21
35.419190240506921
 31
0.0
  0
LINE
  5
1343
  8
TITLE
 10
150.96507287427599
 20
34.290664364088187
 30
0.0
 11
153.0498395893971
 21
36.375431079212753
 31
0.0
  0
LINE
  5
1344
  8
TITLE
 10
151.05235774692281
 20
34.290664364088187
 30
0.0
 11
153.0660203328834
 21
36.304326950052229
 31
0.0
  0
LINE
  5
1345
  8
TITLE
 10
151.1396426195702
 20
34.290664364088187
 30
0.0
 11
153.08220107637001
 21
36.233222820891719
 31
0.0
  0
LINE
  5
1346
  8
TITLE
 10
151.22692749221741
 20
34.290664364088187
 30
0.0
 11
153.0983818198564
 21
36.162118691730782
 31
0.0
  0
LINE
  5
1347
  8
TITLE
 10
151.3142123648646
 20
34.290664364088187
 30
0.0
 11
153.1145625633429
 21
36.09101456256964
 31
0.0
  0
LINE
  5
1348
  8
TITLE
 10
151.40149723750491
 20
34.290664364088187
 30
0.0
 11
153.130743306829
 21
36.019910433409422
 31
0.0
  0
LINE
  5
1349
  8
TITLE
 10
151.9984492768244
 20
35.585895384574741
 30
0.0
 11
153.00129735894521
 21
36.588743466695192
 31
0.0
  0
LINE
  5
134A
  8
TITLE
 10
152.0146300203036
 20
35.514791255413762
 30
0.0
 11
153.0174781024248
 21
36.517639337534241
 31
0.0
  0
LINE
  5
134B
  8
TITLE
 10
152.0308107637901
 20
35.443687126252797
 30
0.0
 11
153.03365884591079
 21
36.44653520837403
 31
0.0
  0
LINE
  5
134C
  8
TITLE
 10
151.91754555939281
 20
35.941416030378207
 30
0.0
 11
152.92039364151341
 21
36.944264112498978
 31
0.0
  0
LINE
  5
134D
  8
TITLE
 10
151.93372630287899
 20
35.870311901217534
 30
0.0
 11
152.9365743849998
 21
36.873159983338169
 31
0.0
  0
LINE
  5
134E
  8
TITLE
 10
151.9499070463655
 20
35.799207772057002
 30
0.0
 11
152.9527551284865
 21
36.802055854177503
 31
0.0
  0
LINE
  5
134F
  8
TITLE
 10
151.9660877898516
 20
35.728103642896187
 30
0.0
 11
152.9689358719728
 21
36.730951725016958
 31
0.0
  0
LINE
  5
1350
  8
TITLE
 10
151.98226853333821
 20
35.656999513735236
 30
0.0
 11
152.98511661545899
 21
36.659847595856149
 31
0.0
  0
LINE
  5
1351
  8
TITLE
 10
151.4887821101517
 20
34.290664364088187
 30
0.0
 11
153.14692405031559
 21
35.948806304244698
 31
0.0
  0
LINE
  5
1352
  8
TITLE
 10
151.57606698279901
 20
34.290664364088187
 30
0.0
 11
153.1631047937947
 21
35.877702175083861
 31
0.0
  0
LINE
  5
1353
  8
TITLE
 10
151.66335185544591
 20
34.290664364088187
 30
0.0
 11
153.1792855372812
 21
35.806598045923209
 31
0.0
  0
LINE
  5
1354
  8
TITLE
 10
151.7506367280931
 20
34.290664364088187
 30
0.0
 11
153.1954662807677
 21
35.735493916762259
 31
0.0
  0
LINE
  5
1355
  8
TITLE
 10
151.8379216007404
 20
34.290664364088187
 30
0.0
 11
153.21164702425401
 21
35.66438978760187
 31
0.0
  0
LINE
  5
1356
  8
TITLE
 10
151.9252064733875
 20
34.290664364088187
 30
0.0
 11
153.22782776774039
 21
35.593285658440898
 31
0.0
  0
LINE
  5
1357
  8
TITLE
 10
152.01249134603461
 20
34.290664364088187
 30
0.0
 11
153.24400851122701
 21
35.522181529280232
 31
0.0
  0
LINE
  5
1358
  8
TITLE
 10
152.099776218682
 20
34.290664364088187
 30
0.0
 11
153.26018925471291
 21
35.451077400119402
 31
0.0
  0
LINE
  5
1359
  8
TITLE
 10
152.18706109132901
 20
34.290664364088187
 30
0.0
 11
153.2763699981997
 21
35.379973270958928
 31
0.0
  0
LINE
  5
135A
  8
TITLE
 10
152.27434596396901
 20
34.290664364088187
 30
0.0
 11
153.2925507416787
 21
35.3088691417978
 31
0.0
  0
LINE
  5
135B
  8
TITLE
 10
152.3616308366158
 20
34.290664364088187
 30
0.0
 11
153.30873148516511
 21
35.237765012637297
 31
0.0
  0
LINE
  5
135C
  8
TITLE
 10
152.44891570926319
 20
34.290664364088187
 30
0.0
 11
153.32491222865181
 21
35.166660883476503
 31
0.0
  0
LINE
  5
135D
  8
TITLE
 10
152.53620058191041
 20
34.290664364088187
 30
0.0
 11
153.3410929721382
 21
35.095556754315503
 31
0.0
  0
LINE
  5
135E
  8
TITLE
 10
151.72337663756321
 20
36.794665580311289
 30
0.0
 11
152.64541922737749
 21
37.716708170125649
 31
0.0
  0
LINE
  5
135F
  8
TITLE
 10
151.73955738104939
 20
36.723561451150452
 30
0.0
 11
152.73270410002479
 21
37.716708170125649
 31
0.0
  0
LINE
  5
1360
  8
TITLE
 10
151.7557381245357
 20
36.65245732198953
 30
0.0
 11
152.7585862066569
 21
37.655305404110422
 31
0.0
  0
LINE
  5
1361
  8
TITLE
 10
151.77191886802279
 20
36.581353192829042
 30
0.0
 11
152.774766950143
 21
37.584201274949493
 31
0.0
  0
LINE
  5
1362
  8
TITLE
 10
151.78809961150861
 20
36.510249063667892
 30
0.0
 11
152.79094769362951
 21
37.513097145788798
 31
0.0
  0
LINE
  5
1363
  8
TITLE
 10
151.804280354995
 20
36.43914493450707
 30
0.0
 11
152.80712843711569
 21
37.441993016627848
 31
0.0
  0
LINE
  5
1364
  8
TITLE
 10
151.8204610984815
 20
36.368040805346851
 30
0.0
 11
152.82330918060219
 21
37.370888887467302
 31
0.0
  0
LINE
  5
1365
  8
TITLE
 10
151.8366418419678
 20
36.296936676185886
 30
0.0
 11
152.8394899240885
 21
37.299784758306501
 31
0.0
  0
LINE
  5
1366
  8
TITLE
 10
151.85282258545419
 20
36.225832547024957
 30
0.0
 11
152.85567066757471
 21
37.228680629145863
 31
0.0
  0
LINE
  5
1367
  8
TITLE
 10
151.8690033289335
 20
36.154728417864149
 30
0.0
 11
152.87185141105391
 21
37.15757649998487
 31
0.0
  0
LINE
  5
1368
  8
TITLE
 10
151.88518407242
 20
36.083624288703469
 30
0.0
 11
152.8880321545405
 21
37.086472370820857
 31
0.0
  0
LINE
  5
1369
  8
TITLE
 10
151.90136481590631
 20
36.01252015954266
 30
0.0
 11
152.90421289802691
 21
37.015368241659942
 31
0.0
  0
LINE
  5
136A
  8
TITLE
 10
149.1945564427084
 20
38.97922850836332
 30
0.0
 11
150.07061618570691
 21
39.855288251358168
 31
0.0
  0
LINE
  5
136B
  8
TITLE
 10
149.1486781216297
 20
38.846065314641351
 30
0.0
 11
150.1579010583539
 21
39.855288251358168
 31
0.0
  0
LINE
  5
136C
  8
TITLE
 10
149.1027998005512
 20
38.712902120915729
 30
0.0
 11
150.2451859310012
 21
39.855288251358168
 31
0.0
  0
LINE
  5
136D
  8
TITLE
 10
149.05692147948011
 20
38.579738927189482
 30
0.0
 11
150.33247080364839
 21
39.855288251358168
 31
0.0
  0
LINE
  5
136E
  8
TITLE
 10
149.33219140594451
 20
39.378718089537159
 30
0.0
 11
149.8087615677652
 21
39.855288251358168
 31
0.0
  0
LINE
  5
136F
  8
TITLE
 10
149.2863130848657
 20
39.245554895811281
 30
0.0
 11
149.8960464404127
 21
39.855288251358168
 31
0.0
  0
LINE
  5
1370
  8
TITLE
 10
149.24043476378711
 20
39.112391702089113
 30
0.0
 11
149.98333131305981
 21
39.855288251358168
 31
0.0
  0
LINE
  5
1371
  8
TITLE
 10
149.42394804810189
 20
39.645044476988758
 30
0.0
 11
149.63419182247131
 21
39.855288251358168
 31
0.0
  0
LINE
  5
1372
  8
TITLE
 10
149.37806972702299
 20
39.511881283263222
 30
0.0
 11
149.72147669511841
 21
39.855288251358168
 31
0.0
  0
LINE
  5
1373
  8
TITLE
 10
149.46982636918051
 20
39.778207670714487
 30
0.0
 11
149.54690694982401
 21
39.855288251358168
 31
0.0
  0
LINE
  5
1374
  8
TITLE
 10
148.8734081951653
 20
38.047086152290163
 30
0.0
 11
150.6816102942299
 21
39.855288251358168
 31
0.0
  0
LINE
  5
1375
  8
TITLE
 10
148.82752987408651
 20
37.913922958567731
 30
0.0
 11
150.76616307709381
 21
39.852556161578299
 31
0.0
  0
LINE
  5
1376
  8
TITLE
 10
148.781651553008
 20
37.780759764841989
 30
0.0
 11
150.7202847560221
 21
39.719392967852642
 31
0.0
  0
LINE
  5
1377
  8
TITLE
 10
149.01104315840121
 20
38.446575733463732
 30
0.0
 11
150.4197556762885
 21
39.855288251358168
 31
0.0
  0
LINE
  5
1378
  8
TITLE
 10
148.96516483732259
 20
38.313412539738238
 30
0.0
 11
150.50704054893549
 21
39.855288251358168
 31
0.0
  0
LINE
  5
1379
  8
TITLE
 10
148.919286516244
 20
38.18024934601597
 30
0.0
 11
150.59432542158279
 21
39.855288251358168
 31
0.0
  0
LINE
  5
137A
  8
TITLE
 10
150.3540787657532
 20
34.290664364088187
 30
0.0
 11
151.4638720279637
 21
35.400457626305773
 31
0.0
  0
LINE
  5
137B
  8
TITLE
 10
150.44136363839311
 20
34.290664364088187
 30
0.0
 11
151.55115690061101
 21
35.400457626305773
 31
0.0
  0
LINE
  5
137C
  8
TITLE
 10
150.5286485110401
 20
34.290664364088187
 30
0.0
 11
151.6384417732578
 21
35.400457626305773
 31
0.0
  0
LINE
  5
137D
  8
TITLE
 10
150.61593338368741
 20
34.290664364088187
 30
0.0
 11
151.7257266459053
 21
35.400457626305773
 31
0.0
  0
LINE
  5
137E
  8
TITLE
 10
150.70321825633459
 20
34.290664364088187
 30
0.0
 11
151.8130115185524
 21
35.400457626305773
 31
0.0
  0
LINE
  5
137F
  8
TITLE
 10
150.79050312898161
 20
34.290664364088187
 30
0.0
 11
151.9002963911995
 21
35.400457626305773
 31
0.0
  0
LINE
  5
1380
  8
TITLE
 10
150.877788001629
 20
34.290664364088187
 30
0.0
 11
151.98758126384669
 21
35.400457626305773
 31
0.0
  0
LINE
  5
1381
  8
TITLE
 10
151.67483440711109
 20
37.007977967793437
 30
0.0
 11
152.38356460944351
 21
37.716708170125649
 31
0.0
  0
LINE
  5
1382
  8
TITLE
 10
151.69101515059759
 20
36.936873838632494
 30
0.0
 11
152.47084948208311
 21
37.716708170125649
 31
0.0
  0
LINE
  5
1383
  8
TITLE
 10
151.7071958940837
 20
36.86576970947182
 30
0.0
 11
152.55813435473041
 21
37.716708170125649
 31
0.0
  0
LINE
  5
1384
  8
TITLE
 10
151.62629217665159
 20
37.221290355275869
 30
0.0
 11
152.12170999150189
 21
37.716708170125649
 31
0.0
  0
LINE
  5
1385
  8
TITLE
 10
151.64247292013809
 20
37.15018622611494
 30
0.0
 11
152.20899486414919
 21
37.716708170125649
 31
0.0
  0
LINE
  5
1386
  8
TITLE
 10
151.65865366362459
 20
37.079082096953812
 30
0.0
 11
152.29627973679601
 21
37.716708170125649
 31
0.0
  0
LINE
  5
1387
  8
TITLE
 10
151.56156920271351
 20
37.50570687191869
 30
0.0
 11
151.7725705009131
 21
37.716708170125649
 31
0.0
  0
LINE
  5
1388
  8
TITLE
 10
151.5777499461928
 20
37.434602742758329
 30
0.0
 11
151.85985537356041
 21
37.716708170125649
 31
0.0
  0
LINE
  5
1389
  8
TITLE
 10
151.59393068967921
 20
37.363498613597237
 30
0.0
 11
151.9471402462076
 21
37.716708170125649
 31
0.0
  0
LINE
  5
138A
  8
TITLE
 10
151.61011143316571
 20
37.292394484436421
 30
0.0
 11
152.03442511885461
 21
37.716708170125649
 31
0.0
  0
LINE
  5
138B
  8
TITLE
 10
151.52920771574099
 20
37.647915130240627
 30
0.0
 11
151.5980007556189
 21
37.716708170125649
 31
0.0
  0
LINE
  5
138C
  8
TITLE
 10
151.54538845922701
 20
37.576811001079363
 30
0.0
 11
151.685285628266
 21
37.716708170125649
 31
0.0
  0
LINE
  5
138D
  8
TITLE
 10
148.5210964401773
 20
34.290664364088187
 30
0.0
 11
149.63088970238809
 21
35.400457626305773
 31
0.0
  0
LINE
  5
138E
  8
TITLE
 10
148.6083813128173
 20
34.290664364088187
 30
0.0
 11
149.71817457503499
 21
35.400457626305773
 31
0.0
  0
LINE
  5
138F
  8
TITLE
 10
148.6956661854646
 20
34.290664364088187
 30
0.0
 11
149.80545944768221
 21
35.400457626305773
 31
0.0
  0
LINE
  5
1390
  8
TITLE
 10
148.78295105811159
 20
34.290664364088187
 30
0.0
 11
149.8927443203292
 21
35.400457626305773
 31
0.0
  0
LINE
  5
1391
  8
TITLE
 10
148.8702359307587
 20
34.290664364088187
 30
0.0
 11
149.98002919297659
 21
35.400457626305773
 31
0.0
  0
LINE
  5
1392
  8
TITLE
 10
148.95752080340571
 20
34.290664364088187
 30
0.0
 11
150.06731406562361
 21
35.400457626305773
 31
0.0
  0
LINE
  5
1393
  8
TITLE
 10
149.04480567605299
 20
34.290664364088187
 30
0.0
 11
150.15459893827071
 21
35.400457626305773
 31
0.0
  0
LINE
  5
1394
  8
TITLE
 10
149.13209054870009
 20
34.290664364088187
 30
0.0
 11
150.24188381091821
 21
35.400457626305773
 31
0.0
  0
LINE
  5
1395
  8
TITLE
 10
149.21937542134759
 20
34.290664364088187
 30
0.0
 11
150.3291686835579
 21
35.400457626305773
 31
0.0
  0
LINE
  5
1396
  8
TITLE
 10
149.30666029399441
 20
34.290664364088187
 30
0.0
 11
150.41645355620511
 21
35.400457626305773
 31
0.0
  0
LINE
  5
1397
  8
TITLE
 10
150.17950902045911
 20
34.290664364088187
 30
0.0
 11
151.2893022826693
 21
35.400457626305773
 31
0.0
  0
LINE
  5
1398
  8
TITLE
 10
150.26679389310581
 20
34.290664364088187
 30
0.0
 11
151.3765871553166
 21
35.400457626305773
 31
0.0
  0
LINE
  5
1399
  8
TITLE
 10
149.3939451666414
 20
34.290664364088187
 30
0.0
 11
150.5037384288521
 21
35.400457626305773
 31
0.0
  0
LINE
  5
139A
  8
TITLE
 10
149.48123003928879
 20
34.290664364088187
 30
0.0
 11
150.5910233014996
 21
35.400457626305773
 31
0.0
  0
LINE
  5
139B
  8
TITLE
 10
149.56851491192899
 20
34.290664364088187
 30
0.0
 11
150.67830817414651
 21
35.400457626305773
 31
0.0
  0
LINE
  5
139C
  8
TITLE
 10
149.65579978457589
 20
34.290664364088187
 30
0.0
 11
150.76559304679361
 21
35.400457626305773
 31
0.0
  0
LINE
  5
139D
  8
TITLE
 10
149.74308465722271
 20
34.290664364088187
 30
0.0
 11
150.85287791944111
 21
35.400457626305773
 31
0.0
  0
LINE
  5
139E
  8
TITLE
 10
149.8303695298701
 20
34.290664364088187
 30
0.0
 11
150.9401627920879
 21
35.400457626305773
 31
0.0
  0
LINE
  5
139F
  8
TITLE
 10
149.9176544025172
 20
34.290664364088187
 30
0.0
 11
151.02744766473501
 21
35.400457626305773
 31
0.0
  0
LINE
  5
13A0
  8
TITLE
 10
150.00493927516459
 20
34.290664364088187
 30
0.0
 11
151.11473253738259
 21
35.400457626305773
 31
0.0
  0
LINE
  5
13A1
  8
TITLE
 10
150.09222414781141
 20
34.290664364088187
 30
0.0
 11
151.20201741002211
 21
35.400457626305773
 31
0.0
  0
LINE
  5
13A2
  8
TITLE
 10
148.7357732319291
 20
37.647596571116452
 30
0.0
 11
150.67440643494339
 21
39.58622977413021
 31
0.0
  0
LINE
  5
13A3
  8
TITLE
 10
148.68989491085051
 20
37.51443337739012
 30
0.0
 11
150.628528113865
 21
39.453066580404723
 31
0.0
  0
LINE
  5
13A4
  8
TITLE
 10
148.6440165897717
 20
37.38127018366491
 30
0.0
 11
150.5826497927861
 21
39.319903386678789
 31
0.0
  0
LINE
  5
13A5
  8
TITLE
 10
148.5981382686937
 20
37.24810698994262
 30
0.0
 11
150.53677147170751
 21
39.186740192953053
 31
0.0
  0
LINE
  5
13A6
  8
TITLE
 10
148.5522599476146
 20
37.114943796220047
 30
0.0
 11
150.49089315062901
 21
39.053576999227133
 31
0.0
  0
LINE
  5
13A7
  8
TITLE
 10
148.50638162653621
 20
36.981780602494453
 30
0.0
 11
150.4450148295501
 21
38.920413805505291
 31
0.0
  0
LINE
  5
13A8
  8
TITLE
 10
154.48167051593481
 20
39.029250222799938
 30
0.0
 11
155.30770854449321
 21
39.855288251358168
 31
0.0
  0
LINE
  5
13A9
  8
TITLE
 10
154.568955388582
 20
39.029250222799938
 30
0.0
 11
155.39499341714051
 21
39.855288251358168
 31
0.0
  0
LINE
  5
13AA
  8
TITLE
 10
154.6562402612289
 20
39.029250222799938
 30
0.0
 11
155.48227828978759
 21
39.855288251358168
 31
0.0
  0
LINE
  5
13AB
  8
TITLE
 10
154.74352513387609
 20
39.029250222799938
 30
0.0
 11
155.56956316243441
 21
39.855288251358168
 31
0.0
  0
LINE
  5
13AC
  8
TITLE
 10
154.83081000652351
 20
39.029250222799938
 30
0.0
 11
155.65684803508211
 21
39.855288251358168
 31
0.0
  0
LINE
  5
13AD
  8
TITLE
 10
154.91809487917041
 20
39.029250222799938
 30
0.0
 11
155.74413290772881
 21
39.855288251358168
 31
0.0
  0
LINE
  5
13AE
  8
TITLE
 10
155.00537975181771
 20
39.029250222799938
 30
0.0
 11
155.831417780376
 21
39.855288251358168
 31
0.0
  0
LINE
  5
13AF
  8
TITLE
 10
155.09266462446479
 20
39.029250222799938
 30
0.0
 11
155.918702653016
 21
39.855288251358168
 31
0.0
  0
LINE
  5
13B0
  8
TITLE
 10
155.17994949710479
 20
39.029250222799938
 30
0.0
 11
156.0059875256633
 21
39.855288251358168
 31
0.0
  0
LINE
  5
13B1
  8
TITLE
 10
155.26723436975209
 20
39.029250222799938
 30
0.0
 11
156.09327239831049
 21
39.855288251358168
 31
0.0
  0
LINE
  5
13B2
  8
TITLE
 10
155.35451924239919
 20
39.029250222799938
 30
0.0
 11
156.18055727095759
 21
39.855288251358168
 31
0.0
  0
LINE
  5
13B3
  8
TITLE
 10
155.44180411504641
 20
39.029250222799938
 30
0.0
 11
156.26784214360481
 21
39.855288251358168
 31
0.0
  0
LINE
  5
13B4
  8
TITLE
 10
155.52908898769351
 20
39.029250222799938
 30
0.0
 11
156.35512701625171
 21
39.855288251358168
 31
0.0
  0
LINE
  5
13B5
  8
TITLE
 10
155.6163738603409
 20
39.029250222799938
 30
0.0
 11
156.4424118888991
 21
39.855288251358168
 31
0.0
  0
LINE
  5
13B6
  8
TITLE
 10
155.70365873298789
 20
39.029250222799938
 30
0.0
 11
156.52969676154621
 21
39.855288251358168
 31
0.0
  0
LINE
  5
13B7
  8
TITLE
 10
155.79094360563511
 20
39.029250222799938
 30
0.0
 11
156.61698163419351
 21
39.855288251358168
 31
0.0
  0
LINE
  5
13B8
  8
TITLE
 10
154.45646778013341
 20
34.290664364088187
 30
0.0
 11
155.30889984349631
 21
35.143096427454772
 31
0.0
  0
LINE
  5
13B9
  8
TITLE
 10
154.54375265278071
 20
34.290664364088187
 30
0.0
 11
155.39618471614341
 21
35.143096427454772
 31
0.0
  0
LINE
  5
13BA
  8
TITLE
 10
154.63103752542801
 20
34.290664364088187
 30
0.0
 11
155.4834695887908
 21
35.143096427454772
 31
0.0
  0
LINE
  5
13BB
  8
TITLE
 10
154.718322398075
 20
34.290664364088187
 30
0.0
 11
155.57075446143801
 21
35.143096427454772
 31
0.0
  0
LINE
  5
13BC
  8
TITLE
 10
154.80560727072199
 20
34.290664364088187
 30
0.0
 11
155.65803933408469
 21
35.143096427454772
 31
0.0
  0
LINE
  5
13BD
  8
TITLE
 10
154.89289214336921
 20
34.290664364088187
 30
0.0
 11
155.74532420673199
 21
35.143096427454772
 31
0.0
  0
LINE
  5
13BE
  8
TITLE
 10
154.98017701600889
 20
34.290664364088187
 30
0.0
 11
155.83260907937969
 21
35.143096427454772
 31
0.0
  0
LINE
  5
13BF
  8
TITLE
 10
155.0674618886564
 20
34.290664364088187
 30
0.0
 11
155.91989395202651
 21
35.143096427454772
 31
0.0
  0
LINE
  5
13C0
  8
TITLE
 10
155.1547467613037
 20
34.290664364088187
 30
0.0
 11
156.0071788246737
 21
35.143096427454772
 31
0.0
  0
LINE
  5
13C1
  8
TITLE
 10
155.24203163395089
 20
34.290664364088187
 30
0.0
 11
156.094463697321
 21
35.143096427454772
 31
0.0
  0
LINE
  5
13C2
  8
TITLE
 10
155.32931650659771
 20
34.290664364088187
 30
0.0
 11
156.18174856996069
 21
35.143096427454772
 31
0.0
  0
LINE
  5
13C3
  8
TITLE
 10
154.20383223845741
 20
39.624260671786779
 30
0.0
 11
154.43485981802871
 21
39.855288251358168
 31
0.0
  0
LINE
  5
13C4
  8
TITLE
 10
154.20383223845741
 20
39.798830417077603
 30
0.0
 11
154.26029007273451
 21
39.855288251358168
 31
0.0
  0
LINE
  5
13C5
  8
TITLE
 10
154.20383223845741
 20
39.711545544430741
 30
0.0
 11
154.34757494538161
 21
39.855288251358168
 31
0.0
  0
LINE
  5
13C6
  8
TITLE
 10
154.0260794294685
 20
34.820409612534462
 30
0.0
 11
154.34876624438471
 21
35.143096427454772
 31
0.0
  0
LINE
  5
13C7
  8
TITLE
 10
154.0260794294685
 20
34.733124739887451
 30
0.0
 11
154.4360511170317
 21
35.143096427454772
 31
0.0
  0
LINE
  5
13C8
  8
TITLE
 10
154.0260794294685
 20
34.907694485181743
 30
0.0
 11
154.2614813717376
 21
35.143096427454772
 31
0.0
  0
LINE
  5
13C9
  8
TITLE
 10
152.62348545455779
 20
34.290664364088187
 30
0.0
 11
153.3572737156243
 21
35.024452625154858
 31
0.0
  0
LINE
  5
13CA
  8
TITLE
 10
152.7107703272049
 20
34.290664364088187
 30
0.0
 11
153.373454459111
 21
34.953348495994049
 31
0.0
  0
LINE
  5
13CB
  8
TITLE
 10
152.798055199852
 20
34.290664364088187
 30
0.0
 11
153.38963520259711
 21
34.882244366833369
 31
0.0
  0
LINE
  5
13CC
  8
TITLE
 10
152.88534007249899
 20
34.290664364088187
 30
0.0
 11
153.40581594608341
 21
34.811140237672831
 31
0.0
  0
LINE
  5
13CD
  8
TITLE
 10
152.97262494514621
 20
34.290664364088187
 30
0.0
 11
153.42199668956971
 21
34.740036108511902
 31
0.0
  0
LINE
  5
13CE
  8
TITLE
 10
153.05990981779351
 20
34.290664364088187
 30
0.0
 11
153.43817743304959
 21
34.668931979350951
 31
0.0
  0
LINE
  5
13CF
  8
TITLE
 10
153.14719469043351
 20
34.290664364088187
 30
0.0
 11
153.45435817653561
 21
34.597827850190122
 31
0.0
  0
LINE
  5
13D0
  8
TITLE
 10
153.2344795630807
 20
34.290664364088187
 30
0.0
 11
153.47053892002219
 21
34.526723721029448
 31
0.0
  0
LINE
  5
13D1
  8
TITLE
 10
153.32176443572769
 20
34.290664364088187
 30
0.0
 11
153.48671966350841
 21
34.45561959186891
 31
0.0
  0
LINE
  5
13D2
  8
TITLE
 10
153.4090493083747
 20
34.290664364088187
 30
0.0
 11
153.5029004069946
 21
34.38451546270808
 31
0.0
  0
LINE
  5
13D3
  8
TITLE
 10
153.49633418102201
 20
34.290664364088187
 30
0.0
 11
153.5190811504809
 21
34.313411333547151
 31
0.0
  0
LINE
  5
13D4
  8
TITLE
 10
154.0260794294685
 20
35.08226423047283
 30
0.0
 11
154.08691162645081
 21
35.143096427454772
 31
0.0
  0
LINE
  5
13D5
  8
TITLE
 10
154.0260794294685
 20
34.99497935782891
 30
0.0
 11
154.17419649909769
 21
35.143096427454772
 31
0.0
  0
LINE
  5
13D6
  8
TITLE
 10
154.10732828954471
 20
34.290664364088187
 30
0.0
 11
154.959760352915
 21
35.143096427454772
 31
0.0
  0
LINE
  5
13D7
  8
TITLE
 10
154.19461316219201
 20
34.290664364088187
 30
0.0
 11
155.04704522556199
 21
35.143096427454772
 31
0.0
  0
LINE
  5
13D8
  8
TITLE
 10
154.2818980348388
 20
34.290664364088187
 30
0.0
 11
155.13433009820909
 21
35.143096427454772
 31
0.0
  0
LINE
  5
13D9
  8
TITLE
 10
154.36918290748639
 20
34.290664364088187
 30
0.0
 11
155.2216149708492
 21
35.143096427454772
 31
0.0
  0
LINE
  5
13DA
  8
TITLE
 10
154.0260794294685
 20
34.296700376655259
 30
0.0
 11
154.87247548026789
 21
35.143096427454772
 31
0.0
  0
LINE
  5
13DB
  8
TITLE
 10
154.0260794294685
 20
34.64583986724017
 30
0.0
 11
154.5233359896792
 21
35.143096427454772
 31
0.0
  0
LINE
  5
13DC
  8
TITLE
 10
154.0260794294685
 20
34.558554994593059
 30
0.0
 11
154.61062086232619
 21
35.143096427454772
 31
0.0
  0
LINE
  5
13DD
  8
TITLE
 10
154.0260794294685
 20
34.471270121945892
 30
0.0
 11
154.6979057349734
 21
35.143096427454772
 31
0.0
  0
LINE
  5
13DE
  8
TITLE
 10
154.0260794294685
 20
34.383985249299187
 30
0.0
 11
154.78519060762071
 21
35.143096427454772
 31
0.0
  0
LINE
  5
13DF
  8
TITLE
 10
154.20383223845741
 20
39.18783630855107
 30
0.0
 11
154.8712841812648
 21
39.855288251358168
 31
0.0
  0
LINE
  5
13E0
  8
TITLE
 10
154.20383223845741
 20
39.10055143590381
 30
0.0
 11
154.9585690539046
 21
39.855288251358168
 31
0.0
  0
LINE
  5
13E1
  8
TITLE
 10
154.21981589800041
 20
39.029250222799938
 30
0.0
 11
155.04585392655181
 21
39.855288251358168
 31
0.0
  0
LINE
  5
13E2
  8
TITLE
 10
154.3071007706406
 20
39.029250222799938
 30
0.0
 11
155.13313879919869
 21
39.855288251358168
 31
0.0
  0
LINE
  5
13E3
  8
TITLE
 10
154.39438564328771
 20
39.029250222799938
 30
0.0
 11
155.22042367184611
 21
39.855288251358168
 31
0.0
  0
LINE
  5
13E4
  8
TITLE
 10
154.20383223845741
 20
39.536975799139917
 30
0.0
 11
154.52214469067559
 21
39.855288251358168
 31
0.0
  0
LINE
  5
13E5
  8
TITLE
 10
154.20383223845741
 20
39.449690926492508
 30
0.0
 11
154.60942956332281
 21
39.855288251358168
 31
0.0
  0
LINE
  5
13E6
  8
TITLE
 10
154.20383223845741
 20
39.36240605384539
 30
0.0
 11
154.69671443597019
 21
39.855288251358168
 31
0.0
  0
LINE
  5
13E7
  8
TITLE
 10
154.20383223845741
 20
39.27512118119823
 30
0.0
 11
154.78399930861761
 21
39.855288251358168
 31
0.0
  0
LINE
  5
13E9
  8
TITLE
 10
164.60189006294681
 20
38.762569924883302
 30
0.0
 11
165.25403524673169
 21
39.414715108664687
 31
0.0
  0
LINE
  5
13EA
  8
TITLE
 10
164.689174935594
 20
38.762569924883302
 30
0.0
 11
165.34132011937899
 21
39.414715108664687
 31
0.0
  0
LINE
  5
13EB
  8
TITLE
 10
164.77645980824099
 20
38.762569924883302
 30
0.0
 11
165.42860499201899
 21
39.414715108664687
 31
0.0
  0
LINE
  5
13EC
  8
TITLE
 10
164.86374468088809
 20
38.762569924883302
 30
0.0
 11
165.51588986466581
 21
39.414715108664687
 31
0.0
  0
LINE
  5
13ED
  8
TITLE
 10
163.3487747902459
 20
37.771309270119687
 30
0.0
 11
164.99218062879041
 21
39.414715108664687
 31
0.0
  0
LINE
  5
13EE
  8
TITLE
 10
163.43605966289269
 20
37.771309270119687
 30
0.0
 11
165.0794655014374
 21
39.414715108664687
 31
0.0
  0
LINE
  5
13EF
  8
TITLE
 10
163.52334453553999
 20
37.771309270119687
 30
0.0
 11
165.1667503740847
 21
39.414715108664687
 31
0.0
  0
LINE
  5
13F0
  8
TITLE
 10
163.6921557580587
 20
38.463829728521283
 30
0.0
 11
165.0836142808958
 21
39.855288251358168
 31
0.0
  0
LINE
  5
13F1
  8
TITLE
 10
163.67029956391701
 20
38.354688661725248
 30
0.0
 11
165.16383407136101
 21
39.848223169176677
 31
0.0
  0
LINE
  5
13F2
  8
TITLE
 10
163.73586814635561
 20
38.682111862105849
 30
0.0
 11
164.9090445356087
 21
39.855288251358168
 31
0.0
  0
LINE
  5
13F3
  8
TITLE
 10
163.71401195220659
 20
38.572970795313189
 30
0.0
 11
164.99632940824841
 21
39.855288251358168
 31
0.0
  0
LINE
  5
13F4
  8
TITLE
 10
164.3961932620042
 20
37.771309270119687
 30
0.0
 11
164.97008104831559
 21
38.34519705643126
 31
0.0
  0
LINE
  5
13F5
  8
TITLE
 10
164.4834781346444
 20
37.771309270119687
 30
0.0
 11
165.05736592095559
 21
38.34519705643126
 31
0.0
  0
LINE
  5
13F6
  8
TITLE
 10
164.57076300729159
 20
37.771309270119687
 30
0.0
 11
165.14465079360269
 21
38.34519705643126
 31
0.0
  0
LINE
  5
13F7
  8
TITLE
 10
164.65804787993849
 20
37.771309270119687
 30
0.0
 11
165.23193566624991
 21
38.34519705643126
 31
0.0
  0
LINE
  5
13F8
  8
TITLE
 10
164.74533275258571
 20
37.771309270119687
 30
0.0
 11
165.3192205388969
 21
38.34519705643126
 31
0.0
  0
LINE
  5
13F9
  8
TITLE
 10
164.8326176252327
 20
37.771309270119687
 30
0.0
 11
165.406505411544
 21
38.34519705643126
 31
0.0
  0
LINE
  5
13FA
  8
TITLE
 10
164.42122402334061
 20
35.788787960585829
 30
0.0
 11
164.9168542892628
 21
36.284418226511491
 31
0.0
  0
LINE
  5
13FB
  8
TITLE
 10
164.5085088959878
 20
35.788787960585829
 30
0.0
 11
165.00413916190951
 21
36.284418226511491
 31
0.0
  0
LINE
  5
13FC
  8
TITLE
 10
164.59579376863479
 20
35.788787960585829
 30
0.0
 11
165.09142403455681
 21
36.284418226511491
 31
0.0
  0
LINE
  5
13FD
  8
TITLE
 10
164.68307864128201
 20
35.788787960585829
 30
0.0
 11
165.17870890720411
 21
36.284418226511491
 31
0.0
  0
LINE
  5
13FE
  8
TITLE
 10
164.77036351392931
 20
35.788787960585829
 30
0.0
 11
165.26599377985099
 21
36.284418226511491
 31
0.0
  0
LINE
  5
13FF
  8
TITLE
 10
164.85764838656891
 20
35.788787960585829
 30
0.0
 11
165.3532786524986
 21
36.284418226511491
 31
0.0
  0
LINE
  5
1400
  8
TITLE
 10
164.41159364817011
 20
34.55716936836636
 30
0.0
 11
164.94221468948979
 21
35.087790409689212
 31
0.0
  0
LINE
  5
1401
  8
TITLE
 10
164.47055972195551
 20
34.528850569507938
 30
0.0
 11
165.003003793446
 21
35.061294640994191
 31
0.0
  0
LINE
  5
1402
  8
TITLE
 10
164.5307945472309
 20
34.501800522135909
 30
0.0
 11
165.06680093899061
 21
35.037806913895807
 31
0.0
  0
LINE
  5
1403
  8
TITLE
 10
164.59233599182869
 20
34.47605709408311
 30
0.0
 11
165.13386369519759
 21
35.017584797455243
 31
0.0
  0
LINE
  5
1404
  8
TITLE
 10
164.65522661596901
 20
34.451662845583961
 30
0.0
 11
165.20452990256521
 21
35.000966132176323
 31
0.0
  0
LINE
  5
1405
  8
TITLE
 10
164.7195142780524
 20
34.428665635016117
 30
0.0
 11
165.2792502984999
 21
34.988401655463861
 31
0.0
  0
LINE
  5
1406
  8
TITLE
 10
164.78525286217351
 20
34.407119346489829
 30
0.0
 11
165.35864204203051
 21
34.980508526347151
 31
0.0
  0
LINE
  5
1407
  8
TITLE
 10
164.85250315731309
 20
34.387084768982461
 30
0.0
 11
165.4435820726035
 21
34.978163684272758
 31
0.0
  0
LINE
  5
1408
  8
TITLE
 10
164.42626532080999
 20
36.75396285716694
 30
0.0
 11
164.94798146783401
 21
37.275679004194131
 31
0.0
  0
LINE
  5
1409
  8
TITLE
 10
164.51355019345709
 20
36.75396285716694
 30
0.0
 11
165.035266340481
 21
37.275679004194131
 31
0.0
  0
LINE
  5
140A
  8
TITLE
 10
164.60083506610459
 20
36.75396285716694
 30
0.0
 11
165.12255121312819
 21
37.275679004194131
 31
0.0
  0
LINE
  5
140B
  8
TITLE
 10
164.68811993875161
 20
36.75396285716694
 30
0.0
 11
165.20983608577509
 21
37.275679004194131
 31
0.0
  0
LINE
  5
140C
  8
TITLE
 10
164.7754048113988
 20
36.75396285716694
 30
0.0
 11
165.2971209584226
 21
37.275679004194131
 31
0.0
  0
LINE
  5
140D
  8
TITLE
 10
164.8626896840388
 20
36.75396285716694
 30
0.0
 11
165.38440583106939
 21
37.275679004194131
 31
0.0
  0
LINE
  5
140E
  8
TITLE
 10
162.1568586319984
 20
36.75396285716694
 30
0.0
 11
165.08605933516239
 21
39.683163560327252
 31
0.0
  0
LINE
  5
140F
  8
TITLE
 10
162.24414350464571
 20
36.75396285716694
 30
0.0
 11
165.00828459895681
 21
39.51810395147843
 31
0.0
  0
LINE
  5
1410
  8
TITLE
 10
160.15036155797799
 20
38.762569924883302
 30
0.0
 11
161.23812704838741
 21
39.850335415292847
 31
0.0
  0
LINE
  5
1411
  8
TITLE
 10
160.23764643062481
 20
38.762569924883302
 30
0.0
 11
161.2660825583207
 21
39.791006052575547
 31
0.0
  0
LINE
  5
1412
  8
TITLE
 10
160.32493130327211
 20
38.762569924883302
 30
0.0
 11
161.29403806824709
 21
39.7316766898618
 31
0.0
  0
LINE
  5
1413
  8
TITLE
 10
160.4122161759193
 20
38.762569924883302
 30
0.0
 11
161.32199357818041
 21
39.672347327144422
 31
0.0
  0
LINE
  5
1414
  8
TITLE
 10
160.4995010485664
 20
38.762569924883302
 30
0.0
 11
161.349949088107
 21
39.613017964427009
 31
0.0
  0
LINE
  5
1415
  8
TITLE
 10
160.5867859212062
 20
38.762569924883302
 30
0.0
 11
161.3779045980404
 21
39.553688601713397
 31
0.0
  0
LINE
  5
1416
  8
TITLE
 10
160.67407079385359
 20
38.762569924883302
 30
0.0
 11
161.40586010797369
 21
39.494359239000083
 31
0.0
  0
LINE
  5
1417
  8
TITLE
 10
160.7613556665008
 20
38.762569924883302
 30
0.0
 11
161.4338156179
 21
39.435029876278911
 31
0.0
  0
LINE
  5
1418
  8
TITLE
 10
160.73022861085241
 20
37.771309270119687
 30
0.0
 11
162.48600672380269
 21
39.52708738306962
 31
0.0
  0
LINE
  5
1419
  8
TITLE
 10
160.29380424761681
 20
37.771309270119687
 30
0.0
 11
160.86769203392851
 21
38.34519705643126
 31
0.0
  0
LINE
  5
141A
  8
TITLE
 10
160.38108912026391
 20
37.771309270119687
 30
0.0
 11
160.95497690657521
 21
38.34519705643126
 31
0.0
  0
LINE
  5
141B
  8
TITLE
 10
160.4683739929111
 20
37.771309270119687
 30
0.0
 11
161.0422617792226
 21
38.34519705643126
 31
0.0
  0
LINE
  5
141C
  8
TITLE
 10
160.5556588655582
 20
37.771309270119687
 30
0.0
 11
161.12954665186959
 21
38.34519705643126
 31
0.0
  0
LINE
  5
141D
  8
TITLE
 10
160.6429437382055
 20
37.771309270119687
 30
0.0
 11
161.21683152451669
 21
38.34519705643126
 31
0.0
  0
LINE
  5
141E
  8
TITLE
 10
160.61614987812899
 20
39.664782608266712
 30
0.0
 11
160.80665552122099
 21
39.855288251358168
 31
0.0
  0
LINE
  5
141F
  8
TITLE
 10
160.6441053880551
 20
39.605453245545853
 30
0.0
 11
160.89394039386801
 21
39.855288251358168
 31
0.0
  0
LINE
  5
1420
  8
TITLE
 10
160.67206089798881
 20
39.546123882831893
 30
0.0
 11
160.98122526651511
 21
39.855288251358168
 31
0.0
  0
LINE
  5
1421
  8
TITLE
 10
160.70001640791509
 20
39.486794520118032
 30
0.0
 11
161.06851013916221
 21
39.855288251358168
 31
0.0
  0
LINE
  5
1422
  8
TITLE
 10
160.72797191784849
 20
39.427465157397108
 30
0.0
 11
161.1557950118094
 21
39.855288251358168
 31
0.0
  0
LINE
  5
1423
  8
TITLE
 10
160.1299843450528
 20
34.290664206992837
 30
0.0
 11
162.12373836457499
 21
36.284418226511491
 31
0.0
  0
LINE
  5
1424
  8
TITLE
 10
160.2178847076257
 20
34.29127969691082
 30
0.0
 11
162.21102323722221
 21
36.284418226511491
 31
0.0
  0
LINE
  5
1425
  8
TITLE
 10
160.30949041180199
 20
34.295600528440147
 30
0.0
 11
162.29830810986951
 21
36.284418226511491
 31
0.0
  0
LINE
  5
1426
  8
TITLE
 10
160.40476624130369
 20
34.303591485298583
 30
0.0
 11
162.3855929825167
 21
36.284418226511491
 31
0.0
  0
LINE
  5
1427
  8
TITLE
 10
160.31883500895299
 20
35.788787960585829
 30
0.0
 11
160.8144652748822
 21
36.284418226511491
 31
0.0
  0
LINE
  5
1428
  8
TITLE
 10
160.4061198816002
 20
35.788787960585829
 30
0.0
 11
160.90175014752941
 21
36.284418226511491
 31
0.0
  0
LINE
  5
1429
  8
TITLE
 10
160.49340475424751
 20
35.788787960585829
 30
0.0
 11
160.9890350201695
 21
36.284418226511491
 31
0.0
  0
LINE
  5
142A
  8
TITLE
 10
160.5806896268947
 20
35.788787960585829
 30
0.0
 11
161.0763198928168
 21
36.284418226511491
 31
0.0
  0
LINE
  5
142B
  8
TITLE
 10
160.6679744995416
 20
35.788787960585829
 30
0.0
 11
161.16360476546379
 21
36.284418226511491
 31
0.0
  0
LINE
  5
142C
  8
TITLE
 10
160.7552593721889
 20
35.788787960585829
 30
0.0
 11
161.25088963811081
 21
36.284418226511491
 31
0.0
  0
LINE
  5
142D
  8
TITLE
 10
160.0426995914558
 20
34.29066432604305
 30
0.0
 11
160.9916490559319
 21
35.239613790511392
 31
0.0
  0
LINE
  5
142E
  8
TITLE
 10
160.32387630642279
 20
36.75396285716694
 30
0.0
 11
160.84559245345341
 21
37.275679004194131
 31
0.0
  0
LINE
  5
142F
  8
TITLE
 10
160.41116117906969
 20
36.75396285716694
 30
0.0
 11
160.93287732610059
 21
37.275679004194131
 31
0.0
  0
LINE
  5
1430
  8
TITLE
 10
160.498446051717
 20
36.75396285716694
 30
0.0
 11
161.02016219874059
 21
37.275679004194131
 31
0.0
  0
LINE
  5
1431
  8
TITLE
 10
160.5857309243639
 20
36.75396285716694
 30
0.0
 11
161.10744707138741
 21
37.275679004194131
 31
0.0
  0
LINE
  5
1432
  8
TITLE
 10
160.67301579701109
 20
36.75396285716694
 30
0.0
 11
161.19473194403511
 21
37.275679004194131
 31
0.0
  0
LINE
  5
1433
  8
TITLE
 10
160.76030066965819
 20
36.75396285716694
 30
0.0
 11
161.2820168166821
 21
37.275679004194131
 31
0.0
  0
LINE
  5
1434
  8
TITLE
 10
160.50423453726191
 20
34.315774908609647
 30
0.0
 11
163.46413863284661
 21
37.275679004194131
 31
0.0
  0
LINE
  5
1435
  8
TITLE
 10
160.60857848272471
 20
34.33283398142845
 30
0.0
 11
163.5514235054936
 21
37.275679004194131
 31
0.0
  0
LINE
  5
1436
  8
TITLE
 10
160.718721629127
 20
34.355692255183847
 30
0.0
 11
163.6387083781409
 21
37.275679004194131
 31
0.0
  0
LINE
  5
1437
  8
TITLE
 10
160.01480379454659
 20
38.976151652037402
 30
0.0
 11
160.45336725117451
 21
39.414715108664687
 31
0.0
  0
LINE
  5
1438
  8
TITLE
 10
160.01480379454659
 20
38.888866779390092
 30
0.0
 11
160.54065212382099
 21
39.414715108664687
 31
0.0
  0
LINE
  5
1439
  8
TITLE
 10
160.01480379454659
 20
38.801581906742662
 30
0.0
 11
160.62793699646869
 21
39.414715108664687
 31
0.0
  0
LINE
  5
143A
  8
TITLE
 10
160.0630766853306
 20
38.762569924883302
 30
0.0
 11
160.71522186911571
 21
39.414715108664687
 31
0.0
  0
LINE
  5
143B
  8
TITLE
 10
160.19255660353571
 20
38.019201116620408
 30
0.0
 11
160.51855254333961
 21
38.34519705643126
 31
0.0
  0
LINE
  5
143C
  8
TITLE
 10
160.19255660353571
 20
37.931916243973149
 30
0.0
 11
160.6058374159868
 21
38.34519705643126
 31
0.0
  0
LINE
  5
143D
  8
TITLE
 10
160.19255660353571
 20
37.844631371326258
 30
0.0
 11
160.6931222886339
 21
38.34519705643126
 31
0.0
  0
LINE
  5
143E
  8
TITLE
 10
160.2065193749695
 20
37.771309270119687
 30
0.0
 11
160.780407161281
 21
38.34519705643126
 31
0.0
  0
LINE
  5
143F
  8
TITLE
 10
160.19255660353571
 20
38.106485989267561
 30
0.0
 11
160.43126767069219
 21
38.34519705643126
 31
0.0
  0
LINE
  5
1440
  8
TITLE
 10
160.19255660353571
 20
38.281055734561861
 30
0.0
 11
160.25669792540521
 21
38.34519705643126
 31
0.0
  0
LINE
  5
1441
  8
TITLE
 10
160.19255660353571
 20
38.19377086191453
 30
0.0
 11
160.34398279805251
 21
38.34519705643126
 31
0.0
  0
LINE
  5
1442
  8
TITLE
 10
158.58405953032249
 20
39.029250222799938
 30
0.0
 11
159.30611452061501
 21
39.751305213092451
 31
0.0
  0
LINE
  5
1443
  8
TITLE
 10
158.67134440296971
 20
39.029250222799938
 30
0.0
 11
159.30611452061501
 21
39.664020340445127
 31
0.0
  0
LINE
  5
1444
  8
TITLE
 10
158.7586292756169
 20
39.029250222799938
 30
0.0
 11
159.30611452061501
 21
39.576735467801669
 31
0.0
  0
LINE
  5
1445
  8
TITLE
 10
158.8459141482565
 20
39.029250222799938
 30
0.0
 11
159.30611452061501
 21
39.489450595154253
 31
0.0
  0
LINE
  5
1446
  8
TITLE
 10
158.93319902090369
 20
39.029250222799938
 30
0.0
 11
159.30611452061501
 21
39.402165722507071
 31
0.0
  0
LINE
  5
1447
  8
TITLE
 10
159.02048389355099
 20
39.029250222799938
 30
0.0
 11
159.30611452061501
 21
39.314880849863727
 31
0.0
  0
LINE
  5
1448
  8
TITLE
 10
159.10776876619809
 20
39.029250222799938
 30
0.0
 11
159.30611452061501
 21
39.2275959772169
 31
0.0
  0
LINE
  5
1449
  8
TITLE
 10
160.01480379454659
 20
39.063436524684228
 30
0.0
 11
160.3660823785269
 21
39.414715108664687
 31
0.0
  0
LINE
  5
144A
  8
TITLE
 10
159.1950536388452
 20
39.029250222799938
 30
0.0
 11
159.30611452061501
 21
39.140311104569612
 31
0.0
  0
LINE
  5
144B
  8
TITLE
 10
159.28233851149261
 20
39.029250222799938
 30
0.0
 11
159.30611452061501
 21
39.05302623192275
 31
0.0
  0
LINE
  5
144C
  8
TITLE
 10
160.01480379454659
 20
39.412576015269451
 30
0.0
 11
160.01694288793851
 21
39.414715108664687
 31
0.0
  0
LINE
  5
144D
  8
TITLE
 10
160.01480379454659
 20
39.32529114262217
 30
0.0
 11
160.1042277605857
 21
39.414715108664687
 31
0.0
  0
LINE
  5
144E
  8
TITLE
 10
160.01480379454659
 20
39.238006269974903
 30
0.0
 11
160.19151263323269
 21
39.414715108664687
 31
0.0
  0
LINE
  5
144F
  8
TITLE
 10
160.01480379454659
 20
39.15072139733153
 30
0.0
 11
160.27879750587991
 21
39.414715108664687
 31
0.0
  0
LINE
  5
1450
  8
TITLE
 10
160.5322833483358
 20
39.842770696411222
 30
0.0
 11
160.54480090327951
 21
39.855288251358168
 31
0.0
  0
LINE
  5
1451
  8
TITLE
 10
160.5602388582692
 20
39.783441333693787
 30
0.0
 11
160.63208577592661
 21
39.855288251358168
 31
0.0
  0
LINE
  5
1452
  8
TITLE
 10
160.58819436819539
 20
39.724111970980182
 30
0.0
 11
160.7193706485736
 21
39.855288251358168
 31
0.0
  0
LINE
  5
1453
  8
TITLE
 10
157.27478644062251
 20
39.029250222799938
 30
0.0
 11
158.10082446918051
 21
39.855288251358168
 31
0.0
  0
LINE
  5
1454
  8
TITLE
 10
157.3620713132695
 20
39.029250222799938
 30
0.0
 11
158.1881093418279
 21
39.855288251358168
 31
0.0
  0
LINE
  5
1455
  8
TITLE
 10
157.44935618591651
 20
39.029250222799938
 30
0.0
 11
158.275394214475
 21
39.855288251358168
 31
0.0
  0
LINE
  5
1456
  8
TITLE
 10
157.53664105856359
 20
39.029250222799938
 30
0.0
 11
158.36267908712199
 21
39.855288251358168
 31
0.0
  0
LINE
  5
1457
  8
TITLE
 10
157.62392593121081
 20
39.029250222799938
 30
0.0
 11
158.44996395976921
 21
39.855288251358168
 31
0.0
  0
LINE
  5
1458
  8
TITLE
 10
157.71121080385791
 20
39.029250222799938
 30
0.0
 11
158.53724883241659
 21
39.855288251358168
 31
0.0
  0
LINE
  5
1459
  8
TITLE
 10
158.4094897850282
 20
39.029250222799938
 30
0.0
 11
159.2355278135866
 21
39.855288251358168
 31
0.0
  0
LINE
  5
145A
  8
TITLE
 10
158.49677465767519
 20
39.029250222799938
 30
0.0
 11
159.30611452061501
 21
39.838590085739739
 31
0.0
  0
LINE
  5
145B
  8
TITLE
 10
157.7984956765049
 20
39.029250222799938
 30
0.0
 11
158.62453370505651
 21
39.855288251358168
 31
0.0
  0
LINE
  5
145C
  8
TITLE
 10
157.88578054914541
 20
39.029250222799938
 30
0.0
 11
158.7118185777035
 21
39.855288251358168
 31
0.0
  0
LINE
  5
145D
  8
TITLE
 10
157.97306542179189
 20
39.029250222799938
 30
0.0
 11
158.79910345035071
 21
39.855288251358168
 31
0.0
  0
LINE
  5
145E
  8
TITLE
 10
158.06035029443939
 20
39.029250222799938
 30
0.0
 11
158.8863883229977
 21
39.855288251358168
 31
0.0
  0
LINE
  5
145F
  8
TITLE
 10
158.14763516708649
 20
39.029250222799938
 30
0.0
 11
158.97367319564501
 21
39.855288251358168
 31
0.0
  0
LINE
  5
1460
  8
TITLE
 10
158.23492003973371
 20
39.029250222799938
 30
0.0
 11
159.060958068292
 21
39.855288251358168
 31
0.0
  0
LINE
  5
1461
  8
TITLE
 10
158.32220491238081
 20
39.029250222799938
 30
0.0
 11
159.14824294093921
 21
39.855288251358168
 31
0.0
  0
LINE
  5
1462
  8
TITLE
 10
160.01480379454659
 20
35.92118110940811
 30
0.0
 11
160.37804091164651
 21
36.284418226511491
 31
0.0
  0
LINE
  5
1463
  8
TITLE
 10
160.01480379454659
 20
35.833896236761227
 30
0.0
 11
160.46532578429341
 21
36.284418226511491
 31
0.0
  0
LINE
  5
1464
  8
TITLE
 10
160.05698039101901
 20
35.788787960585829
 30
0.0
 11
160.5526106569406
 21
36.284418226511491
 31
0.0
  0
LINE
  5
1465
  8
TITLE
 10
160.144265263666
 20
35.788787960585829
 30
0.0
 11
160.63989552958799
 21
36.284418226511491
 31
0.0
  0
LINE
  5
1466
  8
TITLE
 10
160.23155013631319
 20
35.788787960585829
 30
0.0
 11
160.72718040223501
 21
36.284418226511491
 31
0.0
  0
LINE
  5
1467
  8
TITLE
 10
160.01480379454659
 20
34.524623147068098
 30
0.0
 11
160.49168987092881
 21
35.001509223450441
 31
0.0
  0
LINE
  5
1468
  8
TITLE
 10
160.01480379454659
 20
34.43733827442081
 30
0.0
 11
160.60971195709701
 21
35.032246436971228
 31
0.0
  0
LINE
  5
1469
  8
TITLE
 10
160.01480379454659
 20
34.350053401773962
 30
0.0
 11
160.75361888464741
 21
35.088868491874763
 31
0.0
  0
LINE
  5
146A
  8
TITLE
 10
158.55885679452109
 20
34.290664364088187
 30
0.0
 11
159.41128885788359
 21
35.143096427454772
 31
0.0
  0
LINE
  5
146B
  8
TITLE
 10
158.64614166716109
 20
34.290664364088187
 30
0.0
 11
159.4838673296041
 21
35.128390026527512
 31
0.0
  0
LINE
  5
146C
  8
TITLE
 10
158.73342653980819
 20
34.290664364088187
 30
0.0
 11
159.4838673296041
 21
35.041105153880217
 31
0.0
  0
LINE
  5
146D
  8
TITLE
 10
158.82071141245521
 20
34.290664364088187
 30
0.0
 11
159.4838673296041
 21
34.953820281233369
 31
0.0
  0
LINE
  5
146E
  8
TITLE
 10
160.01480379454659
 20
34.786477765006147
 30
0.0
 11
160.20765909336359
 21
34.979333063826658
 31
0.0
  0
LINE
  5
146F
  8
TITLE
 10
160.01480379454659
 20
34.69919289235888
 30
0.0
 11
160.2942134577639
 21
34.97860255557945
 31
0.0
  0
LINE
  5
1470
  8
TITLE
 10
160.01480379454659
 20
34.61190801971523
 30
0.0
 11
160.388075304126
 21
34.985179529294442
 31
0.0
  0
LINE
  5
1471
  8
TITLE
 10
160.01480379454659
 20
34.873762637653023
 30
0.0
 11
160.1211690158423
 21
34.980127858948741
 31
0.0
  0
LINE
  5
1472
  8
TITLE
 10
158.90799628510251
 20
34.290664364088187
 30
0.0
 11
159.4838673296041
 21
34.866535408589712
 31
0.0
  0
LINE
  5
1473
  8
TITLE
 10
158.9952811577499
 20
34.290664364088187
 30
0.0
 11
159.4838673296041
 21
34.779250535942467
 31
0.0
  0
LINE
  5
1474
  8
TITLE
 10
159.08256603039669
 20
34.290664364088187
 30
0.0
 11
159.4838673296041
 21
34.691965663295314
 31
0.0
  0
LINE
  5
1475
  8
TITLE
 10
159.16985090304399
 20
34.290664364088187
 30
0.0
 11
159.4838673296041
 21
34.604680790648139
 31
0.0
  0
LINE
  5
1476
  8
TITLE
 10
159.25713577569101
 20
34.290664364088187
 30
0.0
 11
159.4838673296041
 21
34.517395918001156
 31
0.0
  0
LINE
  5
1477
  8
TITLE
 10
159.34442064833809
 20
34.290664364088187
 30
0.0
 11
159.4838673296041
 21
34.430111045353847
 31
0.0
  0
LINE
  5
1478
  8
TITLE
 10
159.43170552098579
 20
34.290664364088187
 30
0.0
 11
159.4838673296041
 21
34.342826172707163
 31
0.0
  0
LINE
  5
1479
  8
TITLE
 10
160.01480379454659
 20
34.961047510296808
 30
0.0
 11
160.03388414319511
 21
34.980127858948741
 31
0.0
  0
LINE
  5
147A
  8
TITLE
 10
160.19255660353571
 20
37.059067517508829
 30
0.0
 11
160.40916809021741
 21
37.275679004194131
 31
0.0
  0
LINE
  5
147B
  8
TITLE
 10
160.19255660353571
 20
36.971782644861847
 30
0.0
 11
160.49645296286471
 21
37.275679004194131
 31
0.0
  0
LINE
  5
147C
  8
TITLE
 10
160.19255660353571
 20
36.884497772214679
 30
0.0
 11
160.58373783551221
 21
37.275679004194131
 31
0.0
  0
LINE
  5
147D
  8
TITLE
 10
160.19255660353571
 20
36.797212899570759
 30
0.0
 11
160.67102270815889
 21
37.275679004194131
 31
0.0
  0
LINE
  5
147E
  8
TITLE
 10
160.2365914337756
 20
36.75396285716694
 30
0.0
 11
160.75830758080619
 21
37.275679004194131
 31
0.0
  0
LINE
  5
147F
  8
TITLE
 10
160.01480379454659
 20
36.183035727349683
 30
0.0
 11
160.11618629370491
 21
36.284418226511491
 31
0.0
  0
LINE
  5
1480
  8
TITLE
 10
160.01480379454659
 20
36.095750854702672
 30
0.0
 11
160.20347116635179
 21
36.284418226511491
 31
0.0
  0
LINE
  5
1481
  8
TITLE
 10
160.01480379454659
 20
36.00846598205522
 30
0.0
 11
160.29075603899921
 21
36.284418226511491
 31
0.0
  0
LINE
  5
1482
  8
TITLE
 10
160.01480379454659
 20
36.270320599996801
 30
0.0
 11
160.0289014210648
 21
36.284418226511491
 31
0.0
  0
LINE
  5
1483
  8
TITLE
 10
160.19255660353571
 20
37.23363726280283
 30
0.0
 11
160.23459834492351
 21
37.275679004194131
 31
0.0
  0
LINE
  5
1484
  8
TITLE
 10
160.19255660353571
 20
37.146352390155847
 30
0.0
 11
160.32188321757059
 21
37.275679004194131
 31
0.0
  0
LINE
  5
1485
  8
TITLE
 10
156.72587446894499
 20
34.290664364088187
 30
0.0
 11
157.57830653230781
 21
35.143096427454772
 31
0.0
  0
LINE
  5
1486
  8
TITLE
 10
156.81315934158511
 20
34.290664364088187
 30
0.0
 11
157.66559140495551
 21
35.143096427454772
 31
0.0
  0
LINE
  5
1487
  8
TITLE
 10
156.9004442142321
 20
34.290664364088187
 30
0.0
 11
157.75287627760221
 21
35.143096427454772
 31
0.0
  0
LINE
  5
1488
  8
TITLE
 10
156.9877290868796
 20
34.290664364088187
 30
0.0
 11
157.8401611502496
 21
35.143096427454772
 31
0.0
  0
LINE
  5
1489
  8
TITLE
 10
157.07501395952659
 20
34.290664364088187
 30
0.0
 11
157.92744602288971
 21
35.143096427454772
 31
0.0
  0
LINE
  5
148A
  8
TITLE
 10
157.1622988321738
 20
34.290664364088187
 30
0.0
 11
158.0147308955367
 21
35.143096427454772
 31
0.0
  0
LINE
  5
148B
  8
TITLE
 10
157.24958370482091
 20
34.290664364088187
 30
0.0
 11
158.10201576818369
 21
35.143096427454772
 31
0.0
  0
LINE
  5
148C
  8
TITLE
 10
157.3368685774679
 20
34.290664364088187
 30
0.0
 11
158.18930064083071
 21
35.143096427454772
 31
0.0
  0
LINE
  5
148D
  8
TITLE
 10
157.4241534501152
 20
34.290664364088187
 30
0.0
 11
158.27658551347821
 21
35.143096427454772
 31
0.0
  0
LINE
  5
148E
  8
TITLE
 10
157.51143832276259
 20
34.290664364088187
 30
0.0
 11
158.3638703861252
 21
35.143096427454772
 31
0.0
  0
LINE
  5
148F
  8
TITLE
 10
157.5987231954096
 20
34.290664364088187
 30
0.0
 11
158.45115525877259
 21
35.143096427454772
 31
0.0
  0
LINE
  5
1490
  8
TITLE
 10
157.6860080680496
 20
34.290664364088187
 30
0.0
 11
158.53844013141961
 21
35.143096427454772
 31
0.0
  0
LINE
  5
1491
  8
TITLE
 10
158.38428704922671
 20
34.290664364088187
 30
0.0
 11
159.23671911259001
 21
35.143096427454772
 31
0.0
  0
LINE
  5
1492
  8
TITLE
 10
158.4715719218739
 20
34.290664364088187
 30
0.0
 11
159.32400398523691
 21
35.143096427454772
 31
0.0
  0
LINE
  5
1493
  8
TITLE
 10
157.77329294069671
 20
34.290664364088187
 30
0.0
 11
158.62572500406691
 21
35.143096427454772
 31
0.0
  0
LINE
  5
1494
  8
TITLE
 10
157.86057781334381
 20
34.290664364088187
 30
0.0
 11
158.7130098767137
 21
35.143096427454772
 31
0.0
  0
LINE
  5
1495
  8
TITLE
 10
157.94786268599091
 20
34.290664364088187
 30
0.0
 11
158.80029474936069
 21
35.143096427454772
 31
0.0
  0
LINE
  5
1496
  8
TITLE
 10
158.0351475586379
 20
34.290664364088187
 30
0.0
 11
158.88757962200091
 21
35.143096427454772
 31
0.0
  0
LINE
  5
1497
  8
TITLE
 10
158.1224324312852
 20
34.290664364088187
 30
0.0
 11
158.97486449464799
 21
35.143096427454772
 31
0.0
  0
LINE
  5
1498
  8
TITLE
 10
158.20971730393251
 20
34.290664364088187
 30
0.0
 11
159.06214936729521
 21
35.143096427454772
 31
0.0
  0
LINE
  5
1499
  8
TITLE
 10
158.2970021765795
 20
34.290664364088187
 30
0.0
 11
159.1494342399422
 21
35.143096427454772
 31
0.0
  0
LINE
  5
149A
  8
TITLE
 10
162.68162286472381
 20
38.762569924883302
 30
0.0
 11
163.7743411912025
 21
39.855288251358168
 31
0.0
  0
LINE
  5
149B
  8
TITLE
 10
162.76890773737099
 20
38.762569924883302
 30
0.0
 11
163.86162606384971
 21
39.855288251358168
 31
0.0
  0
LINE
  5
149C
  8
TITLE
 10
162.8561926100179
 20
38.762569924883302
 30
0.0
 11
163.877538212844
 21
39.783915527705567
 31
0.0
  0
LINE
  5
149D
  8
TITLE
 10
162.94347748266509
 20
38.762569924883302
 30
0.0
 11
163.877538212844
 21
39.69663065505857
 31
0.0
  0
LINE
  5
149E
  8
TITLE
 10
163.03076235531231
 20
38.762569924883302
 30
0.0
 11
163.877538212844
 21
39.60934578241141
 31
0.0
  0
LINE
  5
149F
  8
TITLE
 10
163.72904133648251
 20
38.762569924883302
 30
0.0
 11
164.8217596629612
 21
39.855288251358168
 31
0.0
  0
LINE
  5
14A0
  8
TITLE
 10
163.11804722795961
 20
38.762569924883302
 30
0.0
 11
163.877538212844
 21
39.522060909763852
 31
0.0
  0
LINE
  5
14A1
  8
TITLE
 10
163.2053321006068
 20
38.762569924883302
 30
0.0
 11
163.877538212844
 21
39.4347760371205
 31
0.0
  0
LINE
  5
14A2
  8
TITLE
 10
163.2926169732466
 20
38.762569924883302
 30
0.0
 11
163.9447621570317
 21
39.414715108664687
 31
0.0
  0
LINE
  5
14A3
  8
TITLE
 10
163.37990184589401
 20
38.762569924883302
 30
0.0
 11
164.03204702967901
 21
39.414715108664687
 31
0.0
  0
LINE
  5
14A4
  8
TITLE
 10
163.4671867185408
 20
38.762569924883302
 30
0.0
 11
164.11933190232591
 21
39.414715108664687
 31
0.0
  0
LINE
  5
14A5
  8
TITLE
 10
163.55447159118791
 20
38.762569924883302
 30
0.0
 11
164.20661677497301
 21
39.414715108664687
 31
0.0
  0
LINE
  5
14A6
  8
TITLE
 10
163.64175646383521
 20
38.762569924883302
 30
0.0
 11
164.7344747903139
 21
39.855288251358168
 31
0.0
  0
LINE
  5
14A7
  8
TITLE
 10
163.61062940817999
 20
37.771309270119687
 30
0.0
 11
164.49936932442321
 21
38.660049186359288
 31
0.0
  0
LINE
  5
14A8
  8
TITLE
 10
163.69791428082669
 20
37.771309270119687
 30
0.0
 11
164.47751313027439
 21
38.550908119567488
 31
0.0
  0
LINE
  5
14A9
  8
TITLE
 10
163.78519915347411
 20
37.771309270119687
 30
0.0
 11
164.45565693613301
 21
38.441767052771198
 31
0.0
  0
LINE
  5
14AA
  8
TITLE
 10
163.87248402612141
 20
37.771309270119687
 30
0.0
 11
164.44637181243289
 21
38.34519705643126
 31
0.0
  0
LINE
  5
14AB
  8
TITLE
 10
163.9597688987684
 20
37.771309270119687
 30
0.0
 11
164.5336566850799
 21
38.34519705643126
 31
0.0
  0
LINE
  5
14AC
  8
TITLE
 10
164.0470537714157
 20
37.771309270119687
 30
0.0
 11
164.62094155772729
 21
38.34519705643126
 31
0.0
  0
LINE
  5
14AD
  8
TITLE
 10
164.13433864406289
 20
37.771309270119687
 30
0.0
 11
164.7082264303744
 21
38.34519705643126
 31
0.0
  0
LINE
  5
14AE
  8
TITLE
 10
164.22162351670971
 20
37.771309270119687
 30
0.0
 11
164.7955113030211
 21
38.34519705643126
 31
0.0
  0
LINE
  5
14AF
  8
TITLE
 10
164.30890838935721
 20
37.771309270119687
 30
0.0
 11
164.8827961756686
 21
38.34519705643126
 31
0.0
  0
LINE
  5
14B0
  8
TITLE
 10
164.36673462751619
 20
39.662117833854758
 30
0.0
 11
164.5599050450196
 21
39.855288251358168
 31
0.0
  0
LINE
  5
14B1
  8
TITLE
 10
164.28895989131061
 20
39.49705822500183
 30
0.0
 11
164.64718991766691
 21
39.855288251358168
 31
0.0
  0
LINE
  5
14B2
  8
TITLE
 10
163.20754153537669
 20
39.63762808612114
 30
0.0
 11
163.42520170061391
 21
39.855288251358168
 31
0.0
  0
LINE
  5
14B3
  8
TITLE
 10
163.20754153537669
 20
39.55034321347415
 30
0.0
 11
163.5124865732609
 21
39.855288251358168
 31
0.0
  0
LINE
  5
14B4
  8
TITLE
 10
163.20754153537669
 20
39.463058340826699
 30
0.0
 11
163.5997714459084
 21
39.855288251358168
 31
0.0
  0
LINE
  5
14B5
  8
TITLE
 10
163.20754153537669
 20
39.81219783141178
 30
0.0
 11
163.2506319553197
 21
39.855288251358168
 31
0.0
  0
LINE
  5
14B6
  8
TITLE
 10
163.20754153537669
 20
39.724912958764961
 30
0.0
 11
163.33791682796669
 21
39.855288251358168
 31
0.0
  0
LINE
  5
14B7
  8
TITLE
 10
164.44450936371501
 20
39.82717744270068
 30
0.0
 11
164.47262017237281
 21
39.855288251358168
 31
0.0
  0
LINE
  5
14B8
  8
TITLE
 10
163.29967983550591
 20
35.627377371866373
 30
0.0
 11
163.9567206901512
 21
36.284418226511491
 31
0.0
  0
LINE
  5
14B9
  8
TITLE
 10
163.3310471763819
 20
35.57145984009815
 30
0.0
 11
164.04400556279811
 21
36.284418226511491
 31
0.0
  0
LINE
  5
14BA
  8
TITLE
 10
163.36358074300259
 20
35.516708534072151
 30
0.0
 11
164.13129043544541
 21
36.284418226511491
 31
0.0
  0
LINE
  5
14BB
  8
TITLE
 10
163.39725859875341
 20
35.463101517168852
 30
0.0
 11
164.2185753080924
 21
36.284418226511491
 31
0.0
  0
LINE
  5
14BC
  8
TITLE
 10
163.43206153260951
 20
35.410619578384669
 30
0.0
 11
164.30586018073981
 21
36.284418226511491
 31
0.0
  0
LINE
  5
14BD
  8
TITLE
 10
163.4679728611996
 20
35.359246034324329
 30
0.0
 11
164.3931450533868
 21
36.284418226511491
 31
0.0
  0
LINE
  5
14BE
  8
TITLE
 10
163.5049782626142
 20
35.308966563095822
 30
0.0
 11
164.48042992603391
 21
36.284418226511491
 31
0.0
  0
LINE
  5
14BF
  8
TITLE
 10
163.54306563805761
 20
35.259769065887852
 30
0.0
 11
164.5677147986811
 21
36.284418226511491
 31
0.0
  0
LINE
  5
14C0
  8
TITLE
 10
163.58222499792521
 20
35.211643553111962
 30
0.0
 11
164.65499967132101
 21
36.284418226511491
 31
0.0
  0
LINE
  5
14C1
  8
TITLE
 10
163.62244836990789
 20
35.164582052454833
 30
0.0
 11
164.74228454396811
 21
36.284418226511491
 31
0.0
  0
LINE
  5
14C2
  8
TITLE
 10
164.3339391506934
 20
35.788787960585829
 30
0.0
 11
164.8295694166155
 21
36.284418226511491
 31
0.0
  0
LINE
  5
14C3
  8
TITLE
 10
163.9822080056087
 20
34.826062706977851
 30
0.0
 11
164.54817926948419
 21
35.392033970853859
 31
0.0
  0
LINE
  5
14C4
  8
TITLE
 10
164.031959710828
 20
34.788529539550261
 30
0.0
 11
164.58906959329619
 21
35.34563942201514
 31
0.0
  0
LINE
  5
14C5
  8
TITLE
 10
164.08279933263071
 20
34.752084288709632
 30
0.0
 11
164.6323034686626
 21
35.301588424737773
 31
0.0
  0
LINE
  5
14C6
  8
TITLE
 10
164.13474009566511
 20
34.716740179100469
 30
0.0
 11
164.6778773617969
 21
35.259877445225307
 31
0.0
  0
LINE
  5
14C7
  8
TITLE
 10
164.1877975154903
 20
34.68251272627478
 30
0.0
 11
164.72580804164599
 21
35.220523252430169
 31
0.0
  0
LINE
  5
14C8
  8
TITLE
 10
164.24198955074979
 20
34.649419888890748
 30
0.0
 11
164.7761333176407
 21
35.18356365577803
 31
0.0
  0
LINE
  5
14C9
  8
TITLE
 10
164.29733678512139
 20
34.617482250611388
 30
0.0
 11
164.82891374684991
 21
35.149059212343751
 31
0.0
  0
LINE
  5
14CA
  8
TITLE
 10
164.3538626434962
 20
34.586723236342849
 30
0.0
 11
164.8842354959977
 21
35.117096088840491
 31
0.0
  0
LINE
  5
14CB
  8
TITLE
 10
163.88592616740959
 20
34.904350614073209
 30
0.0
 11
164.47354676054971
 21
35.491971207213851
 31
0.0
  0
LINE
  5
14CC
  8
TITLE
 10
163.9335331571238
 20
34.864672731136856
 30
0.0
 11
164.50965648824771
 21
35.44079606226417
 31
0.0
  0
LINE
  5
14CD
  8
TITLE
 10
162.66124580890161
 20
34.290664364088187
 30
0.0
 11
163.2911561520587
 21
34.920574707245429
 31
0.0
  0
LINE
  5
14CE
  8
TITLE
 10
162.74853068154869
 20
34.290664364088187
 30
0.0
 11
163.2911561520587
 21
34.83328983459873
 31
0.0
  0
LINE
  5
14CF
  8
TITLE
 10
162.8358155541957
 20
34.290664364088187
 30
0.0
 11
163.2911561520587
 21
34.746004961954782
 31
0.0
  0
LINE
  5
14D0
  8
TITLE
 10
162.92310042684281
 20
34.290664364088187
 30
0.0
 11
163.2911561520587
 21
34.658720089307927
 31
0.0
  0
LINE
  5
14D1
  8
TITLE
 10
163.01038529948991
 20
34.290664364088187
 30
0.0
 11
163.2911561520587
 21
34.571435216660497
 31
0.0
  0
LINE
  5
14D2
  8
TITLE
 10
163.09767017213721
 20
34.290664364088187
 30
0.0
 11
163.2911561520587
 21
34.48415034401684
 31
0.0
  0
LINE
  5
14D3
  8
TITLE
 10
163.1849550447773
 20
34.290664364088187
 30
0.0
 11
163.2911561520587
 21
34.39686547136975
 31
0.0
  0
LINE
  5
14D4
  8
TITLE
 10
163.27223991742409
 20
34.290664364088187
 30
0.0
 11
163.2911561520587
 21
34.30958059872269
 31
0.0
  0
LINE
  5
14D5
  8
TITLE
 10
163.6637297269319
 20
35.11857853682789
 30
0.0
 11
164.3326775665715
 21
35.787526376463831
 31
0.0
  0
LINE
  5
14D6
  8
TITLE
 10
163.70606493347779
 20
35.073628870726878
 30
0.0
 11
164.3550569315961
 21
35.722620868848963
 31
0.0
  0
LINE
  5
14D7
  8
TITLE
 10
163.74945170916089
 20
35.029730773762481
 30
0.0
 11
164.38052671146241
 21
35.660805776067903
 31
0.0
  0
LINE
  5
14D8
  8
TITLE
 10
163.7938896087619
 20
34.986883800719824
 30
0.0
 11
164.40886986011921
 21
35.601864052077481
 31
0.0
  0
LINE
  5
14D9
  8
TITLE
 10
163.83938001836259
 20
34.945089337666303
 30
0.0
 11
164.43991920055001
 21
35.545628519861069
 31
0.0
  0
LINE
  5
14DA
  8
TITLE
 10
163.7279863396401
 20
36.75396285716694
 30
0.0
 11
164.24970248666349
 21
37.275679004194131
 31
0.0
  0
LINE
  5
14DB
  8
TITLE
 10
163.8152712122872
 20
36.75396285716694
 30
0.0
 11
164.33698735931111
 21
37.275679004194131
 31
0.0
  0
LINE
  5
14DC
  8
TITLE
 10
163.90255608492711
 20
36.75396285716694
 30
0.0
 11
164.4242722319579
 21
37.275679004194131
 31
0.0
  0
LINE
  5
14DD
  8
TITLE
 10
163.9898409575747
 20
36.75396285716694
 30
0.0
 11
164.5115571046052
 21
37.275679004194131
 31
0.0
  0
LINE
  5
14DE
  8
TITLE
 10
163.2915619764043
 20
36.75396285716694
 30
0.0
 11
163.81327812342781
 21
37.275679004194131
 31
0.0
  0
LINE
  5
14DF
  8
TITLE
 10
163.3788468490518
 20
36.75396285716694
 30
0.0
 11
163.90056299607519
 21
37.275679004194131
 31
0.0
  0
LINE
  5
14E0
  8
TITLE
 10
163.4661317216989
 20
36.75396285716694
 30
0.0
 11
163.9878478687221
 21
37.275679004194131
 31
0.0
  0
LINE
  5
14E1
  8
TITLE
 10
163.55341659434561
 20
36.75396285716694
 30
0.0
 11
164.0751327413694
 21
37.275679004194131
 31
0.0
  0
LINE
  5
14E2
  8
TITLE
 10
163.64070146699271
 20
36.75396285716694
 30
0.0
 11
164.1624176140167
 21
37.275679004194131
 31
0.0
  0
LINE
  5
14E3
  8
TITLE
 10
164.0771258302216
 20
36.75396285716694
 30
0.0
 11
164.59884197725239
 21
37.275679004194131
 31
0.0
  0
LINE
  5
14E4
  8
TITLE
 10
164.16441070286879
 20
36.75396285716694
 30
0.0
 11
164.6861268498923
 21
37.275679004194131
 31
0.0
  0
LINE
  5
14E5
  8
TITLE
 10
164.25169557551581
 20
36.75396285716694
 30
0.0
 11
164.77341172253941
 21
37.275679004194131
 31
0.0
  0
LINE
  5
14E6
  8
TITLE
 10
164.33898044816291
 20
36.75396285716694
 30
0.0
 11
164.86069659518671
 21
37.275679004194131
 31
0.0
  0
LINE
  5
14E7
  8
TITLE
 10
160.84864053914771
 20
38.762569924883302
 30
0.0
 11
161.50078572293259
 21
39.414715108664687
 31
0.0
  0
LINE
  5
14E8
  8
TITLE
 10
160.93592541179501
 20
38.762569924883302
 30
0.0
 11
161.58807059558021
 21
39.414715108664687
 31
0.0
  0
LINE
  5
14E9
  8
TITLE
 10
161.0232102844422
 20
38.762569924883302
 30
0.0
 11
161.67535546822711
 21
39.414715108664687
 31
0.0
  0
LINE
  5
14EA
  8
TITLE
 10
161.11049515708919
 20
38.762569924883302
 30
0.0
 11
161.76264034086731
 21
39.414715108664687
 31
0.0
  0
LINE
  5
14EB
  8
TITLE
 10
161.1776747199369
 20
38.74246461508686
 30
0.0
 11
162.29049835620799
 21
39.855288251358168
 31
0.0
  0
LINE
  5
14EC
  8
TITLE
 10
161.9833438835538
 20
38.762569924883302
 30
0.0
 11
162.63548906733141
 21
39.414715108664687
 31
0.0
  0
LINE
  5
14ED
  8
TITLE
 10
160.81751348349241
 20
37.771309270119687
 30
0.0
 11
162.48600672380269
 21
39.43980251042278
 31
0.0
  0
LINE
  5
14EE
  8
TITLE
 10
160.90479835613951
 20
37.771309270119687
 30
0.0
 11
162.54820419469161
 21
39.414715108664687
 31
0.0
  0
LINE
  5
14EF
  8
TITLE
 10
161.23592678136561
 20
38.451577185927214
 30
0.0
 11
162.48600672380269
 21
39.701657128360708
 31
0.0
  0
LINE
  5
14F0
  8
TITLE
 10
161.2504897967228
 20
38.378855328637158
 30
0.0
 11
162.48600672380269
 21
39.614372255717072
 31
0.0
  0
LINE
  5
14F1
  8
TITLE
 10
161.1922377352941
 20
38.669742757797238
 30
0.0
 11
162.37778322885529
 21
39.855288251358168
 31
0.0
  0
LINE
  5
14F2
  8
TITLE
 10
161.2068007506513
 20
38.597020900507061
 30
0.0
 11
162.4650681015026
 21
39.855288251358168
 31
0.0
  0
LINE
  5
14F3
  8
TITLE
 10
161.22136376600861
 20
38.524299043217511
 30
0.0
 11
162.48600672380269
 21
39.788942001008131
 31
0.0
  0
LINE
  5
14F4
  8
TITLE
 10
160.99208322878701
 20
37.771309270119687
 30
0.0
 11
161.9485379775077
 21
38.727764018840119
 31
0.0
  0
LINE
  5
14F5
  8
TITLE
 10
161.07936810143369
 20
37.771309270119687
 30
0.0
 11
161.9631009928647
 21
38.655042161550568
 31
0.0
  0
LINE
  5
14F6
  8
TITLE
 10
161.1666529740811
 20
37.771309270119687
 30
0.0
 11
161.97766400822169
 21
38.582320304256889
 31
0.0
  0
LINE
  5
14F7
  8
TITLE
 10
161.25393784672821
 20
37.771309270119687
 30
0.0
 11
161.99222702357861
 21
38.509598446966727
 31
0.0
  0
LINE
  5
14F8
  8
TITLE
 10
161.34122271937531
 20
37.771309270119687
 30
0.0
 11
162.006790038936
 21
38.436876589676721
 31
0.0
  0
LINE
  5
14F9
  8
TITLE
 10
161.42850759202261
 20
37.771309270119687
 30
0.0
 11
162.02135305428601
 21
38.364154732383049
 31
0.0
  0
LINE
  5
14FA
  8
TITLE
 10
161.5157924646696
 20
37.771309270119687
 30
0.0
 11
162.08968025098119
 21
38.34519705643126
 31
0.0
  0
LINE
  5
14FB
  8
TITLE
 10
161.6030773373169
 20
37.771309270119687
 30
0.0
 11
162.17696512362821
 21
38.34519705643126
 31
0.0
  0
LINE
  5
14FC
  8
TITLE
 10
161.69036220995699
 20
37.771309270119687
 30
0.0
 11
162.2642499962754
 21
38.34519705643126
 31
0.0
  0
LINE
  5
14FD
  8
TITLE
 10
161.77764708260381
 20
37.771309270119687
 30
0.0
 11
162.351534868915
 21
38.34519705643126
 31
0.0
  0
LINE
  5
14FE
  8
TITLE
 10
161.86493195525119
 20
37.771309270119687
 30
0.0
 11
162.43881974156281
 21
38.34519705643126
 31
0.0
  0
LINE
  5
14FF
  8
TITLE
 10
161.9522168278981
 20
37.771309270119687
 30
0.0
 11
162.5261046142098
 21
38.34519705643126
 31
0.0
  0
LINE
  5
1500
  8
TITLE
 10
162.0395017005456
 20
37.771309270119687
 30
0.0
 11
162.6133894868567
 21
38.34519705643126
 31
0.0
  0
LINE
  5
1501
  8
TITLE
 10
161.81601004633561
 20
39.642654559420073
 30
0.0
 11
162.0286437382739
 21
39.855288251358168
 31
0.0
  0
LINE
  5
1502
  8
TITLE
 10
161.81601004633561
 20
39.555369686772792
 30
0.0
 11
162.1159286109208
 21
39.855288251358168
 31
0.0
  0
LINE
  5
1503
  8
TITLE
 10
161.81601004633561
 20
39.468084814125653
 30
0.0
 11
162.20321348356799
 21
39.855288251358168
 31
0.0
  0
LINE
  5
1504
  8
TITLE
 10
161.81601004633561
 20
39.817224304714202
 30
0.0
 11
161.85407399297981
 21
39.855288251358168
 31
0.0
  0
LINE
  5
1505
  8
TITLE
 10
161.81601004633561
 20
39.729939432067077
 30
0.0
 11
161.94135886562671
 21
39.855288251358168
 31
0.0
  0
LINE
  5
1506
  8
TITLE
 10
160.84254424483601
 20
35.788787960585829
 30
0.0
 11
161.33817451075799
 21
36.284418226511491
 31
0.0
  0
LINE
  5
1507
  8
TITLE
 10
160.92982911748331
 20
35.788787960585829
 30
0.0
 11
161.42545938340481
 21
36.284418226511491
 31
0.0
  0
LINE
  5
1508
  8
TITLE
 10
161.0171139901303
 20
35.788787960585829
 30
0.0
 11
161.5127442560522
 21
36.284418226511491
 31
0.0
  0
LINE
  5
1509
  8
TITLE
 10
161.1043988627774
 20
35.788787960585829
 30
0.0
 11
161.60002912869959
 21
36.284418226511491
 31
0.0
  0
LINE
  5
150A
  8
TITLE
 10
161.19168373541751
 20
35.788787960585829
 30
0.0
 11
161.68731400134641
 21
36.284418226511491
 31
0.0
  0
LINE
  5
150B
  8
TITLE
 10
161.2789686080649
 20
35.788787960585829
 30
0.0
 11
161.77459887399391
 21
36.284418226511491
 31
0.0
  0
LINE
  5
150C
  8
TITLE
 10
161.3589777037534
 20
35.781512183627541
 30
0.0
 11
161.8618837466409
 21
36.284418226511491
 31
0.0
  0
LINE
  5
150D
  8
TITLE
 10
161.30235564884981
 20
35.637605256076853
 30
0.0
 11
161.9491686192807
 21
36.284418226511491
 31
0.0
  0
LINE
  5
150E
  8
TITLE
 10
161.15161035021319
 20
35.399575084792943
 30
0.0
 11
162.036453491928
 21
36.284418226511491
 31
0.0
  0
LINE
  5
150F
  8
TITLE
 10
161.44498062361501
 20
34.645526886440067
 30
0.0
 11
162.35071042157551
 21
35.551256684396833
 31
0.0
  0
LINE
  5
1510
  8
TITLE
 10
161.71786840926291
 20
34.831129799436781
 30
0.0
 11
162.1651075085752
 21
35.278368898749349
 31
0.0
  0
LINE
  5
1511
  8
TITLE
 10
160.8475855423055
 20
36.75396285716694
 30
0.0
 11
161.36930168932901
 21
37.275679004194131
 31
0.0
  0
LINE
  5
1512
  8
TITLE
 10
160.93487041495271
 20
36.75396285716694
 30
0.0
 11
161.45658656197659
 21
37.275679004194131
 31
0.0
  0
LINE
  5
1513
  8
TITLE
 10
161.02215528759979
 20
36.75396285716694
 30
0.0
 11
161.5438714346235
 21
37.275679004194131
 31
0.0
  0
LINE
  5
1514
  8
TITLE
 10
161.109440160247
 20
36.75396285716694
 30
0.0
 11
161.6311563072706
 21
37.275679004194131
 31
0.0
  0
LINE
  5
1515
  8
TITLE
 10
161.19672503288669
 20
36.75396285716694
 30
0.0
 11
161.71844117991799
 21
37.275679004194131
 31
0.0
  0
LINE
  5
1516
  8
TITLE
 10
161.28400990553391
 20
36.75396285716694
 30
0.0
 11
161.80572605256501
 21
37.275679004194131
 31
0.0
  0
LINE
  5
1517
  8
TITLE
 10
161.37129477818141
 20
36.75396285716694
 30
0.0
 11
161.8930109252052
 21
37.275679004194131
 31
0.0
  0
LINE
  5
1518
  8
TITLE
 10
161.4585796508286
 20
36.75396285716694
 30
0.0
 11
161.98029579785219
 21
37.275679004194131
 31
0.0
  0
LINE
  5
1519
  8
TITLE
 10
161.54586452347559
 20
36.75396285716694
 30
0.0
 11
162.0675806704993
 21
37.275679004194131
 31
0.0
  0
LINE
  5
151A
  8
TITLE
 10
161.63314939612289
 20
36.75396285716694
 30
0.0
 11
162.1548655431464
 21
37.275679004194131
 31
0.0
  0
LINE
  5
151B
  8
TITLE
 10
161.72043426876971
 20
36.75396285716694
 30
0.0
 11
162.2421504157935
 21
37.275679004194131
 31
0.0
  0
LINE
  5
151C
  8
TITLE
 10
161.80771914141701
 20
36.75396285716694
 30
0.0
 11
162.329435288441
 21
37.275679004194131
 31
0.0
  0
LINE
  5
151D
  8
TITLE
 10
162.59433799207679
 20
38.762569924883302
 30
0.0
 11
163.68705631855551
 21
39.855288251358168
 31
0.0
  0
LINE
  5
151E
  8
TITLE
 10
162.4197682467821
 20
38.762569924883302
 30
0.0
 11
163.07191343056741
 21
39.414715108664687
 31
0.0
  0
LINE
  5
151F
  8
TITLE
 10
162.5070531194296
 20
38.762569924883302
 30
0.0
 11
163.15919830321451
 21
39.414715108664687
 31
0.0
  0
LINE
  5
1520
  8
TITLE
 10
162.0706287562009
 20
38.762569924883302
 30
0.0
 11
162.72277393997871
 21
39.414715108664687
 31
0.0
  0
LINE
  5
1521
  8
TITLE
 10
162.15791362884781
 20
38.762569924883302
 30
0.0
 11
162.81005881262601
 21
39.414715108664687
 31
0.0
  0
LINE
  5
1522
  8
TITLE
 10
162.24519850149539
 20
38.762569924883302
 30
0.0
 11
162.89734368527269
 21
39.414715108664687
 31
0.0
  0
LINE
  5
1523
  8
TITLE
 10
162.33248337414221
 20
38.762569924883302
 30
0.0
 11
162.98462855792019
 21
39.414715108664687
 31
0.0
  0
LINE
  5
1524
  8
TITLE
 10
160.8359669095945
 20
34.38565266300418
 30
0.0
 11
163.7259932507809
 21
37.275679004194131
 31
0.0
  0
LINE
  5
1525
  8
TITLE
 10
162.4023921071136
 20
34.81737451612122
 30
0.0
 11
163.8694358175039
 21
36.284418226511491
 31
0.0
  0
LINE
  5
1526
  8
TITLE
 10
160.96226088844679
 20
34.42466176920955
 30
0.0
 11
163.2911561520587
 21
36.753557032821462
 31
0.0
  0
LINE
  5
1527
  8
TITLE
 10
161.10075752885291
 20
34.475873536971832
 30
0.0
 11
163.2911561520587
 21
36.666272160174607
 31
0.0
  0
LINE
  5
1528
  8
TITLE
 10
161.25724562885279
 20
34.545076764320868
 30
0.0
 11
163.2911561520587
 21
36.578987287530822
 31
0.0
  0
LINE
  5
1529
  8
TITLE
 10
162.4023921071136
 20
34.991944261411859
 30
0.0
 11
163.69486607220941
 21
36.284418226511491
 31
0.0
  0
LINE
  5
152A
  8
TITLE
 10
162.4023921071136
 20
34.904659388768252
 30
0.0
 11
163.78215094485691
 21
36.284418226511491
 31
0.0
  0
LINE
  5
152B
  8
TITLE
 10
162.4023921071136
 20
35.60293836994191
 30
0.0
 11
163.2911561520587
 21
36.49170241488352
 31
0.0
  0
LINE
  5
152C
  8
TITLE
 10
162.4023921071136
 20
35.515653497294601
 30
0.0
 11
163.2911561520587
 21
36.404417542236231
 31
0.0
  0
LINE
  5
152D
  8
TITLE
 10
162.4023921071136
 20
35.428368624647753
 30
0.0
 11
163.2911561520587
 21
36.31713266959288
 31
0.0
  0
LINE
  5
152E
  8
TITLE
 10
162.4023921071136
 20
35.34108375200033
 30
0.0
 11
163.34572658162801
 21
36.284418226511491
 31
0.0
  0
LINE
  5
152F
  8
TITLE
 10
162.4023921071136
 20
35.253798879353027
 30
0.0
 11
163.43301145427529
 21
36.284418226511491
 31
0.0
  0
LINE
  5
1530
  8
TITLE
 10
162.4023921071136
 20
35.16651400670618
 30
0.0
 11
163.52029632692231
 21
36.284418226511491
 31
0.0
  0
LINE
  5
1531
  8
TITLE
 10
162.4023921071136
 20
35.079229134059162
 30
0.0
 11
163.60758119956969
 21
36.284418226511491
 31
0.0
  0
LINE
  5
1532
  8
TITLE
 10
162.4023921071136
 20
34.730089643477868
 30
0.0
 11
163.2911561520587
 21
35.618853688419243
 31
0.0
  0
LINE
  5
1533
  8
TITLE
 10
162.4023921071136
 20
34.642804770830722
 30
0.0
 11
163.2911561520587
 21
35.531568815772218
 31
0.0
  0
LINE
  5
1534
  8
TITLE
 10
162.4023921071136
 20
34.555519898183292
 30
0.0
 11
163.2911561520587
 21
35.444283943124923
 31
0.0
  0
LINE
  5
1535
  8
TITLE
 10
162.4023921071136
 20
34.468235025536011
 30
0.0
 11
163.2911561520587
 21
35.356999070481123
 31
0.0
  0
LINE
  5
1536
  8
TITLE
 10
162.4023921071136
 20
34.380950152888751
 30
0.0
 11
163.2911561520587
 21
35.26971419783429
 31
0.0
  0
LINE
  5
1537
  8
TITLE
 10
162.4023921071136
 20
34.293665280241711
 30
0.0
 11
163.2911561520587
 21
35.182429325186988
 31
0.0
  0
LINE
  5
1538
  8
TITLE
 10
162.48667606360721
 20
34.290664364088187
 30
0.0
 11
163.2911561520587
 21
35.09514445254014
 31
0.0
  0
LINE
  5
1539
  8
TITLE
 10
162.57396093625411
 20
34.290664364088187
 30
0.0
 11
163.2911561520587
 21
35.00785957989271
 31
0.0
  0
LINE
  5
153A
  8
TITLE
 10
162.4023921071136
 20
37.610490440808533
 30
0.0
 11
163.13709872274001
 21
38.34519705643126
 31
0.0
  0
LINE
  5
153B
  8
TITLE
 10
162.4023921071136
 20
37.523205568161409
 30
0.0
 11
163.22438359537981
 21
38.34519705643126
 31
0.0
  0
LINE
  5
153C
  8
TITLE
 10
162.4023921071136
 20
37.435920695517723
 30
0.0
 11
163.31166846802671
 21
38.34519705643126
 31
0.0
  0
LINE
  5
153D
  8
TITLE
 10
162.4023921071136
 20
37.348635822870911
 30
0.0
 11
163.3989533406739
 21
38.34519705643126
 31
0.0
  0
LINE
  5
153E
  8
TITLE
 10
161.89500401406431
 20
36.75396285716694
 30
0.0
 11
163.486238213321
 21
38.34519705643126
 31
0.0
  0
LINE
  5
153F
  8
TITLE
 10
161.9822888867111
 20
36.75396285716694
 30
0.0
 11
163.57352308596819
 21
38.34519705643126
 31
0.0
  0
LINE
  5
1540
  8
TITLE
 10
162.06957375935119
 20
36.75396285716694
 30
0.0
 11
163.66080795861541
 21
38.34519705643126
 31
0.0
  0
LINE
  5
1541
  8
TITLE
 10
162.1267865731927
 20
37.771309270119687
 30
0.0
 11
162.70067435950389
 21
38.34519705643126
 31
0.0
  0
LINE
  5
1542
  8
TITLE
 10
162.21407144583981
 20
37.771309270119687
 30
0.0
 11
162.7879592321512
 21
38.34519705643126
 31
0.0
  0
LINE
  5
1543
  8
TITLE
 10
162.30135631848691
 20
37.771309270119687
 30
0.0
 11
162.87524410479821
 21
38.34519705643126
 31
0.0
  0
LINE
  5
1544
  8
TITLE
 10
162.3886411911343
 20
37.771309270119687
 30
0.0
 11
162.9625289774454
 21
38.34519705643126
 31
0.0
  0
LINE
  5
1545
  8
TITLE
 10
162.4023921071136
 20
37.697775313452048
 30
0.0
 11
163.04981385009259
 21
38.34519705643126
 31
0.0
  0
LINE
  5
1546
  8
TITLE
 10
162.3314283772927
 20
36.75396285716694
 30
0.0
 11
163.2911561520587
 21
37.713690631932892
 31
0.0
  0
LINE
  5
1547
  8
TITLE
 10
162.4023921071136
 20
36.7376417143441
 30
0.0
 11
163.2911561520587
 21
37.626405759286023
 31
0.0
  0
LINE
  5
1548
  8
TITLE
 10
162.4023921071136
 20
36.650356841696798
 30
0.0
 11
163.2911561520587
 21
37.539120886638742
 31
0.0
  0
LINE
  5
1549
  8
TITLE
 10
162.4023921071136
 20
36.563071969049972
 30
0.0
 11
163.2911561520587
 21
37.451836013995113
 31
0.0
  0
LINE
  5
154A
  8
TITLE
 10
162.4023921071136
 20
36.475787096406179
 30
0.0
 11
163.2911561520587
 21
37.36455114134781
 31
0.0
  0
LINE
  5
154B
  8
TITLE
 10
162.4023921071136
 20
36.388502223759318
 30
0.0
 11
163.2911561520587
 21
37.277266268700643
 31
0.0
  0
LINE
  5
154C
  8
TITLE
 10
162.4023921071136
 20
36.301217351111909
 30
0.0
 11
163.37685376019959
 21
37.275679004194131
 31
0.0
  0
LINE
  5
154D
  8
TITLE
 10
169.875
 20
52.5
 30
0.0
 11
169.875
 21
42.5
 31
0.0
  0
LINE
  5
154E
  8
TITLE
 10
168.42128167881481
 20
38.828712016948728
 30
0.0
 11
169.43993198529921
 21
39.847362323440251
 31
0.0
  0
LINE
  5
154F
  8
TITLE
 10
168.42128167881481
 20
38.741427144301468
 30
0.0
 11
169.43993198529921
 21
39.760077450793062
 31
0.0
  0
LINE
  5
1550
  8
TITLE
 10
168.42128167881481
 20
38.04314816313115
 30
0.0
 11
169.5059047926469
 21
39.127771276966712
 31
0.0
  0
LINE
  5
1551
  8
TITLE
 10
168.50119411013719
 20
38.0357757218137
 30
0.0
 11
169.59318966529389
 21
39.127771276966712
 31
0.0
  0
LINE
  5
1552
  8
TITLE
 10
168.42128167881481
 20
38.479572526363199
 30
0.0
 11
169.43993198529921
 21
39.498222832851638
 31
0.0
  0
LINE
  5
1553
  8
TITLE
 10
168.42128167881481
 20
38.39228765371638
 30
0.0
 11
169.43989151933349
 21
39.410897494238327
 31
0.0
  0
LINE
  5
1554
  8
TITLE
 10
168.42128167881481
 20
38.305002781072709
 30
0.0
 11
169.43609377269601
 21
39.319814874953778
 31
0.0
  0
LINE
  5
1555
  8
TITLE
 10
168.42128167881481
 20
38.217717908425882
 30
0.0
 11
169.42584509583901
 21
39.222281325453238
 31
0.0
  0
LINE
  5
1556
  8
TITLE
 10
168.42128167881481
 20
38.130433035778431
 30
0.0
 11
169.4186199199994
 21
39.127771276966712
 31
0.0
  0
LINE
  5
1557
  8
TITLE
 10
168.66841769994741
 20
38.115714438969611
 30
0.0
 11
169.68047453794071
 21
39.127771276966712
 31
0.0
  0
LINE
  5
1558
  8
TITLE
 10
168.42128167881481
 20
38.65414227165418
 30
0.0
 11
169.43993198529921
 21
39.672792578145753
 31
0.0
  0
LINE
  5
1559
  8
TITLE
 10
168.42128167881481
 20
38.566857399007141
 30
0.0
 11
169.43993198529921
 21
39.585507705499062
 31
0.0
  0
LINE
  5
155A
  8
TITLE
 10
168.6542932481868
 20
39.14900845897138
 30
0.0
 11
169.36057304057741
 21
39.855288251358168
 31
0.0
  0
LINE
  5
155B
  8
TITLE
 10
168.73471248846241
 20
39.578567189831688
 30
0.0
 11
169.0114335499886
 21
39.855288251358168
 31
0.0
  0
LINE
  5
155C
  8
TITLE
 10
168.73471248846241
 20
39.491282317184712
 30
0.0
 11
169.0987184226359
 21
39.855288251358168
 31
0.0
  0
LINE
  5
155D
  8
TITLE
 10
168.73041054111411
 20
39.399695497189128
 30
0.0
 11
169.18600329528289
 21
39.855288251358168
 31
0.0
  0
LINE
  5
155E
  8
TITLE
 10
168.70820579424051
 20
39.29020587767215
 30
0.0
 11
169.2732881679301
 21
39.855288251358168
 31
0.0
  0
LINE
  5
155F
  8
TITLE
 10
168.42128167881481
 20
34.551753257273958
 30
0.0
 11
169.7182866230055
 21
35.848758201464079
 31
0.0
  0
LINE
  5
1560
  8
TITLE
 10
168.5623416274276
 20
34.605528333243299
 30
0.0
 11
169.60698555393421
 21
35.650172259746213
 31
0.0
  0
LINE
  5
1561
  8
TITLE
 10
168.83996139452651
 20
34.795863227694852
 30
0.0
 11
169.4166506594824
 21
35.372552492647102
 31
0.0
  0
LINE
  5
1562
  8
TITLE
 10
168.66624012647139
 20
35.756845304045441
 30
0.0
 11
170.68070409254901
 21
37.771309270119687
 31
0.0
  0
LINE
  5
1563
  8
TITLE
 10
168.42128167881481
 20
35.424601983738128
 30
0.0
 11
170.7679889651962
 21
37.771309270119687
 31
0.0
  0
LINE
  5
1564
  8
TITLE
 10
168.96920274991459
 20
36.23437767277926
 30
0.0
 11
170.56305938401769
 21
37.828234306879047
 31
0.0
  0
LINE
  5
1565
  8
TITLE
 10
168.85657310276861
 20
36.034463152986298
 30
0.0
 11
170.59341921990199
 21
37.771309270119687
 31
0.0
  0
LINE
  5
1566
  8
TITLE
 10
168.4223179677702
 20
37.171335725622228
 30
0.0
 11
169.02229151226061
 21
37.771309270119687
 31
0.0
  0
LINE
  5
1567
  8
TITLE
 10
168.50960284041739
 20
37.171335725622228
 30
0.0
 11
169.1095763849076
 21
37.771309270119687
 31
0.0
  0
LINE
  5
1568
  8
TITLE
 10
168.5968877130644
 20
37.171335725622228
 30
0.0
 11
169.1968612575549
 21
37.771309270119687
 31
0.0
  0
LINE
  5
1569
  8
TITLE
 10
168.6841725857044
 20
37.171335725622228
 30
0.0
 11
169.28414613020169
 21
37.771309270119687
 31
0.0
  0
LINE
  5
156A
  8
TITLE
 10
168.77145745835159
 20
37.171335725622228
 30
0.0
 11
169.37143100284899
 21
37.771309270119687
 31
0.0
  0
LINE
  5
156B
  8
TITLE
 10
168.85874233099881
 20
37.171335725622228
 30
0.0
 11
169.45871587549621
 21
37.771309270119687
 31
0.0
  0
LINE
  5
156C
  8
TITLE
 10
168.94602720364591
 20
37.171335725622228
 30
0.0
 11
169.5460007481434
 21
37.771309270119687
 31
0.0
  0
LINE
  5
156D
  8
TITLE
 10
168.42128167881481
 20
34.988177620502391
 30
0.0
 11
171.20441332842469
 21
37.771309270119687
 31
0.0
  0
LINE
  5
156E
  8
TITLE
 10
168.42128167881481
 20
34.81360787521178
 30
0.0
 11
171.37898307371901
 21
37.771309270119687
 31
0.0
  0
LINE
  5
156F
  8
TITLE
 10
168.42128167881481
 20
34.726323002564797
 30
0.0
 11
171.4662679463662
 21
37.771309270119687
 31
0.0
  0
LINE
  5
1570
  8
TITLE
 10
168.42128167881481
 20
34.639038129921261
 30
0.0
 11
171.5535528190137
 21
37.771309270119687
 31
0.0
  0
LINE
  5
1571
  8
TITLE
 10
168.42128167881481
 20
34.900892747859082
 30
0.0
 11
171.29169820107219
 21
37.771309270119687
 31
0.0
  0
LINE
  5
1572
  8
TITLE
 10
168.42128167881481
 20
35.162747365796868
 30
0.0
 11
171.0298435831306
 21
37.771309270119687
 31
0.0
  0
LINE
  5
1573
  8
TITLE
 10
168.42128167881481
 20
35.075462493149722
 30
0.0
 11
171.11712845577759
 21
37.771309270119687
 31
0.0
  0
LINE
  5
1574
  8
TITLE
 10
168.42128167881481
 20
35.337317111091281
 30
0.0
 11
170.85527383783619
 21
37.771309270119687
 31
0.0
  0
LINE
  5
1575
  8
TITLE
 10
168.42128167881481
 20
35.25003223844385
 30
0.0
 11
170.94255871048361
 21
37.771309270119687
 31
0.0
  0
LINE
  5
1576
  8
TITLE
 10
166.880246378229
 20
38.946089296648182
 30
0.0
 11
167.7160621819707
 21
39.781905100389729
 31
0.0
  0
LINE
  5
1577
  8
TITLE
 10
166.82111832423871
 20
38.18868226149106
 30
0.0
 11
167.7160621819707
 21
39.083626119219602
 31
0.0
  0
LINE
  5
1578
  8
TITLE
 10
167.78125192335
 20
38.188682261487443
 30
0.0
 11
168.1862085132
 21
38.593638851333722
 31
0.0
  0
LINE
  5
1579
  8
TITLE
 10
167.86853679599719
 20
38.188682261487443
 30
0.0
 11
168.1862085132
 21
38.506353978686427
 31
0.0
  0
LINE
  5
157A
  8
TITLE
 10
167.9558216686444
 20
38.188682261487443
 30
0.0
 11
168.1862085132
 21
38.41906910604304
 31
0.0
  0
LINE
  5
157B
  8
TITLE
 10
168.13039141393881
 20
38.18868226149106
 30
0.0
 11
168.1862085132
 21
38.244499360749217
 31
0.0
  0
LINE
  5
157C
  8
TITLE
 10
168.04310654129179
 20
38.188682261487443
 30
0.0
 11
168.1862085132
 21
38.33178423339578
 31
0.0
  0
LINE
  5
157D
  8
TITLE
 10
166.880246378229
 20
37.811385952246241
 30
0.0
 11
167.9357736294381
 21
38.866913203454779
 31
0.0
  0
LINE
  5
157E
  8
TITLE
 10
166.880246378229
 20
37.724101079599109
 30
0.0
 11
168.02305850208569
 21
38.866913203454779
 31
0.0
  0
LINE
  5
157F
  8
TITLE
 10
166.880246378229
 20
37.985955697536909
 30
0.0
 11
167.76120388414401
 21
38.866913203454779
 31
0.0
  0
LINE
  5
1580
  8
TITLE
 10
166.880246378229
 20
37.898670824889749
 30
0.0
 11
167.84848875679091
 21
38.866913203454779
 31
0.0
  0
LINE
  5
1581
  8
TITLE
 10
166.880246378229
 20
38.073240570183728
 30
0.0
 11
167.7160621819707
 21
38.909056373925303
 31
0.0
  0
LINE
  5
1582
  8
TITLE
 10
166.880246378229
 20
38.160525442827208
 30
0.0
 11
167.7160621819707
 21
38.99634124657274
 31
0.0
  0
LINE
  5
1583
  8
TITLE
 10
166.880246378229
 20
39.120659041938787
 30
0.0
 11
167.61487558764861
 21
39.855288251358168
 31
0.0
  0
LINE
  5
1584
  8
TITLE
 10
166.880246378229
 20
39.03337416929196
 30
0.0
 11
167.70216046028861
 21
39.855288251358168
 31
0.0
  0
LINE
  5
1585
  8
TITLE
 10
166.880246378229
 20
39.557083405174701
 30
0.0
 11
167.17845122441301
 21
39.855288251358168
 31
0.0
  0
LINE
  5
1586
  8
TITLE
 10
166.880246378229
 20
39.469798532527541
 30
0.0
 11
167.2657360970602
 21
39.855288251358168
 31
0.0
  0
LINE
  5
1587
  8
TITLE
 10
166.880246378229
 20
39.382513659880232
 30
0.0
 11
167.35302096970719
 21
39.855288251358168
 31
0.0
  0
LINE
  5
1588
  8
TITLE
 10
166.880246378229
 20
39.295228787233491
 30
0.0
 11
167.44030584235421
 21
39.855288251358168
 31
0.0
  0
LINE
  5
1589
  8
TITLE
 10
166.880246378229
 20
39.207943914586103
 30
0.0
 11
167.52759071500159
 21
39.855288251358168
 31
0.0
  0
LINE
  5
158A
  8
TITLE
 10
166.880246378229
 20
39.644368277821812
 30
0.0
 11
167.09116635176559
 21
39.855288251358168
 31
0.0
  0
LINE
  5
158B
  8
TITLE
 10
166.880246378229
 20
39.818938023112771
 30
0.0
 11
166.91659660647139
 21
39.855288251358168
 31
0.0
  0
LINE
  5
158C
  8
TITLE
 10
166.880246378229
 20
39.731653150465732
 30
0.0
 11
167.0038814791186
 21
39.855288251358168
 31
0.0
  0
LINE
  5
158D
  8
TITLE
 10
168.73471248846241
 20
39.665852062478862
 30
0.0
 11
168.92414867734161
 21
39.855288251358168
 31
0.0
  0
LINE
  5
158E
  8
TITLE
 10
168.73471248846241
 20
39.840421807769623
 30
0.0
 11
168.7495789320472
 21
39.855288251358168
 31
0.0
  0
LINE
  5
158F
  8
TITLE
 10
168.73471248846241
 20
39.753136935122782
 30
0.0
 11
168.83686380469439
 21
39.855288251358168
 31
0.0
  0
LINE
  5
1590
  8
TITLE
 10
164.95102955353511
 20
38.762569924883302
 30
0.0
 11
165.6031747373132
 21
39.414715108664687
 31
0.0
  0
LINE
  5
1591
  8
TITLE
 10
165.03831442618261
 20
38.762569924883302
 30
0.0
 11
165.6787444646329
 21
39.402999963329798
 31
0.0
  0
LINE
  5
1592
  8
TITLE
 10
165.12559929882269
 20
38.762569924883302
 30
0.0
 11
165.6787444646329
 21
39.315715090685998
 31
0.0
  0
LINE
  5
1593
  8
TITLE
 10
165.21288417146971
 20
38.762569924883302
 30
0.0
 11
165.6787444646329
 21
39.228430218039158
 31
0.0
  0
LINE
  5
1594
  8
TITLE
 10
165.3001690441169
 20
38.762569924883302
 30
0.0
 11
165.6787444646329
 21
39.141145345395373
 31
0.0
  0
LINE
  5
1595
  8
TITLE
 10
165.387453916764
 20
38.762569924883302
 30
0.0
 11
165.6787444646329
 21
39.053860472748248
 31
0.0
  0
LINE
  5
1596
  8
TITLE
 10
165.5620236620581
 20
38.762569924883302
 30
0.0
 11
165.6787444646329
 21
38.8792907274538
 31
0.0
  0
LINE
  5
1597
  8
TITLE
 10
165.64930853470551
 20
38.762569924883302
 30
0.0
 11
165.6787444646329
 21
38.792005854806959
 31
0.0
  0
LINE
  5
1598
  8
TITLE
 10
166.14890766670791
 20
38.82574469365283
 30
0.0
 11
166.19007617650959
 21
38.866913203454779
 31
0.0
  0
LINE
  5
1599
  8
TITLE
 10
166.14890766670791
 20
38.738459821005847
 30
0.0
 11
166.27736104915681
 21
38.866913203454779
 31
0.0
  0
LINE
  5
159A
  8
TITLE
 10
165.47473878941111
 20
38.762569924883302
 30
0.0
 11
165.6787444646329
 21
38.966575600101081
 31
0.0
  0
LINE
  5
159B
  8
TITLE
 10
165.00718737052699
 20
37.771309270119687
 30
0.0
 11
165.50099165564399
 21
38.265113555233128
 31
0.0
  0
LINE
  5
159C
  8
TITLE
 10
165.09447224317449
 20
37.771309270119687
 30
0.0
 11
165.50099165564399
 21
38.177828682585712
 31
0.0
  0
LINE
  5
159D
  8
TITLE
 10
164.91990249788
 20
37.771309270119687
 30
0.0
 11
165.49379028419159
 21
38.34519705643126
 31
0.0
  0
LINE
  5
159E
  8
TITLE
 10
165.18175711582131
 20
37.771309270119687
 30
0.0
 11
165.50099165564399
 21
38.090543809941899
 31
0.0
  0
LINE
  5
159F
  8
TITLE
 10
165.26904198846901
 20
37.771309270119687
 30
0.0
 11
165.50099165564399
 21
38.003258937294618
 31
0.0
  0
LINE
  5
15A0
  8
TITLE
 10
165.3563268611089
 20
37.771309270119687
 30
0.0
 11
165.50099165564399
 21
37.915974064647749
 31
0.0
  0
LINE
  5
15A1
  8
TITLE
 10
165.44361173375569
 20
37.771309270119687
 30
0.0
 11
165.50099165564399
 21
37.828689192000482
 31
0.0
  0
LINE
  5
15A2
  8
TITLE
 10
166.14890766670791
 20
38.476605203068061
 30
0.0
 11
166.53921566709809
 21
38.866913203454779
 31
0.0
  0
LINE
  5
15A3
  8
TITLE
 10
166.14890766670791
 20
38.389320330420759
 30
0.0
 11
166.62650053973809
 21
38.866913203454779
 31
0.0
  0
LINE
  5
15A4
  8
TITLE
 10
166.14890766670791
 20
38.302035457777301
 30
0.0
 11
166.71378541238531
 21
38.866913203454779
 31
0.0
  0
LINE
  5
15A5
  8
TITLE
 10
166.14890766670791
 20
38.563890075711441
 30
0.0
 11
166.4519307944509
 21
38.866913203454779
 31
0.0
  0
LINE
  5
15A6
  8
TITLE
 10
166.14890766670791
 20
38.651174948358573
 30
0.0
 11
166.36464592180371
 21
38.866913203454779
 31
0.0
  0
LINE
  5
15A7
  8
TITLE
 10
166.21012421571569
 20
38.18868226149106
 30
0.0
 11
167.7160621819707
 21
39.694620227746263
 31
0.0
  0
LINE
  5
15A8
  8
TITLE
 10
166.29740908836271
 20
38.18868226149106
 30
0.0
 11
167.7160621819707
 21
39.607335355098812
 31
0.0
  0
LINE
  5
15A9
  8
TITLE
 10
166.38469396100999
 20
38.188682261487443
 30
0.0
 11
167.7160621819707
 21
39.520050482451659
 31
0.0
  0
LINE
  5
15AA
  8
TITLE
 10
166.47197883365709
 20
38.188682261487443
 30
0.0
 11
167.7160621819707
 21
39.432765609804363
 31
0.0
  0
LINE
  5
15AB
  8
TITLE
 10
166.55926370629729
 20
38.188682261487443
 30
0.0
 11
167.7160621819707
 21
39.34548073715753
 31
0.0
  0
LINE
  5
15AC
  8
TITLE
 10
166.64654857894459
 20
38.188682261487443
 30
0.0
 11
167.7160621819707
 21
39.25819586451022
 31
0.0
  0
LINE
  5
15AD
  8
TITLE
 10
166.73383345159169
 20
38.188682261487443
 30
0.0
 11
167.7160621819707
 21
39.170910991863217
 31
0.0
  0
LINE
  5
15AE
  8
TITLE
 10
166.14890766670791
 20
38.214750585130112
 30
0.0
 11
166.80107028503241
 21
38.866913203454779
 31
0.0
  0
LINE
  5
15AF
  8
TITLE
 10
166.880246378229
 20
35.716549008728791
 30
0.0
 11
167.7160621819707
 21
36.552364812469783
 31
0.0
  0
LINE
  5
15B0
  8
TITLE
 10
166.880246378229
 20
35.629264136081481
 30
0.0
 11
167.7160621819707
 21
36.465079939822793
 31
0.0
  0
LINE
  5
15B1
  8
TITLE
 10
166.880246378229
 20
35.541979263434648
 30
0.0
 11
167.7160621819707
 21
36.377795067175619
 31
0.0
  0
LINE
  5
15B2
  8
TITLE
 10
166.880246378229
 20
35.454694390787218
 30
0.0
 11
167.7160621819707
 21
36.290510194532153
 31
0.0
  0
LINE
  5
15B3
  8
TITLE
 10
166.880246378229
 20
35.367409518143873
 30
0.0
 11
167.7160621819707
 21
36.203225321884851
 31
0.0
  0
LINE
  5
15B4
  8
TITLE
 10
166.880246378229
 20
35.280124645496443
 30
0.0
 11
167.7160621819707
 21
36.115940449241769
 31
0.0
  0
LINE
  5
15B5
  8
TITLE
 10
166.880246378229
 20
35.192839772849283
 30
0.0
 11
167.7160621819707
 21
36.028655576594211
 31
0.0
  0
LINE
  5
15B6
  8
TITLE
 10
166.880246378229
 20
35.978403626670229
 30
0.0
 11
167.7160621819707
 21
36.814219430411207
 31
0.0
  0
LINE
  5
15B7
  8
TITLE
 10
166.880246378229
 20
35.891118754023239
 30
0.0
 11
167.7160621819707
 21
36.726934557764217
 31
0.0
  0
LINE
  5
15B8
  8
TITLE
 10
166.880246378229
 20
35.803833881376093
 30
0.0
 11
167.7160621819707
 21
36.63964968511705
 31
0.0
  0
LINE
  5
15B9
  8
TITLE
 10
166.880246378229
 20
34.843700282264237
 30
0.0
 11
167.7160621819707
 21
35.679516086005812
 31
0.0
  0
LINE
  5
15BA
  8
TITLE
 10
166.880246378229
 20
34.756415409617077
 30
0.0
 11
167.7160621819707
 21
35.592231213358382
 31
0.0
  0
LINE
  5
15BB
  8
TITLE
 10
166.880246378229
 20
34.669130536970101
 30
0.0
 11
167.7160621819707
 21
35.504946340711207
 31
0.0
  0
LINE
  5
15BC
  8
TITLE
 10
166.880246378229
 20
34.581845664322799
 30
0.0
 11
167.7160621819707
 21
35.417661468067692
 31
0.0
  0
LINE
  5
15BD
  8
TITLE
 10
166.880246378229
 20
34.494560791675639
 30
0.0
 11
167.7160621819707
 21
35.33037659542083
 31
0.0
  0
LINE
  5
15BE
  8
TITLE
 10
166.880246378229
 20
34.407275919032159
 30
0.0
 11
167.7160621819707
 21
35.243091722773727
 31
0.0
  0
LINE
  5
15BF
  8
TITLE
 10
166.880246378229
 20
34.319991046384871
 30
0.0
 11
167.7160621819707
 21
35.155806850130197
 31
0.0
  0
LINE
  5
15C0
  8
TITLE
 10
166.938204568576
 20
34.290664364088187
 30
0.0
 11
167.7160621819707
 21
35.068521977482909
 31
0.0
  0
LINE
  5
15C1
  8
TITLE
 10
167.0254894412235
 20
34.290664364088187
 30
0.0
 11
167.7160621819707
 21
34.981237104835607
 31
0.0
  0
LINE
  5
15C2
  8
TITLE
 10
167.11277431387009
 20
34.290664364088187
 30
0.0
 11
167.7160621819707
 21
34.893952232188383
 31
0.0
  0
LINE
  5
15C3
  8
TITLE
 10
167.20005918651731
 20
34.290664364088187
 30
0.0
 11
167.7160621819707
 21
34.806667359541478
 31
0.0
  0
LINE
  5
15C4
  8
TITLE
 10
167.28734405916501
 20
34.290664364088187
 30
0.0
 11
167.7160621819707
 21
34.719382486894027
 31
0.0
  0
LINE
  5
15C5
  8
TITLE
 10
167.3746289318118
 20
34.290664364088187
 30
0.0
 11
167.7160621819707
 21
34.63209761424681
 31
0.0
  0
LINE
  5
15C6
  8
TITLE
 10
167.4619138044589
 20
34.290664364088187
 30
0.0
 11
167.7160621819707
 21
34.544812741599912
 31
0.0
  0
LINE
  5
15C7
  8
TITLE
 10
167.5491986771062
 20
34.290664364088187
 30
0.0
 11
167.7160621819707
 21
34.45752786895612
 31
0.0
  0
LINE
  5
15C8
  8
TITLE
 10
167.63648354975331
 20
34.290664364088187
 30
0.0
 11
167.7160621819707
 21
34.370242996309408
 31
0.0
  0
LINE
  5
15C9
  8
TITLE
 10
166.880246378229
 20
35.10555490020581
 30
0.0
 11
167.7160621819707
 21
35.941370703947172
 31
0.0
  0
LINE
  5
15CA
  8
TITLE
 10
166.880246378229
 20
35.018270027558628
 30
0.0
 11
167.7160621819707
 21
35.85408583129994
 31
0.0
  0
LINE
  5
15CB
  8
TITLE
 10
166.880246378229
 20
34.930985154911802
 30
0.0
 11
167.7160621819707
 21
35.766800958652659
 31
0.0
  0
LINE
  5
15CC
  8
TITLE
 10
167.75207853396111
 20
36.850235782398528
 30
0.0
 11
168.1862085132
 21
37.28436576164097
 31
0.0
  0
LINE
  5
15CD
  8
TITLE
 10
167.80073655151409
 20
36.811608927311198
 30
0.0
 11
168.1862085132
 21
37.197080888993852
 31
0.0
  0
LINE
  5
15CE
  8
TITLE
 10
167.8503588245477
 20
36.773946327693892
 30
0.0
 11
168.1862085132
 21
37.109796016346849
 31
0.0
  0
LINE
  5
15CF
  8
TITLE
 10
166.880246378229
 20
36.152973371960869
 30
0.0
 11
168.1862085132
 21
37.458935506931908
 31
0.0
  0
LINE
  5
15D0
  8
TITLE
 10
166.880246378229
 20
36.065688499317382
 30
0.0
 11
168.1862085132
 21
37.371650634284492
 31
0.0
  0
LINE
  5
15D1
  8
TITLE
 10
167.90095402853569
 20
36.73725665903509
 30
0.0
 11
168.1862085132
 21
37.02251114369971
 31
0.0
  0
LINE
  5
15D2
  8
TITLE
 10
167.95253238190671
 20
36.701550139762901
 30
0.0
 11
168.1862085132
 21
36.935226271052287
 31
0.0
  0
LINE
  5
15D3
  8
TITLE
 10
168.00510572374489
 20
36.666838608949767
 30
0.0
 11
168.1862085132
 21
36.847941398405133
 31
0.0
  0
LINE
  5
15D4
  8
TITLE
 10
168.0586876060508
 20
36.633135618608691
 30
0.0
 11
168.1862085132
 21
36.760656525758279
 31
0.0
  0
LINE
  5
15D5
  8
TITLE
 10
168.11329340231919
 20
36.600456542236842
 30
0.0
 11
168.1862085132
 21
36.673371653110841
 31
0.0
  0
LINE
  5
15D6
  8
TITLE
 10
168.1689404345359
 20
36.568818701806201
 30
0.0
 11
168.1862085132
 21
36.586086780467319
 31
0.0
  0
LINE
  5
15D7
  8
TITLE
 10
164.94493325921621
 20
35.788787960585829
 30
0.0
 11
165.44056352514571
 21
36.284418226511491
 31
0.0
  0
LINE
  5
15D8
  8
TITLE
 10
165.0322181318636
 20
35.788787960585829
 30
0.0
 11
165.52784839778539
 21
36.284418226511491
 31
0.0
  0
LINE
  5
15D9
  8
TITLE
 10
165.1195030045107
 20
35.788787960585829
 30
0.0
 11
165.61513327043241
 21
36.284418226511491
 31
0.0
  0
LINE
  5
15DA
  8
TITLE
 10
165.20678787715781
 20
35.788787960585829
 30
0.0
 11
165.6787444646329
 21
36.26074454806075
 31
0.0
  0
LINE
  5
15DB
  8
TITLE
 10
165.29407274980491
 20
35.788787960585829
 30
0.0
 11
165.6787444646329
 21
36.173459675413767
 31
0.0
  0
LINE
  5
15DC
  8
TITLE
 10
165.3813576224521
 20
35.788787960585829
 30
0.0
 11
165.6787444646329
 21
36.0861748027665
 31
0.0
  0
LINE
  5
15DD
  8
TITLE
 10
165.46864249509929
 20
35.788787960585829
 30
0.0
 11
165.6787444646329
 21
35.998889930119176
 31
0.0
  0
LINE
  5
15DE
  8
TITLE
 10
164.92133392699111
 20
34.368630666013232
 30
0.0
 11
165.532831119923
 21
34.980127858948741
 31
0.0
  0
LINE
  5
15DF
  8
TITLE
 10
164.99182322103511
 20
34.351835087417463
 30
0.0
 11
165.62011599256971
 21
34.980127858948741
 31
0.0
  0
LINE
  5
15E0
  8
TITLE
 10
165.06405999876139
 20
34.336786992492449
 30
0.0
 11
165.6787444646329
 21
34.951471458360643
 31
0.0
  0
LINE
  5
15E1
  8
TITLE
 10
165.13814615752321
 20
34.32358827861087
 30
0.0
 11
165.6787444646329
 21
34.864186585713213
 31
0.0
  0
LINE
  5
15E2
  8
TITLE
 10
165.21419909690059
 20
34.312356345341712
 30
0.0
 11
165.6787444646329
 21
34.776901713070018
 31
0.0
  0
LINE
  5
15E3
  8
TITLE
 10
165.29235500095959
 20
34.303227376756702
 30
0.0
 11
165.6787444646329
 21
34.689616840422723
 31
0.0
  0
LINE
  5
15E4
  8
TITLE
 10
165.37277310049609
 20
34.296360603642697
 30
0.0
 11
165.6787444646329
 21
34.6023319677792
 31
0.0
  0
LINE
  5
15E5
  8
TITLE
 10
165.45564129791759
 20
34.29194392841675
 30
0.0
 11
165.6787444646329
 21
34.515047095132211
 31
0.0
  0
LINE
  5
15E6
  8
TITLE
 10
165.5416466062361
 20
34.290664364088187
 30
0.0
 11
165.6787444646329
 21
34.427762222485242
 31
0.0
  0
LINE
  5
15E7
  8
TITLE
 10
165.6289314788832
 20
34.290664364088187
 30
0.0
 11
165.6787444646329
 21
34.340477349837798
 31
0.0
  0
LINE
  5
15E8
  8
TITLE
 10
165.55592736774659
 20
35.788787960585829
 30
0.0
 11
165.6787444646329
 21
35.911605057472222
 31
0.0
  0
LINE
  5
15E9
  8
TITLE
 10
165.64321224039381
 20
35.788787960585829
 30
0.0
 11
165.6787444646329
 21
35.824320184824927
 31
0.0
  0
LINE
  5
15EA
  8
TITLE
 10
164.9499745566859
 20
36.75396285716694
 30
0.0
 11
165.4716907037168
 21
37.275679004194131
 31
0.0
  0
LINE
  5
15EB
  8
TITLE
 10
165.03725942933281
 20
36.75396285716694
 30
0.0
 11
165.50099165564399
 21
37.217695083474112
 31
0.0
  0
LINE
  5
15EC
  8
TITLE
 10
165.12454430198019
 20
36.75396285716694
 30
0.0
 11
165.50099165564399
 21
37.130410210830178
 31
0.0
  0
LINE
  5
15ED
  8
TITLE
 10
165.2118291746275
 20
36.75396285716694
 30
0.0
 11
165.50099165564399
 21
37.043125338183231
 31
0.0
  0
LINE
  5
15EE
  8
TITLE
 10
165.2991140472746
 20
36.75396285716694
 30
0.0
 11
165.50099165564399
 21
36.955840465536049
 31
0.0
  0
LINE
  5
15EF
  8
TITLE
 10
165.38639891992159
 20
36.75396285716694
 30
0.0
 11
165.50099165564399
 21
36.868555592888761
 31
0.0
  0
LINE
  5
15F0
  8
TITLE
 10
165.47368379256881
 20
36.75396285716694
 30
0.0
 11
165.50099165564399
 21
36.781270720241913
 31
0.0
  0
LINE
  5
15F1
  8
TITLE
 10
166.14890766670791
 20
36.643622877492056
 30
0.0
 11
166.24534904758761
 21
36.740064258368719
 31
0.0
  0
LINE
  5
15F2
  8
TITLE
 10
166.14890766670791
 20
35.770774151027602
 30
0.0
 11
167.98040322839461
 21
37.602269712715113
 31
0.0
  0
LINE
  5
15F3
  8
TITLE
 10
166.14890766670791
 20
35.683489278380762
 30
0.0
 11
168.03230855200181
 21
37.566890163671218
 31
0.0
  0
LINE
  5
15F4
  8
TITLE
 10
166.31078574890671
 20
35.7580824879362
 30
0.0
 11
168.08797630903371
 21
37.535273048055728
 31
0.0
  0
LINE
  5
15F5
  8
TITLE
 10
166.55378948934501
 20
35.913801355720253
 30
0.0
 11
168.1476744427795
 21
37.507686309158309
 31
0.0
  0
LINE
  5
15F6
  8
TITLE
 10
166.14890766670791
 20
35.945343896318413
 30
0.0
 11
167.8872769633924
 21
37.683713193003229
 31
0.0
  0
LINE
  5
15F7
  8
TITLE
 10
166.14890766670791
 20
35.85805902367126
 30
0.0
 11
167.93208994968239
 21
37.641241306653413
 31
0.0
  0
LINE
  5
15F8
  8
TITLE
 10
166.6484898449196
 20
37.143205055700292
 30
0.0
 11
168.1862085132
 21
38.680923723981159
 31
0.0
  0
LINE
  5
15F9
  8
TITLE
 10
166.14890766670791
 20
36.556338004845038
 30
0.0
 11
167.7160621819707
 21
38.123492520108279
 31
0.0
  0
LINE
  5
15FA
  8
TITLE
 10
166.14890766670791
 20
36.469053132201239
 30
0.0
 11
167.7160621819707
 21
38.036207647460849
 31
0.0
  0
LINE
  5
15FB
  8
TITLE
 10
166.14890766670791
 20
36.381768259553979
 30
0.0
 11
167.7174250928918
 21
37.950285685731529
 31
0.0
  0
LINE
  5
15FC
  8
TITLE
 10
166.14890766670791
 20
36.294483386906968
 30
0.0
 11
167.74361771013309
 21
37.889193430325591
 31
0.0
  0
LINE
  5
15FD
  8
TITLE
 10
166.14890766670791
 20
36.207198514259851
 30
0.0
 11
167.77395436095179
 21
37.832245208504183
 31
0.0
  0
LINE
  5
15FE
  8
TITLE
 10
166.14890766670791
 20
36.119913641612811
 30
0.0
 11
167.8081289049378
 21
37.779134879839162
 31
0.0
  0
LINE
  5
15FF
  8
TITLE
 10
166.14890766670791
 20
36.032628768965722
 30
0.0
 11
167.84594176974599
 21
37.72966287200795
 31
0.0
  0
LINE
  5
1600
  8
TITLE
 10
168.42128167881481
 20
37.432154054604801
 30
0.0
 11
168.76043689432581
 21
37.771309270119687
 31
0.0
  0
LINE
  5
1601
  8
TITLE
 10
168.42128167881481
 20
37.344869181961251
 30
0.0
 11
168.84772176697311
 21
37.771309270119687
 31
0.0
  0
LINE
  5
1602
  8
TITLE
 10
168.42128167881481
 20
37.257584309314161
 30
0.0
 11
168.9350066396205
 21
37.771309270119687
 31
0.0
  0
LINE
  5
1603
  8
TITLE
 10
168.42128167881481
 20
37.519438927252089
 30
0.0
 11
168.67315202167899
 21
37.771309270119687
 31
0.0
  0
LINE
  5
1604
  8
TITLE
 10
168.42128167881481
 20
37.694008672542743
 30
0.0
 11
168.4985822763847
 21
37.771309270119687
 31
0.0
  0
LINE
  5
1605
  8
TITLE
 10
168.42128167881481
 20
37.606723799899541
 30
0.0
 11
168.58586714903171
 21
37.771309270119687
 31
0.0
  0
LINE
  5
1606
  8
TITLE
 10
166.8712511458296
 20
37.62782097455586
 30
0.0
 11
168.11034337473239
 21
38.866913203454779
 31
0.0
  0
LINE
  5
1607
  8
TITLE
 10
166.8317516961751
 20
37.501036652250342
 30
0.0
 11
168.1862085132
 21
38.855493469275288
 31
0.0
  0
LINE
  5
1608
  8
TITLE
 10
166.768882348739
 20
37.350882432170799
 30
0.0
 11
168.1862085132
 21
38.768208596628277
 31
0.0
  0
LINE
  5
1609
  8
TITLE
 10
172.2947538600435
 20
38.948934674385441
 30
0.0
 11
172.47359021679659
 21
39.12777103113114
 31
0.0
  0
LINE
  5
160A
  8
TITLE
 10
172.2947538600435
 20
38.861649801738253
 30
0.0
 11
172.56087508943659
 21
39.12777103113114
 31
0.0
  0
LINE
  5
160B
  8
TITLE
 10
172.2947538600435
 20
38.774364929091298
 30
0.0
 11
172.64815996208389
 21
39.12777103113114
 31
0.0
  0
LINE
  5
160C
  8
TITLE
 10
172.2947538600435
 20
38.425225438502721
 30
0.0
 11
172.99729945267231
 21
39.12777103113114
 31
0.0
  0
LINE
  5
160D
  8
TITLE
 10
172.38026762516981
 20
38.423454330981961
 30
0.0
 11
173.0845843253195
 21
39.12777103113114
 31
0.0
  0
LINE
  5
160E
  8
TITLE
 10
170.93956907720559
 20
38.553883490655153
 30
0.0
 11
171.51345686351681
 21
39.127771276966712
 31
0.0
  0
LINE
  5
160F
  8
TITLE
 10
170.85228420455829
 20
38.553883490655153
 30
0.0
 11
171.42617199086959
 21
39.127771276966712
 31
0.0
  0
LINE
  5
1610
  8
TITLE
 10
171.28870856779389
 20
38.553883490655153
 30
0.0
 11
171.84290230430369
 21
39.108077227168891
 31
0.0
  0
LINE
  5
1611
  8
TITLE
 10
171.02685394985241
 20
38.553883490655153
 30
0.0
 11
171.60074173616371
 21
39.127771276966712
 31
0.0
  0
LINE
  5
1612
  8
TITLE
 10
171.11413882249971
 20
38.553883490655153
 30
0.0
 11
171.68802660881099
 21
39.127771276966712
 31
0.0
  0
LINE
  5
1613
  8
TITLE
 10
171.2014236951469
 20
38.553883490655153
 30
0.0
 11
171.77531148145809
 21
39.127771276966712
 31
0.0
  0
LINE
  5
1614
  8
TITLE
 10
172.2947538600435
 20
38.599795183796829
 30
0.0
 11
172.82272970737799
 21
39.12777103113114
 31
0.0
  0
LINE
  5
1615
  8
TITLE
 10
172.2947538600435
 20
38.512510311149718
 30
0.0
 11
172.91001458002489
 21
39.12777103113114
 31
0.0
  0
LINE
  5
1616
  8
TITLE
 10
172.2947538600435
 20
38.687080056444273
 30
0.0
 11
172.7354448347308
 21
39.12777103113114
 31
0.0
  0
LINE
  5
1617
  8
TITLE
 10
171.72513293102239
 20
38.553883490655153
 30
0.0
 11
171.84290230430369
 21
38.671652863940118
 31
0.0
  0
LINE
  5
1618
  8
TITLE
 10
171.8124178036696
 20
38.553883490655153
 30
0.0
 11
171.84290230430369
 21
38.584367991292879
 31
0.0
  0
LINE
  5
1619
  8
TITLE
 10
171.55056318572829
 20
38.553883490655153
 30
0.0
 11
171.84290230430369
 21
38.846222609234239
 31
0.0
  0
LINE
  5
161A
  8
TITLE
 10
171.6378480583754
 20
38.553883490655153
 30
0.0
 11
171.84290230430369
 21
38.758937736587001
 31
0.0
  0
LINE
  5
161B
  8
TITLE
 10
171.37599344044099
 20
38.553883490655153
 30
0.0
 11
171.84290230430369
 21
39.020792354525362
 31
0.0
  0
LINE
  5
161C
  8
TITLE
 10
171.46327831308099
 20
38.553883490655153
 30
0.0
 11
171.84290230430369
 21
38.933507481878081
 31
0.0
  0
LINE
  5
161D
  8
TITLE
 10
172.2947538600435
 20
39.123504419676472
 30
0.0
 11
172.29902047150219
 21
39.12777103113114
 31
0.0
  0
LINE
  5
161E
  8
TITLE
 10
172.2947538600435
 20
39.036219547033006
 30
0.0
 11
172.3863053441496
 21
39.12777103113114
 31
0.0
  0
LINE
  5
161F
  8
TITLE
 10
170.8626113497408
 20
35.421955220565913
 30
0.0
 11
171.46565652180459
 21
36.02500039262906
 31
0.0
  0
LINE
  5
1620
  8
TITLE
 10
170.9000852463958
 20
35.37214424456981
 30
0.0
 11
171.49938280357259
 21
35.971441801750068
 31
0.0
  0
LINE
  5
1621
  8
TITLE
 10
170.938441920581
 20
35.323216046111227
 30
0.0
 11
171.53400542069971
 21
35.918779546230247
 31
0.0
  0
LINE
  5
1622
  8
TITLE
 10
170.97767502278239
 20
35.275164275665887
 30
0.0
 11
171.5695135565814
 21
35.867002809471749
 31
0.0
  0
LINE
  5
1623
  8
TITLE
 10
171.2312581249497
 20
35.005038141950109
 30
0.0
 11
171.8006982783856
 21
35.57447829538917
 31
0.0
  0
LINE
  5
1624
  8
TITLE
 10
171.27653760769459
 20
34.963032752054467
 30
0.0
 11
171.8421973870102
 21
35.528692531370211
 31
0.0
  0
LINE
  5
1625
  8
TITLE
 10
171.41756898201169
 20
34.842209508430713
 30
0.0
 11
171.84290230430369
 21
35.267542830726057
 31
0.0
  0
LINE
  5
1626
  8
TITLE
 10
171.32268044736821
 20
34.921890719081183
 30
0.0
 11
171.84290230430369
 21
35.442112576020477
 31
0.0
  0
LINE
  5
1627
  8
TITLE
 10
171.3696895804874
 20
34.88161497955344
 30
0.0
 11
171.84290230430369
 21
35.354827703373189
 31
0.0
  0
LINE
  5
1628
  8
TITLE
 10
171.01777930280281
 20
35.227983683042439
 30
0.0
 11
171.6058976053564
 21
35.816101985592432
 31
0.0
  0
LINE
  5
1629
  8
TITLE
 10
171.0587505780758
 20
35.18167008566472
 30
0.0
 11
171.64314911252211
 21
35.766068620114702
 31
0.0
  0
LINE
  5
162A
  8
TITLE
 10
171.10058570864501
 20
35.1362203435868
 30
0.0
 11
171.6812607238839
 21
35.716895358825766
 31
0.0
  0
LINE
  5
162B
  8
TITLE
 10
171.14328257862141
 20
35.091632340923709
 30
0.0
 11
171.72022614195561
 21
35.668575904249899
 31
0.0
  0
LINE
  5
162C
  8
TITLE
 10
171.18684008375331
 20
35.047904973407753
 30
0.0
 11
171.76004008932941
 21
35.621104978976852
 31
0.0
  0
LINE
  5
162D
  8
TITLE
 10
172.2947538600435
 20
34.759260787354158
 30
0.0
 11
172.68730457385689
 21
35.151811501164239
 31
0.0
  0
LINE
  5
162E
  8
TITLE
 10
172.2947538600435
 20
34.671975914707197
 30
0.0
 11
172.77988720518059
 21
35.157109259844063
 31
0.0
  0
LINE
  5
162F
  8
TITLE
 10
172.2947538600435
 20
34.58469104206003
 30
0.0
 11
172.87310449274881
 21
35.16304167476153
 31
0.0
  0
LINE
  5
1630
  8
TITLE
 10
172.2947538600435
 20
34.49740616941655
 30
0.0
 11
172.9669704731638
 21
35.169622782536791
 31
0.0
  0
LINE
  5
1631
  8
TITLE
 10
172.2947538600435
 20
34.410121296769262
 30
0.0
 11
173.0614997920751
 21
35.17686722879391
 31
0.0
  0
LINE
  5
1632
  8
TITLE
 10
172.2947538600435
 20
34.84654565999783
 30
0.0
 11
172.59534313633151
 21
35.147134936285887
 31
0.0
  0
LINE
  5
1633
  8
TITLE
 10
171.466323689072
 20
34.803679342843701
 30
0.0
 11
171.84290230430369
 21
35.180257958082692
 31
0.0
  0
LINE
  5
1634
  8
TITLE
 10
171.515959831309
 20
34.766030612433269
 30
0.0
 11
171.84290230430369
 21
35.092973085435368
 31
0.0
  0
LINE
  5
1635
  8
TITLE
 10
171.5664846683537
 20
34.729270576834438
 30
0.0
 11
171.84290230430369
 21
35.005688212788272
 31
0.0
  0
LINE
  5
1636
  8
TITLE
 10
171.67023539434811
 20
34.65845155753447
 30
0.0
 11
171.84290230430369
 21
34.831118467494129
 31
0.0
  0
LINE
  5
1637
  8
TITLE
 10
171.7234819009966
 20
34.624413191532959
 30
0.0
 11
171.84290230430369
 21
34.743833594846834
 31
0.0
  0
LINE
  5
1638
  8
TITLE
 10
171.83277887695081
 20
34.55914042219581
 30
0.0
 11
171.84290230430369
 21
34.569263849552428
 31
0.0
  0
LINE
  5
1639
  8
TITLE
 10
171.77765847314879
 20
34.591304891044452
 30
0.0
 11
171.84290230430369
 21
34.656548722199531
 31
0.0
  0
LINE
  5
163A
  8
TITLE
 10
171.61790663494361
 20
34.693407670773937
 30
0.0
 11
171.84290230430369
 21
34.918403340141111
 31
0.0
  0
LINE
  5
163B
  8
TITLE
 10
172.2947538600435
 20
35.108400277939268
 30
0.0
 11
172.323059312613
 21
35.13670573050932
 31
0.0
  0
LINE
  5
163C
  8
TITLE
 10
172.2947538600435
 20
35.021115405292228
 30
0.0
 11
172.41323267235191
 21
35.139594217600568
 31
0.0
  0
LINE
  5
163D
  8
TITLE
 10
172.2947538600435
 20
34.933830532644983
 30
0.0
 11
172.5039899720459
 21
35.143066644650858
 31
0.0
  0
LINE
  5
163E
  8
TITLE
 10
171.30271876510491
 20
37.171335725622228
 30
0.0
 11
171.84290230430369
 21
37.711519264828389
 31
0.0
  0
LINE
  5
163F
  8
TITLE
 10
171.39000363774491
 20
37.171335725622228
 30
0.0
 11
171.84290230430369
 21
37.624234392181577
 31
0.0
  0
LINE
  5
1640
  8
TITLE
 10
172.45146938162509
 20
37.534522488326047
 30
0.0
 11
172.63608440120851
 21
37.719137507916329
 31
0.0
  0
LINE
  5
1641
  8
TITLE
 10
172.45146938162509
 20
37.44723761567878
 30
0.0
 11
172.72336927385581
 21
37.719137507916329
 31
0.0
  0
LINE
  5
1642
  8
TITLE
 10
172.45146938162509
 20
37.359952743031492
 30
0.0
 11
172.8106541465028
 21
37.719137507916329
 31
0.0
  0
LINE
  5
1643
  8
TITLE
 10
172.45146938162509
 20
37.272667870387849
 30
0.0
 11
172.89793901914999
 21
37.719137507916329
 31
0.0
  0
LINE
  5
1644
  8
TITLE
 10
172.45146938162509
 20
37.185382997741158
 30
0.0
 11
172.98522389179709
 21
37.719137507916329
 31
0.0
  0
LINE
  5
1645
  8
TITLE
 10
172.45146938162509
 20
37.098098125093721
 30
0.0
 11
173.07250876444451
 21
37.719137507916329
 31
0.0
  0
LINE
  5
1646
  8
TITLE
 10
171.47728851039199
 20
37.171335725622228
 30
0.0
 11
171.84290230430369
 21
37.536949519534282
 31
0.0
  0
LINE
  5
1647
  8
TITLE
 10
171.564573383039
 20
37.171335725622228
 30
0.0
 11
171.84290230430369
 21
37.449664646886951
 31
0.0
  0
LINE
  5
1648
  8
TITLE
 10
171.65185825568619
 20
37.171335725622228
 30
0.0
 11
171.84290230430369
 21
37.362379774240132
 31
0.0
  0
LINE
  5
1649
  8
TITLE
 10
171.8264280009806
 20
37.171335725622228
 30
0.0
 11
171.84290230430369
 21
37.18781002894935
 31
0.0
  0
LINE
  5
164A
  8
TITLE
 10
171.73914312833341
 20
37.171335725622228
 30
0.0
 11
171.84290230430369
 21
37.27509490159283
 31
0.0
  0
LINE
  5
164B
  8
TITLE
 10
172.45146938162509
 20
37.709092233620211
 30
0.0
 11
172.46151465592141
 21
37.719137507916329
 31
0.0
  0
LINE
  5
164C
  8
TITLE
 10
172.45146938162509
 20
37.621807360973207
 30
0.0
 11
172.54879952856879
 21
37.719137507916329
 31
0.0
  0
LINE
  5
164D
  8
TITLE
 10
171.2154338924577
 20
37.171335725622228
 30
0.0
 11
171.81540743694779
 21
37.771309270119687
 31
0.0
  0
LINE
  5
164E
  8
TITLE
 10
171.0408641471634
 20
37.171335725622228
 30
0.0
 11
171.64083769166061
 21
37.771309270119687
 31
0.0
  0
LINE
  5
164F
  8
TITLE
 10
171.12814901981039
 20
37.171335725622228
 30
0.0
 11
171.7281225643078
 21
37.771309270119687
 31
0.0
  0
LINE
  5
1650
  8
TITLE
 10
169.75336302846321
 20
38.065956423079349
 30
0.0
 11
170.8151778823468
 21
39.127771276966712
 31
0.0
  0
LINE
  5
1651
  8
TITLE
 10
169.75336302846321
 20
38.502380786315221
 30
0.0
 11
170.56305938401769
 21
39.31207714186985
 31
0.0
  0
LINE
  5
1652
  8
TITLE
 10
169.75336302846321
 20
38.415095913668218
 30
0.0
 11
170.56305938401769
 21
39.224792269222696
 31
0.0
  0
LINE
  5
1653
  8
TITLE
 10
169.75336302846321
 20
38.327811041021249
 30
0.0
 11
170.56305938401769
 21
39.137507396575728
 31
0.0
  0
LINE
  5
1654
  8
TITLE
 10
169.75336302846321
 20
38.240526168374082
 30
0.0
 11
170.64060813705271
 21
39.127771276966712
 31
0.0
  0
LINE
  5
1655
  8
TITLE
 10
169.75336302846321
 20
38.153241295726929
 30
0.0
 11
170.7278930096999
 21
39.127771276966712
 31
0.0
  0
LINE
  5
1656
  8
TITLE
 10
169.1938716242766
 20
38.553883490655153
 30
0.0
 11
170.49527638497599
 21
39.855288251358168
 31
0.0
  0
LINE
  5
1657
  8
TITLE
 10
169.28115649692401
 20
38.553883490655153
 30
0.0
 11
170.56305938401769
 21
39.835786377745862
 31
0.0
  0
LINE
  5
1658
  8
TITLE
 10
169.3684413695708
 20
38.553883490655153
 30
0.0
 11
170.56305938401769
 21
39.74850150510207
 31
0.0
  0
LINE
  5
1659
  8
TITLE
 10
169.45572624221791
 20
38.553883490655153
 30
0.0
 11
170.56305938401769
 21
39.661216632454781
 31
0.0
  0
LINE
  5
165A
  8
TITLE
 10
169.54301111486529
 20
38.553883490655153
 30
0.0
 11
170.56305938401769
 21
39.573931759807927
 31
0.0
  0
LINE
  5
165B
  8
TITLE
 10
169.63029598750529
 20
38.553883490655153
 30
0.0
 11
170.56305938401769
 21
39.486646887164149
 31
0.0
  0
LINE
  5
165C
  8
TITLE
 10
169.71758086015259
 20
38.553883490655153
 30
0.0
 11
170.56305938401769
 21
39.399362014516853
 31
0.0
  0
LINE
  5
165D
  8
TITLE
 10
169.75336302846321
 20
39.637084130721249
 30
0.0
 11
169.9715671491002
 21
39.855288251358168
 31
0.0
  0
LINE
  5
165E
  8
TITLE
 10
169.75336302846321
 20
39.549799258074067
 30
0.0
 11
170.05885202174761
 21
39.855288251358168
 31
0.0
  0
LINE
  5
165F
  8
TITLE
 10
169.75336302846321
 20
39.462514385426957
 30
0.0
 11
170.14613689439469
 21
39.855288251358168
 31
0.0
  0
LINE
  5
1660
  8
TITLE
 10
169.75336302846321
 20
39.375229512779811
 30
0.0
 11
170.23342176704151
 21
39.855288251358168
 31
0.0
  0
LINE
  5
1661
  8
TITLE
 10
169.75336302846321
 20
39.28794464013297
 30
0.0
 11
170.32070663968909
 21
39.855288251358168
 31
0.0
  0
LINE
  5
1662
  8
TITLE
 10
169.75336302846321
 20
39.200659767485668
 30
0.0
 11
170.4079915123362
 21
39.855288251358168
 31
0.0
  0
LINE
  5
1663
  8
TITLE
 10
169.75336302846321
 20
39.811653876012009
 30
0.0
 11
169.79699740380599
 21
39.855288251358168
 31
0.0
  0
LINE
  5
1664
  8
TITLE
 10
169.75336302846321
 20
39.724369003365183
 30
0.0
 11
169.88428227645329
 21
39.855288251358168
 31
0.0
  0
LINE
  5
1665
  8
TITLE
 10
169.75336302846321
 20
34.836416135163759
 30
0.0
 11
170.56305938401769
 21
35.64611249071811
 31
0.0
  0
LINE
  5
1666
  8
TITLE
 10
169.75336302846321
 20
34.749131262516492
 30
0.0
 11
170.56305938401769
 21
35.558827618070822
 31
0.0
  0
LINE
  5
1667
  8
TITLE
 10
169.75336302846321
 20
34.661846389869211
 30
0.0
 11
170.56305938401769
 21
35.47154274542369
 31
0.0
  0
LINE
  5
1668
  8
TITLE
 10
169.75336302846321
 20
34.574561517222193
 30
0.0
 11
170.56305938401769
 21
35.38425787277653
 31
0.0
  0
LINE
  5
1669
  8
TITLE
 10
169.75336302846321
 20
34.487276644574948
 30
0.0
 11
170.56305938401769
 21
35.296973000129228
 31
0.0
  0
LINE
  5
166A
  8
TITLE
 10
169.75336302846321
 20
34.399991771931681
 30
0.0
 11
170.56305938401769
 21
35.20968812748562
 31
0.0
  0
LINE
  5
166B
  8
TITLE
 10
169.75336302846321
 20
34.312706899284272
 30
0.0
 11
170.56305938401769
 21
35.12240325483873
 31
0.0
  0
LINE
  5
166C
  8
TITLE
 10
169.81860536591091
 20
34.290664364088187
 30
0.0
 11
170.56305938401769
 21
35.035118382191492
 31
0.0
  0
LINE
  5
166D
  8
TITLE
 10
169.90589023855779
 20
34.290664364088187
 30
0.0
 11
170.56305938401769
 21
34.94783350954809
 31
0.0
  0
LINE
  5
166E
  8
TITLE
 10
169.75336302846321
 20
34.923701007811047
 30
0.0
 11
170.56305938401769
 21
35.733397363365142
 31
0.0
  0
LINE
  5
166F
  8
TITLE
 10
169.99317511120481
 20
34.290664364088187
 30
0.0
 11
170.56305938401769
 21
34.860548636901122
 31
0.0
  0
LINE
  5
1670
  8
TITLE
 10
170.08045998385191
 20
34.290664364088187
 30
0.0
 11
170.56305938401769
 21
34.773263764253826
 31
0.0
  0
LINE
  5
1671
  8
TITLE
 10
170.1677448564993
 20
34.290664364088187
 30
0.0
 11
170.56305938401769
 21
34.685978891606972
 31
0.0
  0
LINE
  5
1672
  8
TITLE
 10
170.2550297291466
 20
34.290664364088187
 30
0.0
 11
170.56305938401769
 21
34.598694018959691
 31
0.0
  0
LINE
  5
1673
  8
TITLE
 10
170.3423146017937
 20
34.290664364088187
 30
0.0
 11
170.56305938401769
 21
34.511409146311813
 31
0.0
  0
LINE
  5
1674
  8
TITLE
 10
170.42959947444081
 20
34.290664364088187
 30
0.0
 11
170.56305938401769
 21
34.424124273664958
 31
0.0
  0
LINE
  5
1675
  8
TITLE
 10
170.51688434708069
 20
34.290664364088187
 30
0.0
 11
170.56305938401769
 21
34.336839401017841
 31
0.0
  0
LINE
  5
1676
  8
TITLE
 10
169.75336302846321
 20
35.098270753101431
 30
0.0
 11
170.56305938401769
 21
35.907967108659811
 31
0.0
  0
LINE
  5
1677
  8
TITLE
 10
169.75336302846321
 20
35.010985880458058
 30
0.0
 11
170.56305938401769
 21
35.820682236012217
 31
0.0
  0
LINE
  5
1678
  8
TITLE
 10
169.20788182158751
 20
37.171335725622228
 30
0.0
 11
170.56305938401769
 21
38.526513288052698
 31
0.0
  0
LINE
  5
1679
  8
TITLE
 10
169.23370010085071
 20
36.935299386951108
 30
0.0
 11
170.56305938401769
 21
38.264658670111132
 31
0.0
  0
LINE
  5
167A
  8
TITLE
 10
169.20145970692499
 20
36.815774120378251
 30
0.0
 11
170.56305938401769
 21
38.177373797464149
 31
0.0
  0
LINE
  5
167B
  8
TITLE
 10
169.2807114586272
 20
37.156880490022218
 30
0.0
 11
170.56305938401769
 21
38.43922841540553
 31
0.0
  0
LINE
  5
167C
  8
TITLE
 10
169.25978908588871
 20
37.048673244629761
 30
0.0
 11
170.56305938401769
 21
38.351943542758292
 31
0.0
  0
LINE
  5
167D
  8
TITLE
 10
169.1616872806448
 20
36.688716821451102
 30
0.0
 11
170.56305938401769
 21
38.090088924816847
 31
0.0
  0
LINE
  5
167E
  8
TITLE
 10
169.11233770584971
 20
36.552082374001671
 30
0.0
 11
170.56305938401769
 21
38.002804052169843
 31
0.0
  0
LINE
  5
167F
  8
TITLE
 10
169.05013835564191
 20
36.402598151153981
 30
0.0
 11
170.56305938401769
 21
37.915519179526491
 31
0.0
  0
LINE
  5
1680
  8
TITLE
 10
169.03331207629321
 20
37.171335725622228
 30
0.0
 11
169.6332856207905
 21
37.771309270119687
 31
0.0
  0
LINE
  5
1681
  8
TITLE
 10
169.12059694894009
 20
37.171335725622228
 30
0.0
 11
169.7205704934378
 21
37.771309270119687
 31
0.0
  0
LINE
  5
1682
  8
TITLE
 10
169.75336302846321
 20
37.978671550435891
 30
0.0
 11
170.90246275499391
 21
39.127771276966712
 31
0.0
  0
LINE
  5
1683
  8
TITLE
 10
169.75336302846321
 20
37.891386677788716
 30
0.0
 11
170.98974762764101
 21
39.127771276966712
 31
0.0
  0
LINE
  5
1684
  8
TITLE
 10
169.75336302846321
 20
37.804101805145208
 30
0.0
 11
171.07703250028101
 21
39.127771276966712
 31
0.0
  0
LINE
  5
1685
  8
TITLE
 10
170.76499933191121
 20
38.553883490655153
 30
0.0
 11
171.3388871182228
 21
39.127771276966712
 31
0.0
  0
LINE
  5
1686
  8
TITLE
 10
170.59042958661701
 20
38.553883490655153
 30
0.0
 11
171.16431737292811
 21
39.127771276966712
 31
0.0
  0
LINE
  5
1687
  8
TITLE
 10
170.67771445926391
 20
38.553883490655153
 30
0.0
 11
171.25160224557541
 21
39.127771276966712
 31
0.0
  0
LINE
  5
1688
  8
TITLE
 10
169.75336302846321
 20
35.883834606922228
 30
0.0
 11
171.03432978502099
 21
37.164801363480251
 31
0.0
  0
LINE
  5
1689
  8
TITLE
 10
169.75336302846321
 20
35.796549734275068
 30
0.0
 11
171.04796205820909
 21
37.09114876402078
 31
0.0
  0
LINE
  5
168A
  8
TITLE
 10
169.75336302846321
 20
35.709264861627922
 30
0.0
 11
171.0630551711011
 21
37.018957004265729
 31
0.0
  0
LINE
  5
168B
  8
TITLE
 10
169.75336302846321
 20
35.621979988980797
 30
0.0
 11
171.0795448520432
 21
36.94816181256089
 31
0.0
  0
LINE
  5
168C
  8
TITLE
 10
169.75336302846321
 20
35.534695116333467
 30
0.0
 11
171.09737342765891
 21
36.878705515537042
 31
0.0
  0
LINE
  5
168D
  8
TITLE
 10
169.75336302846321
 20
35.447410243686527
 30
0.0
 11
171.1164889783667
 21
36.810536193593457
 31
0.0
  0
LINE
  5
168E
  8
TITLE
 10
169.75336302846321
 20
35.360125371039217
 30
0.0
 11
171.13684463262871
 21
36.743606975211748
 31
0.0
  0
LINE
  5
168F
  8
TITLE
 10
169.75336302846321
 20
35.272840498395851
 30
0.0
 11
171.15839797335909
 21
36.677875443295228
 31
0.0
  0
LINE
  5
1690
  8
TITLE
 10
170.6568119217585
 20
35.739865028458752
 30
0.0
 11
171.2828997317352
 21
36.365952838435639
 31
0.0
  0
LINE
  5
1691
  8
TITLE
 10
170.68878830118979
 20
35.684556535249911
 30
0.0
 11
171.31094301496421
 21
36.306711249017582
 31
0.0
  0
LINE
  5
1692
  8
TITLE
 10
170.72171140923999
 20
35.630194770646227
 30
0.0
 11
171.33997758928979
 21
36.248460950695751
 31
0.0
  0
LINE
  5
1693
  8
TITLE
 10
170.75556718291671
 20
35.576765671683113
 30
0.0
 11
171.3699835271928
 21
36.19118201595866
 31
0.0
  0
LINE
  5
1694
  8
TITLE
 10
170.79034302516391
 20
35.524256641282747
 30
0.0
 11
171.40094270567721
 21
36.134856321796128
 31
0.0
  0
LINE
  5
1695
  8
TITLE
 10
170.82602771841059
 20
35.47265646188319
 30
0.0
 11
171.4328386712312
 21
36.079467414699202
 31
0.0
  0
LINE
  5
1696
  8
TITLE
 10
169.75336302846321
 20
35.185555625748592
 30
0.0
 11
171.1811105354906
 21
36.613303132779862
 31
0.0
  0
LINE
  5
1697
  8
TITLE
 10
170.5667279672075
 20
35.911635691849561
 30
0.0
 11
171.20494737851661
 21
36.549855103162031
 31
0.0
  0
LINE
  5
1698
  8
TITLE
 10
170.5957635415437
 20
35.853386393538429
 30
0.0
 11
171.2298767209262
 21
36.487499572921259
 31
0.0
  0
LINE
  5
1699
  8
TITLE
 10
170.625797899247
 20
35.796135878594413
 30
0.0
 11
171.25586962614409
 21
36.426207605491683
 31
0.0
  0
LINE
  5
169B
  8
TITLE
 10
189.13847689187469
 20
37.724689068395413
 30
0.0
 11
189.98260711391691
 21
38.568819290437851
 31
0.0
  0
LINE
  5
169C
  8
TITLE
 10
189.40033150981591
 20
37.724689068395413
 30
0.0
 11
189.98260711391691
 21
38.306964672500051
 31
0.0
  0
LINE
  5
169D
  8
TITLE
 10
189.48761638246319
 20
37.724689068395413
 30
0.0
 11
189.98260711391691
 21
38.219679799852742
 31
0.0
  0
LINE
  5
169E
  8
TITLE
 10
189.22576176452171
 20
37.724689068395413
 30
0.0
 11
189.98260711391691
 21
38.481534417791011
 31
0.0
  0
LINE
  5
169F
  8
TITLE
 10
189.31304663716901
 20
37.724689068395413
 30
0.0
 11
189.98260711391691
 21
38.394249545147211
 31
0.0
  0
LINE
  5
16A0
  8
TITLE
 10
188.6721378575524
 20
34.290664364088187
 30
0.0
 11
189.52437755531901
 21
35.142904061858488
 31
0.0
  0
LINE
  5
16A1
  8
TITLE
 10
188.75942273019231
 20
34.290664364088187
 30
0.0
 11
189.61166242796639
 21
35.142904061858488
 31
0.0
  0
LINE
  5
16A2
  8
TITLE
 10
188.84670760283981
 20
34.290664364088187
 30
0.0
 11
189.69894730061381
 21
35.142904061858488
 31
0.0
  0
LINE
  5
16A3
  8
TITLE
 10
188.9339924754866
 20
34.290664364088187
 30
0.0
 11
189.78623217325381
 21
35.142904061858488
 31
0.0
  0
LINE
  5
16A4
  8
TITLE
 10
189.02127734813371
 20
34.290664364088187
 30
0.0
 11
189.87351704590071
 21
35.142904061858488
 31
0.0
  0
LINE
  5
16A5
  8
TITLE
 10
189.1085622207811
 20
34.290664364088187
 30
0.0
 11
189.9608019185477
 21
35.142904061858488
 31
0.0
  0
LINE
  5
16A6
  8
TITLE
 10
189.1958470934282
 20
34.290664364088187
 30
0.0
 11
190.04808679119469
 21
35.142904061858488
 31
0.0
  0
LINE
  5
16A7
  8
TITLE
 10
189.2831319660751
 20
34.290664364088187
 30
0.0
 11
190.13537166384199
 21
35.142904061858488
 31
0.0
  0
LINE
  5
16A8
  8
TITLE
 10
189.37041683872269
 20
34.290664364088187
 30
0.0
 11
190.22265653648961
 21
35.142904061858488
 31
0.0
  0
LINE
  5
16A9
  8
TITLE
 10
189.45770171136971
 20
34.290664364088187
 30
0.0
 11
190.2335869524936
 21
35.06654960521179
 31
0.0
  0
LINE
  5
16AA
  8
TITLE
 10
188.25084515361891
 20
37.27348169337175
 30
0.0
 11
189.55429222641291
 21
38.57692876616624
 31
0.0
  0
LINE
  5
16AB
  8
TITLE
 10
188.25084515361891
 20
37.186196820724788
 30
0.0
 11
189.64157709905999
 21
38.57692876616624
 31
0.0
  0
LINE
  5
16AC
  8
TITLE
 10
188.25084515361891
 20
37.098911948077621
 30
0.0
 11
189.728861971707
 21
38.57692876616624
 31
0.0
  0
LINE
  5
16AD
  8
TITLE
 10
188.25084515361891
 20
37.011627075430781
 30
0.0
 11
189.81614684435411
 21
38.57692876616624
 31
0.0
  0
LINE
  5
16AE
  8
TITLE
 10
188.25084515361891
 20
36.92434220278335
 30
0.0
 11
189.90343171699419
 21
38.57692876616624
 31
0.0
  0
LINE
  5
16B1
  8
TITLE
 10
180.673038484198
 20
38.773301779179747
 30
0.0
 11
181.73249884012321
 21
39.832762135112468
 31
0.0
  0
LINE
  5
16B2
  8
TITLE
 10
179.30763632220351
 20
37.844323980424569
 30
0.0
 11
181.31860059313709
 21
39.855288251358168
 31
0.0
  0
LINE
  5
16B3
  8
TITLE
 10
179.98253430844409
 20
38.344652221363852
 30
0.0
 11
181.49317033843141
 21
39.855288251358168
 31
0.0
  0
LINE
  5
16B4
  8
TITLE
 10
180.17495661226309
 20
38.449789652542691
 30
0.0
 11
181.5804552110784
 21
39.855288251358168
 31
0.0
  0
LINE
  5
16B5
  8
TITLE
 10
179.80890453483059
 20
38.258307320404469
 30
0.0
 11
181.40588546578411
 21
39.855288251358168
 31
0.0
  0
LINE
  5
16B6
  8
TITLE
 10
180.39642081793039
 20
38.583968985559679
 30
0.0
 11
181.6677400837257
 21
39.855288251354821
 31
0.0
  0
LINE
  5
16B7
  8
TITLE
 10
181.29070441303111
 20
39.129113090078789
 30
0.0
 11
181.86563779457521
 21
39.704046471619421
 31
0.0
  0
LINE
  5
16B8
  8
TITLE
 10
181.2001762442878
 20
39.213154666626693
 30
0.0
 11
181.77620622039771
 21
39.789184642736259
 31
0.0
  0
LINE
  5
16B9
  8
TITLE
 10
181.2451882639175
 20
39.170881813608482
 30
0.0
 11
181.82058569697671
 21
39.746279246667839
 31
0.0
  0
LINE
  5
16BA
  8
TITLE
 10
181.25292368260159
 20
34.290664364088187
 30
0.0
 11
182.9338411811554
 21
35.971581862649522
 31
0.0
  0
LINE
  5
16BB
  8
TITLE
 10
181.1656388099548
 20
34.290664364088187
 30
0.0
 11
182.84655630850861
 21
35.971581862649522
 31
0.0
  0
LINE
  5
16BC
  8
TITLE
 10
180.6419295740719
 20
34.290664364088187
 30
0.0
 11
181.35831220650871
 21
35.007046996521851
 31
0.0
  0
LINE
  5
16BD
  8
TITLE
 10
180.7292144467188
 20
34.290664364088187
 30
0.0
 11
181.44559707914911
 21
35.007046996521851
 31
0.0
  0
LINE
  5
16BE
  8
TITLE
 10
180.81649931936599
 20
34.290664364088187
 30
0.0
 11
181.5328819517959
 21
35.007046996521851
 31
0.0
  0
LINE
  5
16BF
  8
TITLE
 10
180.90378419201281
 20
34.290664364088187
 30
0.0
 11
181.62422892783101
 21
35.011109099906221
 31
0.0
  0
LINE
  5
16C0
  8
TITLE
 10
180.99106906466011
 20
34.290664364088187
 30
0.0
 11
181.7314813860805
 21
35.031076685508481
 31
0.0
  0
LINE
  5
16C1
  8
TITLE
 10
181.0783539373075
 20
34.290664364088187
 30
0.0
 11
181.86956489406771
 21
35.081875320848219
 31
0.0
  0
LINE
  5
16C2
  8
TITLE
 10
180.62811698430551
 20
36.284403845184912
 30
0.0
 11
181.33196672157879
 21
36.98825358246178
 31
0.0
  0
LINE
  5
16C3
  8
TITLE
 10
180.7154018569455
 20
36.284403845184912
 30
0.0
 11
181.4192515942259
 21
36.98825358246178
 31
0.0
  0
LINE
  5
16C4
  8
TITLE
 10
180.80268672959281
 20
36.284403845184912
 30
0.0
 11
181.5065364668728
 21
36.98825358246178
 31
0.0
  0
LINE
  5
16C5
  8
TITLE
 10
180.88997160224
 20
36.284403845184912
 30
0.0
 11
181.5938213395132
 21
36.98825358246178
 31
0.0
  0
LINE
  5
16C6
  8
TITLE
 10
180.9772564748871
 20
36.284403845184912
 30
0.0
 11
181.6811062121601
 21
36.98825358246178
 31
0.0
  0
LINE
  5
16C7
  8
TITLE
 10
181.06454134753369
 20
36.284403845184912
 30
0.0
 11
181.76839108480749
 21
36.98825358246178
 31
0.0
  0
LINE
  5
16C8
  8
TITLE
 10
181.15182622018131
 20
36.284403845184912
 30
0.0
 11
181.8556759574542
 21
36.98825358246178
 31
0.0
  0
LINE
  5
16C9
  8
TITLE
 10
181.23911109282861
 20
36.284403845184912
 30
0.0
 11
181.94296083010161
 21
36.98825358246178
 31
0.0
  0
LINE
  5
16CA
  8
TITLE
 10
180.5531431129485
 20
37.431418190884472
 30
0.0
 11
181.33519837659151
 21
38.21347345452439
 31
0.0
  0
LINE
  5
16CB
  8
TITLE
 10
180.64042798559601
 20
37.431418190884472
 30
0.0
 11
181.4224832492319
 21
38.21347345452439
 31
0.0
  0
LINE
  5
16CC
  8
TITLE
 10
180.7277128582424
 20
37.431418190884472
 30
0.0
 11
181.50976812187869
 21
38.21347345452439
 31
0.0
  0
LINE
  5
16CD
  8
TITLE
 10
180.8149977308899
 20
37.431418190884472
 30
0.0
 11
181.59705299452591
 21
38.21347345452439
 31
0.0
  0
LINE
  5
16CE
  8
TITLE
 10
180.9022826035368
 20
37.431418190884472
 30
0.0
 11
181.68433786717321
 21
38.21347345452439
 31
0.0
  0
LINE
  5
16CF
  8
TITLE
 10
180.98956747618411
 20
37.431418190884472
 30
0.0
 11
181.77162273982
 21
38.21347345452439
 31
0.0
  0
LINE
  5
16D0
  8
TITLE
 10
181.0768523488311
 20
37.431418190884472
 30
0.0
 11
181.8589076124675
 21
38.21347345452439
 31
0.0
  0
LINE
  5
16D1
  8
TITLE
 10
181.16413722147121
 20
37.431418190884472
 30
0.0
 11
181.94619248511449
 21
38.21347345452439
 31
0.0
  0
LINE
  5
16D2
  8
TITLE
 10
181.25142209411851
 20
37.431418190884472
 30
0.0
 11
182.03347735776191
 21
38.21347345452439
 31
0.0
  0
LINE
  5
16D3
  8
TITLE
 10
176.5699415121972
 20
38.423454330981961
 30
0.0
 11
177.27425821234669
 21
39.12777103113114
 31
0.0
  0
LINE
  5
16D4
  8
TITLE
 10
176.65722638484451
 20
38.423454330981961
 30
0.0
 11
177.3615430849942
 21
39.12777103113114
 31
0.0
  0
LINE
  5
16D5
  8
TITLE
 10
176.74451125749169
 20
38.423454330981961
 30
0.0
 11
177.44882795764121
 21
39.12777103113114
 31
0.0
  0
LINE
  5
16D6
  8
TITLE
 10
176.8317961301388
 20
38.423454330981961
 30
0.0
 11
177.5361128302884
 21
39.12777103113114
 31
0.0
  0
LINE
  5
16D7
  8
TITLE
 10
176.91908100278599
 20
38.423454330981961
 30
0.0
 11
177.62339770293579
 21
39.12777103113114
 31
0.0
  0
LINE
  5
16D8
  8
TITLE
 10
177.006365875433
 20
38.423454330981961
 30
0.0
 11
177.71068257558289
 21
39.12777103113114
 31
0.0
  0
LINE
  5
16D9
  8
TITLE
 10
177.09365074808039
 20
38.423454330981961
 30
0.0
 11
177.79796744822971
 21
39.12777103113114
 31
0.0
  0
LINE
  5
16DA
  8
TITLE
 10
177.1809356207275
 20
38.423454330981961
 30
0.0
 11
177.85815195723291
 21
39.100670667491393
 31
0.0
  0
LINE
  5
16DB
  8
TITLE
 10
176.97009795764569
 20
39.609174630247772
 30
0.0
 11
177.21621157875671
 21
39.855288251358168
 31
0.0
  0
LINE
  5
16DC
  8
TITLE
 10
176.97009795764569
 20
39.52188975760032
 30
0.0
 11
177.3034964514037
 21
39.855288251358168
 31
0.0
  0
LINE
  5
16DD
  8
TITLE
 10
176.97009795764569
 20
39.434604884953167
 30
0.0
 11
177.39078132405061
 21
39.855288251358168
 31
0.0
  0
LINE
  5
16DE
  8
TITLE
 10
177.037492931081
 20
39.414714985748759
 30
0.0
 11
177.47806619669811
 21
39.855288251358168
 31
0.0
  0
LINE
  5
16DF
  8
TITLE
 10
177.1247778037287
 20
39.414714985748759
 30
0.0
 11
177.5653510693453
 21
39.855288251358168
 31
0.0
  0
LINE
  5
16E0
  8
TITLE
 10
177.21206267637569
 20
39.414714985748759
 30
0.0
 11
177.6526359419924
 21
39.855288251358168
 31
0.0
  0
LINE
  5
16E1
  8
TITLE
 10
176.6723455774939
 20
35.20903323570748
 30
0.0
 11
177.2355996248811
 21
35.772287283102209
 31
0.0
  0
LINE
  5
16E2
  8
TITLE
 10
176.71336157090909
 20
35.162764356482967
 30
0.0
 11
177.2782361309047
 21
35.727638916471392
 31
0.0
  0
LINE
  5
16E3
  8
TITLE
 10
176.7550746515665
 20
35.117192564493479
 30
0.0
 11
177.32192031843999
 21
35.684038231366749
 31
0.0
  0
LINE
  5
16E4
  8
TITLE
 10
176.79748334857899
 20
35.072316388858788
 30
0.0
 11
177.36665225971191
 21
35.64148529999165
 31
0.0
  0
LINE
  5
16E5
  8
TITLE
 10
176.8405867235407
 20
35.028134891173138
 30
0.0
 11
177.41243384133961
 21
35.59998200896883
 31
0.0
  0
LINE
  5
16E6
  8
TITLE
 10
176.8843843669639
 20
34.98464766194958
 30
0.0
 11
177.45926878076111
 21
35.559532075746873
 31
0.0
  0
LINE
  5
16E7
  8
TITLE
 10
176.92887639672051
 20
34.941854819059252
 30
0.0
 11
177.50716265869659
 21
35.520141081034872
 31
0.0
  0
LINE
  5
16E8
  8
TITLE
 10
177.06652791645999
 20
34.817651720860638
 30
0.0
 11
177.65728283968971
 21
35.408406644090171
 31
0.0
  0
LINE
  5
16E9
  8
TITLE
 10
177.11380927535271
 20
34.777648207110069
 30
0.0
 11
177.70950765132821
 21
35.373346583081748
 31
0.0
  0
LINE
  5
16EA
  8
TITLE
 10
177.16179360682111
 20
34.738347665930817
 30
0.0
 11
177.762849632746
 21
35.339403691852219
 31
0.0
  0
LINE
  5
16EB
  8
TITLE
 10
177.2104842737395
 20
34.699753460202217
 30
0.0
 11
177.8173272602678
 21
35.306596446726658
 31
0.0
  0
LINE
  5
16EC
  8
TITLE
 10
176.97406345847381
 20
34.899757008168429
 30
0.0
 11
177.5561229683729
 21
35.481816518064193
 31
0.0
  0
LINE
  5
16ED
  8
TITLE
 10
177.0199467281611
 20
34.858355405212208
 30
0.0
 11
177.60615918254689
 21
35.444567859590812
 31
0.0
  0
LINE
  5
16EE
  8
TITLE
 10
175.7163744855398
 20
37.831741922261898
 30
0.0
 11
177.01240359441289
 21
39.12777103113114
 31
0.0
  0
LINE
  5
16EF
  8
TITLE
 10
175.7163744855398
 20
37.744457049618248
 30
0.0
 11
177.0996884670528
 21
39.12777103113114
 31
0.0
  0
LINE
  5
16F0
  8
TITLE
 10
175.7163744855398
 20
38.093596540199698
 30
0.0
 11
176.75054897647101
 21
39.12777103113114
 31
0.0
  0
LINE
  5
16F1
  8
TITLE
 10
175.7163744855398
 20
38.006311667556169
 30
0.0
 11
176.83783384911831
 21
39.12777103113114
 31
0.0
  0
LINE
  5
16F2
  8
TITLE
 10
175.7163744855398
 20
37.919026794908881
 30
0.0
 11
176.92511872176581
 21
39.12777103113114
 31
0.0
  0
LINE
  5
16F3
  8
TITLE
 10
175.08609867721
 20
38.423454330981961
 30
0.0
 11
176.51793259758659
 21
39.855288251358168
 31
0.0
  0
LINE
  5
16F4
  8
TITLE
 10
175.17338354985711
 20
38.423454330981961
 30
0.0
 11
176.5521900557718
 21
39.802260836899691
 31
0.0
  0
LINE
  5
16F5
  8
TITLE
 10
175.26066842250441
 20
38.423454330981961
 30
0.0
 11
176.5521900557718
 21
39.714975964252851
 31
0.0
  0
LINE
  5
16F6
  8
TITLE
 10
175.3479532951514
 20
38.423454330981961
 30
0.0
 11
176.5521900557718
 21
39.627691091609051
 31
0.0
  0
LINE
  5
16F7
  8
TITLE
 10
175.43523816779191
 20
38.423454330981961
 30
0.0
 11
176.5521900557718
 21
39.540406218961898
 31
0.0
  0
LINE
  5
16F8
  8
TITLE
 10
175.52252304043861
 20
38.423454330981961
 30
0.0
 11
176.5521900557718
 21
39.453121346314788
 31
0.0
  0
LINE
  5
16F9
  8
TITLE
 10
175.609807913086
 20
38.423454330981961
 30
0.0
 11
176.5521900557718
 21
39.365836473667478
 31
0.0
  0
LINE
  5
16FA
  8
TITLE
 10
175.69709278573299
 20
38.423454330981961
 30
0.0
 11
176.5521900557718
 21
39.27855160102078
 31
0.0
  0
LINE
  5
16FB
  8
TITLE
 10
175.7163744855398
 20
38.355451158140937
 30
0.0
 11
176.5521900557718
 21
39.191266728373222
 31
0.0
  0
LINE
  5
16FC
  8
TITLE
 10
175.7163744855398
 20
38.26816628549382
 30
0.0
 11
176.57597923117669
 21
39.12777103113114
 31
0.0
  0
LINE
  5
16FD
  8
TITLE
 10
175.7163744855398
 20
38.180881412846801
 30
0.0
 11
176.66326410382391
 21
39.12777103113114
 31
0.0
  0
LINE
  5
16FE
  8
TITLE
 10
174.99881380456301
 20
38.423454330981961
 30
0.0
 11
175.70313050471259
 21
39.12777103113114
 31
0.0
  0
LINE
  5
16FF
  8
TITLE
 10
176.97009795764569
 20
39.783744375538262
 30
0.0
 11
177.04164183346199
 21
39.855288251358168
 31
0.0
  0
LINE
  5
1700
  8
TITLE
 10
176.97009795764569
 20
39.696459502891102
 30
0.0
 11
177.12892670610961
 21
39.855288251358168
 31
0.0
  0
LINE
  5
1701
  8
TITLE
 10
175.7163744855398
 20
39.141015011958238
 30
0.0
 11
176.43064772493949
 21
39.855288251358168
 31
0.0
  0
LINE
  5
1702
  8
TITLE
 10
175.7163744855398
 20
39.402869629899691
 30
0.0
 11
176.16879310699801
 21
39.855288251358168
 31
0.0
  0
LINE
  5
1703
  8
TITLE
 10
175.7163744855398
 20
39.315584757252388
 30
0.0
 11
176.25607797964531
 21
39.855288251358168
 31
0.0
  0
LINE
  5
1704
  8
TITLE
 10
175.7163744855398
 20
39.228299884605548
 30
0.0
 11
176.3433628522927
 21
39.855288251358168
 31
0.0
  0
LINE
  5
1705
  8
TITLE
 10
175.7163744855398
 20
39.664724247837761
 30
0.0
 11
175.90693848905639
 21
39.855288251358168
 31
0.0
  0
LINE
  5
1706
  8
TITLE
 10
175.7163744855398
 20
39.577439375193812
 30
0.0
 11
175.99422336170369
 21
39.855288251358168
 31
0.0
  0
LINE
  5
1707
  8
TITLE
 10
175.7163744855398
 20
39.490154502546837
 30
0.0
 11
176.08150823435079
 21
39.855288251358168
 31
0.0
  0
LINE
  5
1708
  8
TITLE
 10
175.7163744855398
 20
39.839293993131903
 30
0.0
 11
175.73236874376909
 21
39.855288251358168
 31
0.0
  0
LINE
  5
1709
  8
TITLE
 10
175.7163744855398
 20
39.752009120484772
 30
0.0
 11
175.81965361641679
 21
39.855288251358168
 31
0.0
  0
LINE
  5
170A
  8
TITLE
 10
173.5149709695755
 20
38.423454330981961
 30
0.0
 11
174.21928766972519
 21
39.12777103113114
 31
0.0
  0
LINE
  5
170B
  8
TITLE
 10
173.60225584221541
 20
38.423454330981961
 30
0.0
 11
174.30657254237269
 21
39.12777103113114
 31
0.0
  0
LINE
  5
170C
  8
TITLE
 10
173.6895407148626
 20
38.423454330981961
 30
0.0
 11
174.39385741501241
 21
39.12777103113114
 31
0.0
  0
LINE
  5
170D
  8
TITLE
 10
173.7768255875099
 20
38.423454330981961
 30
0.0
 11
174.48114228765979
 21
39.12777103113114
 31
0.0
  0
LINE
  5
170E
  8
TITLE
 10
173.86411046015701
 20
38.423454330981961
 30
0.0
 11
174.56842716030661
 21
39.12777103113114
 31
0.0
  0
LINE
  5
170F
  8
TITLE
 10
173.9513953328042
 20
38.423454330981961
 30
0.0
 11
174.65571203295389
 21
39.12777103113114
 31
0.0
  0
LINE
  5
1710
  8
TITLE
 10
174.03868020545141
 20
38.423454330981961
 30
0.0
 11
174.7429969056011
 21
39.12777103113114
 31
0.0
  0
LINE
  5
1711
  8
TITLE
 10
174.1259650780984
 20
38.423454330981961
 30
0.0
 11
174.83028177824809
 21
39.12777103113114
 31
0.0
  0
LINE
  5
1712
  8
TITLE
 10
173.34040122428141
 20
38.423454330981961
 30
0.0
 11
174.0447179244311
 21
39.12777103113114
 31
0.0
  0
LINE
  5
1713
  8
TITLE
 10
173.42768609692871
 20
38.423454330981961
 30
0.0
 11
174.13200279707809
 21
39.12777103113114
 31
0.0
  0
LINE
  5
1714
  8
TITLE
 10
173.16583147898709
 20
38.423454330981961
 30
0.0
 11
173.87014817913689
 21
39.12777103113114
 31
0.0
  0
LINE
  5
1715
  8
TITLE
 10
173.25311635163419
 20
38.423454330981961
 30
0.0
 11
173.95743305178371
 21
39.12777103113114
 31
0.0
  0
LINE
  5
1716
  8
TITLE
 10
174.21324995074559
 20
38.423454330981961
 30
0.0
 11
174.9175666508952
 21
39.12777103113114
 31
0.0
  0
LINE
  5
1717
  8
TITLE
 10
174.30053482339281
 20
38.423454330981961
 30
0.0
 11
175.00485152354261
 21
39.12777103113114
 31
0.0
  0
LINE
  5
1718
  8
TITLE
 10
174.38781969604011
 20
38.423454330981961
 30
0.0
 11
175.0921363961898
 21
39.12777103113114
 31
0.0
  0
LINE
  5
1719
  8
TITLE
 10
174.47510456867991
 20
38.423454330981961
 30
0.0
 11
175.17942126883679
 21
39.12777103113114
 31
0.0
  0
LINE
  5
171A
  8
TITLE
 10
174.56238944132701
 20
38.423454330981961
 30
0.0
 11
175.26670614148389
 21
39.12777103113114
 31
0.0
  0
LINE
  5
171B
  8
TITLE
 10
174.6496743139742
 20
38.423454330981961
 30
0.0
 11
175.35399101412369
 21
39.12777103113114
 31
0.0
  0
LINE
  5
171C
  8
TITLE
 10
174.73695918662139
 20
38.423454330981961
 30
0.0
 11
175.441275886771
 21
39.12777103113114
 31
0.0
  0
LINE
  5
171D
  8
TITLE
 10
174.82424405926841
 20
38.423454330981961
 30
0.0
 11
175.52856075941821
 21
39.12777103113114
 31
0.0
  0
LINE
  5
171E
  8
TITLE
 10
174.91152893191571
 20
38.423454330981961
 30
0.0
 11
175.6158456320656
 21
39.12777103113114
 31
0.0
  0
LINE
  5
171F
  8
TITLE
 10
176.44103978077061
 20
35.501436674867321
 30
0.0
 11
177.0020096750919
 21
36.062406569188781
 31
0.0
  0
LINE
  5
1720
  8
TITLE
 10
176.47781156242979
 20
35.450923583876033
 30
0.0
 11
177.03825805769699
 21
36.011370079147191
 31
0.0
  0
LINE
  5
1721
  8
TITLE
 10
176.51530090558049
 20
35.401128054383321
 30
0.0
 11
177.07559288524391
 21
35.961420034046782
 31
0.0
  0
LINE
  5
1722
  8
TITLE
 10
176.55350294982469
 20
35.35204522598017
 30
0.0
 11
177.1140027875866
 21
35.9125450637423
 31
0.0
  0
LINE
  5
1723
  8
TITLE
 10
176.59241343422821
 20
35.30367083774388
 30
0.0
 11
177.1534784526774
 21
35.864735856185618
 31
0.0
  0
LINE
  5
1724
  8
TITLE
 10
176.63202868031689
 20
35.256001211177811
 30
0.0
 11
177.19401254197109
 21
35.817985072836031
 31
0.0
  0
LINE
  5
1725
  8
TITLE
 10
176.1734972755398
 20
35.932173150807131
 30
0.0
 11
176.7532860596267
 21
36.511961934897158
 31
0.0
  0
LINE
  5
1726
  8
TITLE
 10
176.2042737075102
 20
35.875664710130259
 30
0.0
 11
176.78013936494489
 21
36.451530367565177
 31
0.0
  0
LINE
  5
1727
  8
TITLE
 10
176.23583119751549
 20
35.819937327488361
 30
0.0
 11
176.80826264368341
 21
36.392368773656209
 31
0.0
  0
LINE
  5
1728
  8
TITLE
 10
176.2681591056986
 20
35.76498036302803
 30
0.0
 11
176.83762182390149
 21
36.334443081230731
 31
0.0
  0
LINE
  5
1729
  8
TITLE
 10
176.3012476450188
 20
35.710784029704001
 30
0.0
 11
176.8681866166535
 21
36.27772300133585
 31
0.0
  0
LINE
  5
172A
  8
TITLE
 10
176.3350878352872
 20
35.657339347325617
 30
0.0
 11
176.89993015214259
 21
36.222181664181171
 31
0.0
  0
LINE
  5
172B
  8
TITLE
 10
176.36967146210719
 20
35.604638101494828
 30
0.0
 11
176.93282867236209
 21
36.167795311753451
 31
0.0
  0
LINE
  5
172C
  8
TITLE
 10
176.4049910402054
 20
35.5526728069499
 30
0.0
 11
176.96686127123689
 21
36.11454303798125
 31
0.0
  0
LINE
  5
172D
  8
TITLE
 10
175.24365830818121
 20
34.740479565507137
 30
0.0
 11
175.7163744855398
 21
35.213195742868884
 31
0.0
  0
LINE
  5
172E
  8
TITLE
 10
175.3690118717364
 20
34.778548256414993
 30
0.0
 11
175.7163744855398
 21
35.125910870221453
 31
0.0
  0
LINE
  5
172F
  8
TITLE
 10
175.49681557712739
 20
34.819067089162722
 30
0.0
 11
175.7163744855398
 21
35.038625997577789
 31
0.0
  0
LINE
  5
1730
  8
TITLE
 10
175.62725060066879
 20
34.862217240052992
 30
0.0
 11
175.7163744855398
 21
34.951341124930799
 31
0.0
  0
LINE
  5
1731
  8
TITLE
 10
175.800391693341
 20
36.955625530948467
 30
0.0
 11
176.55127000115471
 21
37.706503838769287
 31
0.0
  0
LINE
  5
1732
  8
TITLE
 10
175.8162312859784
 20
36.884180250945249
 30
0.0
 11
176.54644819940981
 21
37.614397164377053
 31
0.0
  0
LINE
  5
1733
  8
TITLE
 10
175.83320787739021
 20
36.813871969706561
 30
0.0
 11
176.544929300891
 21
37.525593393203799
 31
0.0
  0
LINE
  5
1734
  8
TITLE
 10
175.85128325036769
 20
36.74466247004068
 30
0.0
 11
176.54637638169001
 21
37.43975560136316
 31
0.0
  0
LINE
  5
1735
  8
TITLE
 10
175.87042235499661
 20
36.676516702022489
 30
0.0
 11
176.55051492869421
 21
37.356609275716487
 31
0.0
  0
LINE
  5
1736
  8
TITLE
 10
175.28370609498859
 20
36.962649168479011
 30
0.0
 11
175.4290626570606
 21
37.108005730550687
 31
0.0
  0
LINE
  5
1737
  8
TITLE
 10
175.89059298556359
 20
36.609402459942267
 30
0.0
 11
176.557117878643
 21
37.275927353022169
 31
0.0
  0
LINE
  5
1738
  8
TITLE
 10
175.9117655004747
 20
36.543290102213248
 30
0.0
 11
176.56599500459211
 21
37.197519606330779
 31
0.0
  0
LINE
  5
1739
  8
TITLE
 10
175.93391257849049
 20
36.47815230757498
 30
0.0
 11
176.57698519728751
 21
37.121224926371852
 31
0.0
  0
LINE
  5
173A
  8
TITLE
 10
175.95700900562639
 20
36.413963862063447
 30
0.0
 11
176.5899507304789
 21
37.046905586915571
 31
0.0
  0
LINE
  5
173B
  8
TITLE
 10
176.11433472331561
 20
36.04758034387693
 30
0.0
 11
176.70354724378291
 21
36.636792864344642
 31
0.0
  0
LINE
  5
173C
  8
TITLE
 10
176.14351344561669
 20
35.98947419353123
 30
0.0
 11
176.72774101430309
 21
36.573701762217603
 31
0.0
  0
LINE
  5
173D
  8
TITLE
 10
175.98103148839209
 20
36.350701472185783
 30
0.0
 11
176.60477292025959
 21
36.97444290404939
 31
0.0
  0
LINE
  5
173E
  8
TITLE
 10
176.00595848942939
 20
36.288343600572148
 30
0.0
 11
176.62134878534971
 21
36.90373389649249
 31
0.0
  0
LINE
  5
173F
  8
TITLE
 10
176.03177008247701
 20
36.226870320979863
 30
0.0
 11
176.63958844032189
 21
36.834688678824961
 31
0.0
  0
LINE
  5
1740
  8
TITLE
 10
176.05844782411069
 20
36.166263189962791
 30
0.0
 11
176.65941303471709
 21
36.76722840056901
 31
0.0
  0
LINE
  5
1741
  8
TITLE
 10
176.08597463990191
 20
36.106505133110218
 30
0.0
 11
176.68075310505611
 21
36.701283598265192
 31
0.0
  0
LINE
  5
1742
  8
TITLE
 10
175.37099096763589
 20
36.962649168479011
 30
0.0
 11
175.4290626570606
 21
37.02072085790325
 31
0.0
  0
LINE
  5
1743
  8
TITLE
 10
174.99967796823029
 20
34.671068970850513
 30
0.0
 11
175.7163744855398
 21
35.387765488159509
 31
0.0
  0
LINE
  5
1744
  8
TITLE
 10
175.1205945688728
 20
34.704700698852889
 30
0.0
 11
175.7163744855398
 21
35.300480615512249
 31
0.0
  0
LINE
  5
1745
  8
TITLE
 10
175.02185147704719
 20
36.962649168479011
 30
0.0
 11
175.4290626570606
 21
37.369860348492118
 31
0.0
  0
LINE
  5
1746
  8
TITLE
 10
175.1091363496945
 20
36.962649168479011
 30
0.0
 11
175.4290626570606
 21
37.282575475844702
 31
0.0
  0
LINE
  5
1747
  8
TITLE
 10
175.19642122234191
 20
36.962649168479011
 30
0.0
 11
175.4290626570606
 21
37.19529060319784
 31
0.0
  0
LINE
  5
1748
  8
TITLE
 10
173.60071599501421
 20
35.803368304383639
 30
0.0
 11
174.35817392121379
 21
36.560826230582933
 31
0.0
  0
LINE
  5
1749
  8
TITLE
 10
173.60071599501421
 20
35.716083431740131
 30
0.0
 11
174.35817392121379
 21
36.473541357935652
 31
0.0
  0
LINE
  5
174A
  8
TITLE
 10
173.60071599501421
 20
35.628798559092893
 30
0.0
 11
174.35817392121379
 21
36.38625648528879
 31
0.0
  0
LINE
  5
174B
  8
TITLE
 10
173.60071599501421
 20
35.541513686445867
 30
0.0
 11
174.35817392121379
 21
36.298971612645282
 31
0.0
  0
LINE
  5
174C
  8
TITLE
 10
173.60071599501421
 20
35.454228813798558
 30
0.0
 11
174.35817392121379
 21
36.211686739998157
 31
0.0
  0
LINE
  5
174D
  8
TITLE
 10
173.60071599501421
 20
35.366943941151462
 30
0.0
 11
174.35817392121379
 21
36.12440186735072
 31
0.0
  0
LINE
  5
174E
  8
TITLE
 10
173.60071599501421
 20
35.279659068504159
 30
0.0
 11
174.35817392121379
 21
36.03711699470341
 31
0.0
  0
LINE
  5
174F
  8
TITLE
 10
173.60071599501421
 20
35.977938049677661
 30
0.0
 11
174.35817392121379
 21
36.735395975873701
 31
0.0
  0
LINE
  5
1750
  8
TITLE
 10
173.60071599501421
 20
35.890653177030813
 30
0.0
 11
174.35817392121379
 21
36.648111103226469
 31
0.0
  0
LINE
  5
1751
  8
TITLE
 10
173.28131602967801
 20
34.349264994645111
 30
0.0
 11
174.35817392121379
 21
35.42612288618087
 31
0.0
  0
LINE
  5
1752
  8
TITLE
 10
173.37935675094769
 20
34.360020843260607
 30
0.0
 11
174.35879457702569
 21
35.339458669346257
 31
0.0
  0
LINE
  5
1753
  8
TITLE
 10
173.47842478709251
 20
34.371804006765501
 30
0.0
 11
174.4646026384066
 21
35.357981858079171
 31
0.0
  0
LINE
  5
1754
  8
TITLE
 10
173.5785566571256
 20
34.384651004147798
 30
0.0
 11
174.5714021776102
 21
35.377496524635831
 31
0.0
  0
LINE
  5
1755
  8
TITLE
 10
173.67979138452759
 20
34.398600858906157
 30
0.0
 11
174.67922584174619
 21
35.398035316125082
 31
0.0
  0
LINE
  5
1756
  8
TITLE
 10
173.78217074520541
 20
34.413695346936919
 30
0.0
 11
174.7881082927469
 21
35.419632894478461
 31
0.0
  0
LINE
  5
1757
  8
TITLE
 10
173.88573954792801
 20
34.429979277012038
 30
0.0
 11
174.89808638659369
 21
35.442326115677893
 31
0.0
  0
LINE
  5
1758
  8
TITLE
 10
173.18426838901661
 20
34.33950222662375
 30
0.0
 11
174.35817392121379
 21
35.513407758824393
 31
0.0
  0
LINE
  5
1759
  8
TITLE
 10
173.27615402411871
 20
36.962649168479011
 30
0.0
 11
174.03264236355579
 21
37.719137507916329
 31
0.0
  0
LINE
  5
175A
  8
TITLE
 10
173.36343889676581
 20
36.962649168479011
 30
0.0
 11
174.1199272362031
 21
37.719137507916329
 31
0.0
  0
LINE
  5
175B
  8
TITLE
 10
173.4507237694128
 20
36.962649168479011
 30
0.0
 11
174.2072121088498
 21
37.719137507916329
 31
0.0
  0
LINE
  5
175C
  8
TITLE
 10
173.53800864205991
 20
36.962649168479011
 30
0.0
 11
174.29449698149739
 21
37.719137507916329
 31
0.0
  0
LINE
  5
175D
  8
TITLE
 10
173.60071599501421
 20
36.938071648785872
 30
0.0
 11
174.38178185414421
 21
37.719137507916329
 31
0.0
  0
LINE
  5
175E
  8
TITLE
 10
173.60071599501421
 20
36.850786776142392
 30
0.0
 11
174.4690667267846
 21
37.719137507916329
 31
0.0
  0
LINE
  5
175F
  8
TITLE
 10
173.60071599501421
 20
36.763501903495239
 30
0.0
 11
174.55635159943151
 21
37.719137507916329
 31
0.0
  0
LINE
  5
1760
  8
TITLE
 10
173.60071599501421
 20
36.676217030848257
 30
0.0
 11
174.64363647207901
 21
37.719137507916329
 31
0.0
  0
LINE
  5
1761
  8
TITLE
 10
173.18886915147101
 20
36.962649168479011
 30
0.0
 11
173.94535749090841
 21
37.719137507916329
 31
0.0
  0
LINE
  5
1762
  8
TITLE
 10
173.60071599501421
 20
36.588932158204457
 30
0.0
 11
174.7309213447258
 21
37.719137507916329
 31
0.0
  0
LINE
  5
1763
  8
TITLE
 10
173.60071599501421
 20
36.501647285557148
 30
0.0
 11
174.81820621737299
 21
37.719137507916329
 31
0.0
  0
LINE
  5
1764
  8
TITLE
 10
173.60071599501421
 20
36.414362412909867
 30
0.0
 11
174.90549109002029
 21
37.719137507916329
 31
0.0
  0
LINE
  5
1765
  8
TITLE
 10
173.60071599501421
 20
36.152507794968741
 30
0.0
 11
174.35817392121379
 21
36.909965721168163
 31
0.0
  0
LINE
  5
1766
  8
TITLE
 10
173.60071599501421
 20
36.06522292232146
 30
0.0
 11
174.35817392121379
 21
36.822680848520868
 31
0.0
  0
LINE
  5
1767
  8
TITLE
 10
174.0966418348346
 20
34.46631181863156
 30
0.0
 11
175.1214891236221
 21
35.491159107419278
 31
0.0
  0
LINE
  5
1768
  8
TITLE
 10
174.20408319845481
 20
34.486468309601221
 30
0.0
 11
175.2350003774466
 21
35.517385488596346
 31
0.0
  0
LINE
  5
1769
  8
TITLE
 10
173.99054595289829
 20
34.447500809342451
 30
0.0
 11
175.009199373716
 21
35.466154230157159
 31
0.0
  0
LINE
  5
176A
  8
TITLE
 10
174.4108573685242
 20
36.962649168479011
 30
0.0
 11
175.1673457079616
 21
37.719137507916329
 31
0.0
  0
LINE
  5
176B
  8
TITLE
 10
173.60071599501421
 20
36.239792667615873
 30
0.0
 11
175.08006083531441
 21
37.719137507916329
 31
0.0
  0
LINE
  5
176C
  8
TITLE
 10
173.60071599501421
 20
36.327077540263147
 30
0.0
 11
174.99277596266739
 21
37.719137507916329
 31
0.0
  0
LINE
  5
176D
  8
TITLE
 10
174.31293065595881
 20
34.50803089445796
 30
0.0
 11
175.34978103284101
 21
35.544881271343648
 31
0.0
  0
LINE
  5
176E
  8
TITLE
 10
174.42324997823971
 20
34.531065344095282
 30
0.0
 11
175.46588246637259
 21
35.573697832228092
 31
0.0
  0
LINE
  5
176F
  8
TITLE
 10
174.53511273419721
 20
34.555643227405589
 30
0.0
 11
175.58335989966679
 21
35.603890392875087
 31
0.0
  0
LINE
  5
1770
  8
TITLE
 10
174.64859703605509
 20
34.581842656620047
 30
0.0
 11
175.7022728168298
 21
35.635518437391362
 31
0.0
  0
LINE
  5
1771
  8
TITLE
 10
174.7637884130807
 20
34.609749160995008
 30
0.0
 11
175.7163744855398
 21
35.562335233453851
 31
0.0
  0
LINE
  5
1772
  8
TITLE
 10
174.88078084175149
 20
34.639456717018518
 30
0.0
 11
175.7163744855398
 21
35.47505036080652
 31
0.0
  0
LINE
  5
1773
  8
TITLE
 10
174.49814224117131
 20
36.962649168479011
 30
0.0
 11
175.2546305806089
 21
37.719137507916329
 31
0.0
  0
LINE
  5
1774
  8
TITLE
 10
174.58542711381889
 20
36.962649168479011
 30
0.0
 11
175.3419154532489
 21
37.719137507916329
 31
0.0
  0
LINE
  5
1775
  8
TITLE
 10
174.6727119864654
 20
36.962649168479011
 30
0.0
 11
175.4290626570606
 21
37.71899983907312
 31
0.0
  0
LINE
  5
1776
  8
TITLE
 10
174.75999685910551
 20
36.962649168479011
 30
0.0
 11
175.4290626570606
 21
37.631714966429733
 31
0.0
  0
LINE
  5
1777
  8
TITLE
 10
174.84728173175299
 20
36.962649168479011
 30
0.0
 11
175.4290626570606
 21
37.544430093782893
 31
0.0
  0
LINE
  5
1778
  8
TITLE
 10
174.93456660439981
 20
36.962649168479011
 30
0.0
 11
175.4290626570606
 21
37.45714522113547
 31
0.0
  0
LINE
  5
1779
  8
TITLE
 10
175.71748810799551
 20
37.658285799423211
 30
0.0
 11
177.1869733396999
 21
39.12777103113114
 31
0.0
  0
LINE
  5
177A
  8
TITLE
 10
175.7318792822939
 20
37.410822355783921
 30
0.0
 11
176.5521900557718
 21
38.231133129262027
 31
0.0
  0
LINE
  5
177B
  8
TITLE
 10
175.73986084330849
 20
37.331519044151541
 30
0.0
 11
176.5521900557718
 21
38.143848256614731
 31
0.0
  0
LINE
  5
177C
  8
TITLE
 10
175.72060340775141
 20
37.574116226535871
 30
0.0
 11
176.5521900557718
 21
38.405702874556169
 31
0.0
  0
LINE
  5
177D
  8
TITLE
 10
175.72543203368059
 20
37.49165997981811
 30
0.0
 11
176.5521900557718
 21
38.318418001909038
 31
0.0
  0
LINE
  5
177E
  8
TITLE
 10
175.7857308582787
 20
37.028249568540801
 30
0.0
 11
176.5521900557718
 21
37.794708766033331
 31
0.0
  0
LINE
  5
177F
  8
TITLE
 10
175.74930129885649
 20
37.253674627056171
 30
0.0
 11
176.5521900557718
 21
38.056563383970797
 31
0.0
  0
LINE
  5
1780
  8
TITLE
 10
175.7601328934274
 20
37.17722134897982
 30
0.0
 11
176.5521900557718
 21
37.969278511323722
 31
0.0
  0
LINE
  5
1781
  8
TITLE
 10
175.77229451706501
 20
37.102098099970043
 30
0.0
 11
176.5521900557718
 21
37.881993638676811
 31
0.0
  0
LINE
  5
1782
  8
TITLE
 10
179.0937551089996
 20
37.97958225780242
 30
0.0
 11
180.96946110255561
 21
39.855288251358168
 31
0.0
  0
LINE
  5
1783
  8
TITLE
 10
179.22271149789839
 20
38.021253774057868
 30
0.0
 11
181.0567459752028
 21
39.855288251358168
 31
0.0
  0
LINE
  5
1784
  8
TITLE
 10
179.30763632220351
 20
38.018893725715188
 30
0.0
 11
181.14403084784971
 21
39.855288251358168
 31
0.0
  0
LINE
  5
1785
  8
TITLE
 10
179.30763632220351
 20
37.93160885307185
 30
0.0
 11
181.2313157204897
 21
39.855288251358168
 31
0.0
  0
LINE
  5
1786
  8
TITLE
 10
179.30763632220351
 20
37.757039107777381
 30
0.0
 11
179.7640706689501
 21
38.21347345452439
 31
0.0
  0
LINE
  5
1787
  8
TITLE
 10
179.42597096264521
 20
35.60596705941083
 30
0.0
 11
180.808257485696
 21
36.98825358246178
 31
0.0
  0
LINE
  5
1788
  8
TITLE
 10
179.54787736159591
 20
35.902443203652382
 30
0.0
 11
180.6336877404089
 21
36.98825358246178
 31
0.0
  0
LINE
  5
1789
  8
TITLE
 10
179.50456043923481
 20
35.771841408644292
 30
0.0
 11
180.7209726130485
 21
36.98825358246178
 31
0.0
  0
LINE
  5
178A
  8
TITLE
 10
179.07080186643719
 20
34.290664364088187
 30
0.0
 11
180.28969369215801
 21
35.509556189809132
 31
0.0
  0
LINE
  5
178B
  8
TITLE
 10
179.1580867390845
 20
34.290664364088187
 30
0.0
 11
180.2007323702631
 21
35.333309995270461
 31
0.0
  0
LINE
  5
178C
  8
TITLE
 10
179.2453716117314
 20
34.290664364088187
 30
0.0
 11
180.0375804128355
 21
35.082873165192339
 31
0.0
  0
LINE
  5
178D
  8
TITLE
 10
179.33265648437879
 20
34.290664364088187
 30
0.0
 11
180.0490391168087
 21
35.007046996521851
 31
0.0
  0
LINE
  5
178E
  8
TITLE
 10
179.41994135702589
 20
34.290664364088187
 30
0.0
 11
180.13632398945569
 21
35.007046996521851
 31
0.0
  0
LINE
  5
178F
  8
TITLE
 10
179.50722622967271
 20
34.290664364088187
 30
0.0
 11
180.2236088621033
 21
35.007046996521851
 31
0.0
  0
LINE
  5
1790
  8
TITLE
 10
179.0569892766639
 20
36.284403845184912
 30
0.0
 11
179.76083901393699
 21
36.98825358246178
 31
0.0
  0
LINE
  5
1791
  8
TITLE
 10
179.14427414931089
 20
36.284403845184912
 30
0.0
 11
179.84812388658449
 21
36.98825358246178
 31
0.0
  0
LINE
  5
1792
  8
TITLE
 10
179.2315590219583
 20
36.284403845184912
 30
0.0
 11
179.93540875923139
 21
36.98825358246178
 31
0.0
  0
LINE
  5
1793
  8
TITLE
 10
179.31884389460549
 20
36.284403845184912
 30
0.0
 11
180.02269363187881
 21
36.98825358246178
 31
0.0
  0
LINE
  5
1794
  8
TITLE
 10
179.40612876725251
 20
36.284403845184912
 30
0.0
 11
180.10997850452571
 21
36.98825358246178
 31
0.0
  0
LINE
  5
1795
  8
TITLE
 10
179.4934136398997
 20
36.284403845184912
 30
0.0
 11
180.1972633771727
 21
36.98825358246178
 31
0.0
  0
LINE
  5
1796
  8
TITLE
 10
179.59451110231291
 20
34.290664364088187
 30
0.0
 11
180.3108937347499
 21
35.007046996521851
 31
0.0
  0
LINE
  5
1797
  8
TITLE
 10
179.6817959749601
 20
34.290664364088187
 30
0.0
 11
180.3981786073974
 21
35.007046996521851
 31
0.0
  0
LINE
  5
1798
  8
TITLE
 10
179.76908084760711
 20
34.290664364088187
 30
0.0
 11
180.4854634800447
 21
35.007046996521851
 31
0.0
  0
LINE
  5
1799
  8
TITLE
 10
179.85636572025459
 20
34.290664364088187
 30
0.0
 11
180.57274835268461
 21
35.007046996521851
 31
0.0
  0
LINE
  5
179A
  8
TITLE
 10
179.9436505929018
 20
34.290664364088187
 30
0.0
 11
180.66003322533169
 21
35.007046996521851
 31
0.0
  0
LINE
  5
179B
  8
TITLE
 10
180.03093546554879
 20
34.290664364088187
 30
0.0
 11
180.74731809797871
 21
35.007046996521851
 31
0.0
  0
LINE
  5
179C
  8
TITLE
 10
180.11822033819601
 20
34.290664364088187
 30
0.0
 11
180.83460297062589
 21
35.007046996521851
 31
0.0
  0
LINE
  5
179D
  8
TITLE
 10
180.2055052108428
 20
34.290664364088187
 30
0.0
 11
180.9218878432728
 21
35.007046996521851
 31
0.0
  0
LINE
  5
179E
  8
TITLE
 10
180.2927900834901
 20
34.290664364088187
 30
0.0
 11
181.0091727159201
 21
35.007046996521851
 31
0.0
  0
LINE
  5
179F
  8
TITLE
 10
180.38007495613749
 20
34.290664364088187
 30
0.0
 11
181.0964575885674
 21
35.007046996521851
 31
0.0
  0
LINE
  5
17A0
  8
TITLE
 10
180.46735982878451
 20
34.290664364088187
 30
0.0
 11
181.18374246121471
 21
35.007046996521851
 31
0.0
  0
LINE
  5
17A1
  8
TITLE
 10
180.55464470142471
 20
34.290664364088187
 30
0.0
 11
181.27102733386141
 21
35.007046996521851
 31
0.0
  0
LINE
  5
17A2
  8
TITLE
 10
179.5806985125468
 20
36.284403845184912
 30
0.0
 11
180.2845482498202
 21
36.98825358246178
 31
0.0
  0
LINE
  5
17A3
  8
TITLE
 10
179.59417520985909
 20
36.21059566984988
 30
0.0
 11
180.37183312246719
 21
36.98825358246178
 31
0.0
  0
LINE
  5
17A4
  8
TITLE
 10
179.58800011549121
 20
36.117135702838738
 30
0.0
 11
180.4591179951145
 21
36.98825358246178
 31
0.0
  0
LINE
  5
17A5
  8
TITLE
 10
179.57360172820711
 20
36.015452442911212
 30
0.0
 11
180.54640286776171
 21
36.98825358246178
 31
0.0
  0
LINE
  5
17A6
  8
TITLE
 10
180.5408321116584
 20
36.284403845184912
 30
0.0
 11
181.24468184893161
 21
36.98825358246178
 31
0.0
  0
LINE
  5
17A7
  8
TITLE
 10
179.30763632220351
 20
37.669754235130149
 30
0.0
 11
179.8513555415968
 21
38.21347345452439
 31
0.0
  0
LINE
  5
17A8
  8
TITLE
 10
179.30763632220351
 20
37.582469362483117
 30
0.0
 11
179.9386404142445
 21
38.21347345452439
 31
0.0
  0
LINE
  5
17A9
  8
TITLE
 10
179.30763632220351
 20
37.495184489835829
 30
0.0
 11
180.02592528689169
 21
38.21347345452439
 31
0.0
  0
LINE
  5
17AA
  8
TITLE
 10
179.33115489589531
 20
37.431418190884472
 30
0.0
 11
180.1132101595386
 21
38.21347345452439
 31
0.0
  0
LINE
  5
17AB
  8
TITLE
 10
179.4184397685427
 20
37.431418190884472
 30
0.0
 11
180.2004950321859
 21
38.21347345452439
 31
0.0
  0
LINE
  5
17AC
  8
TITLE
 10
179.50572464119
 20
37.431418190884472
 30
0.0
 11
180.287779904833
 21
38.21347345452439
 31
0.0
  0
LINE
  5
17AD
  8
TITLE
 10
179.59300951383671
 20
37.431418190884472
 30
0.0
 11
180.37506477747991
 21
38.21347345452439
 31
0.0
  0
LINE
  5
17AE
  8
TITLE
 10
179.68029438648421
 20
37.431418190884472
 30
0.0
 11
180.46234965012749
 21
38.21347345452439
 31
0.0
  0
LINE
  5
17AF
  8
TITLE
 10
179.7675792591312
 20
37.431418190884472
 30
0.0
 11
180.54963452276729
 21
38.21347345452439
 31
0.0
  0
LINE
  5
17B0
  8
TITLE
 10
179.85486413177799
 20
37.431418190884472
 30
0.0
 11
180.6369193954144
 21
38.21347345452439
 31
0.0
  0
LINE
  5
17B1
  8
TITLE
 10
179.9421490044254
 20
37.431418190884472
 30
0.0
 11
180.7242042680617
 21
38.21347345452439
 31
0.0
  0
LINE
  5
17B2
  8
TITLE
 10
180.02943387707251
 20
37.431418190884472
 30
0.0
 11
180.811489140709
 21
38.21347345452439
 31
0.0
  0
LINE
  5
17B3
  8
TITLE
 10
180.11671874971961
 20
37.431418190884472
 30
0.0
 11
180.8987740133559
 21
38.21347345452439
 31
0.0
  0
LINE
  5
17B4
  8
TITLE
 10
180.2040036223668
 20
37.431418190884472
 30
0.0
 11
180.98605888600309
 21
38.21347345452439
 31
0.0
  0
LINE
  5
17B5
  8
TITLE
 10
180.2912884950068
 20
37.431418190884472
 30
0.0
 11
181.07334375865011
 21
38.21347345452439
 31
0.0
  0
LINE
  5
17B6
  8
TITLE
 10
180.37857336765401
 20
37.431418190884472
 30
0.0
 11
181.1606286312975
 21
38.21347345452439
 31
0.0
  0
LINE
  5
17B7
  8
TITLE
 10
180.46585824030109
 20
37.431418190884472
 30
0.0
 11
181.24791350394469
 21
38.21347345452439
 31
0.0
  0
LINE
  5
17B8
  8
TITLE
 10
177.61735998395591
 20
38.423454330981961
 30
0.0
 11
177.85815195723291
 21
38.664246304259187
 31
0.0
  0
LINE
  5
17B9
  8
TITLE
 10
177.7046448566029
 20
38.423454330981961
 30
0.0
 11
177.85815195723291
 21
38.576961431611892
 31
0.0
  0
LINE
  5
17BA
  8
TITLE
 10
177.79192972925011
 20
38.423454330981961
 30
0.0
 11
177.85815195723291
 21
38.489676558964753
 31
0.0
  0
LINE
  5
17BB
  8
TITLE
 10
178.42017100028249
 20
38.61527123878188
 30
0.0
 11
178.5058177253529
 21
38.70091796385578
 31
0.0
  0
LINE
  5
17BC
  8
TITLE
 10
178.42017100028249
 20
38.527986366134897
 30
0.0
 11
178.6134336205873
 21
38.721248986442852
 31
0.0
  0
LINE
  5
17BD
  8
TITLE
 10
178.42017100028249
 20
38.440701493491567
 30
0.0
 11
178.7250497232873
 21
38.745580216496208
 31
0.0
  0
LINE
  5
17BE
  8
TITLE
 10
178.42017100028249
 20
38.353416620844122
 30
0.0
 11
178.84123848161909
 21
38.774484102180772
 31
0.0
  0
LINE
  5
17BF
  8
TITLE
 10
177.44279023866159
 20
38.423454330981961
 30
0.0
 11
177.85815195723291
 21
38.83881604955301
 31
0.0
  0
LINE
  5
17C0
  8
TITLE
 10
177.53007511130861
 20
38.423454330981961
 30
0.0
 11
177.85815195723291
 21
38.75153117690617
 31
0.0
  0
LINE
  5
17C1
  8
TITLE
 10
178.42017100028249
 20
38.26613174819682
 30
0.0
 11
178.962738601902
 21
38.808699349816472
 31
0.0
  0
LINE
  5
17C2
  8
TITLE
 10
177.26822049336761
 20
38.423454330981961
 30
0.0
 11
177.85815195723291
 21
39.013385794843828
 31
0.0
  0
LINE
  5
17C3
  8
TITLE
 10
177.35550536601471
 20
38.423454330981961
 30
0.0
 11
177.85815195723291
 21
38.92610092220032
 31
0.0
  0
LINE
  5
17C4
  8
TITLE
 10
177.29934754902271
 20
39.414714985748759
 30
0.0
 11
177.7399208146397
 21
39.855288251358168
 31
0.0
  0
LINE
  5
17C5
  8
TITLE
 10
177.38663242166979
 20
39.414714985748759
 30
0.0
 11
177.82720568727959
 21
39.855288251358168
 31
0.0
  0
LINE
  5
17C6
  8
TITLE
 10
177.47391729431681
 20
39.414714985748759
 30
0.0
 11
177.85815195723291
 21
39.798949648664731
 31
0.0
  0
LINE
  5
17C7
  8
TITLE
 10
177.56120216696411
 20
39.414714985748759
 30
0.0
 11
177.85815195723291
 21
39.711664776017479
 31
0.0
  0
LINE
  5
17C8
  8
TITLE
 10
177.64848703961161
 20
39.414714985748759
 30
0.0
 11
177.85815195723291
 21
39.62437990337078
 31
0.0
  0
LINE
  5
17C9
  8
TITLE
 10
177.7357719122586
 20
39.414714985748759
 30
0.0
 11
177.85815195723291
 21
39.537095030723158
 31
0.0
  0
LINE
  5
17CA
  8
TITLE
 10
177.82305678490559
 20
39.414714985748759
 30
0.0
 11
177.85815195723291
 21
39.449810158075891
 31
0.0
  0
LINE
  5
17CB
  8
TITLE
 10
177.25988521308699
 20
34.661869526898691
 30
0.0
 11
177.85815195723291
 21
35.260136271048736
 31
0.0
  0
LINE
  5
17CC
  8
TITLE
 10
177.3100009515627
 20
34.624700392730773
 30
0.0
 11
177.85815195723291
 21
35.17285139840132
 31
0.0
  0
LINE
  5
17CD
  8
TITLE
 10
177.36083662384041
 20
34.588251192358321
 30
0.0
 11
177.85815195723291
 21
35.085566525753848
 31
0.0
  0
LINE
  5
17CE
  8
TITLE
 10
177.4123979934958
 20
34.552527689373122
 30
0.0
 11
177.85815195723291
 21
34.998281653107149
 31
0.0
  0
LINE
  5
17CF
  8
TITLE
 10
178.7072920514297
 20
34.88728814819207
 30
0.0
 11
178.92447534009759
 21
35.104471436859612
 31
0.0
  0
LINE
  5
17D0
  8
TITLE
 10
177.68133934730491
 20
34.385044679946759
 30
0.0
 11
177.85815195723291
 21
34.561857289874951
 31
0.0
  0
LINE
  5
17D1
  8
TITLE
 10
177.7374145998119
 20
34.353835059810081
 30
0.0
 11
177.85815195723291
 21
34.474572417227662
 31
0.0
  0
LINE
  5
17D2
  8
TITLE
 10
177.7942759570472
 20
34.323411544398141
 30
0.0
 11
177.85815195723291
 21
34.387287544584439
 31
0.0
  0
LINE
  5
17D3
  8
TITLE
 10
177.85193538549299
 20
34.293786100193273
 30
0.0
 11
177.85815195723291
 21
34.300002671937023
 31
0.0
  0
LINE
  5
17D4
  8
TITLE
 10
177.4646914769919
 20
34.517536300218687
 30
0.0
 11
177.85815195723291
 21
34.910996780459868
 31
0.0
  0
LINE
  5
17D5
  8
TITLE
 10
177.5177241707367
 20
34.483284121316693
 30
0.0
 11
177.85815195723291
 21
34.823711907812879
 31
0.0
  0
LINE
  5
17D6
  8
TITLE
 10
177.5715038817595
 20
34.449778959692068
 30
0.0
 11
177.85815195723291
 21
34.73642703516559
 31
0.0
  0
LINE
  5
17D7
  8
TITLE
 10
177.62603916207999
 20
34.417029367365217
 30
0.0
 11
177.85815195723291
 21
34.649142162521798
 31
0.0
  0
LINE
  5
17D8
  8
TITLE
 10
178.7072920514297
 20
34.974573020839188
 30
0.0
 11
178.7586009908606
 21
35.02588196027375
 31
0.0
  0
LINE
  5
17D9
  8
TITLE
 10
178.42017100028249
 20
36.433149422620772
 30
0.0
 11
178.9752751601203
 21
36.98825358246178
 31
0.0
  0
LINE
  5
17DA
  8
TITLE
 10
178.42017100028249
 20
36.695004040559041
 30
0.0
 11
178.7134205421859
 21
36.98825358246178
 31
0.0
  0
LINE
  5
17DB
  8
TITLE
 10
178.42017100028249
 20
36.6077191679151
 30
0.0
 11
178.80070541483269
 21
36.98825358246178
 31
0.0
  0
LINE
  5
17DC
  8
TITLE
 10
178.42017100028249
 20
36.520434295268082
 30
0.0
 11
178.8879902874728
 21
36.98825358246178
 31
0.0
  0
LINE
  5
17DD
  8
TITLE
 10
178.42017100028249
 20
36.956858658496841
 30
0.0
 11
178.45156592424411
 21
36.98825358246178
 31
0.0
  0
LINE
  5
17DE
  8
TITLE
 10
178.42017100028249
 20
36.869573785849532
 30
0.0
 11
178.53885079689121
 21
36.98825358246178
 31
0.0
  0
LINE
  5
17DF
  8
TITLE
 10
178.42017100028249
 20
36.782288913206159
 30
0.0
 11
178.6261356695386
 21
36.98825358246178
 31
0.0
  0
LINE
  5
17E0
  8
TITLE
 10
178.42017100028249
 20
37.916992257608086
 30
0.0
 11
179.52877310758771
 21
39.025594364917062
 31
0.0
  0
LINE
  5
17E1
  8
TITLE
 10
178.42017100028249
 20
37.829707384960813
 30
0.0
 11
179.70443841008861
 21
39.113974794770051
 31
0.0
  0
LINE
  5
17E2
  8
TITLE
 10
178.5127011256329
 20
37.834952637663832
 30
0.0
 11
179.9086611793789
 21
39.230912691410254
 31
0.0
  0
LINE
  5
17E3
  8
TITLE
 10
178.62195175007159
 20
37.856918389459338
 30
0.0
 11
180.17143789622639
 21
39.406404535614151
 31
0.0
  0
LINE
  5
17E4
  8
TITLE
 10
178.7343118213098
 20
37.88199358805015
 30
0.0
 11
180.7076064846139
 21
39.855288251358168
 31
0.0
  0
LINE
  5
17E5
  8
TITLE
 10
178.85011463170639
 20
37.910511525806967
 30
0.0
 11
180.79489135726121
 21
39.855288251358168
 31
0.0
  0
LINE
  5
17E6
  8
TITLE
 10
178.96976362207971
 20
37.94287564353337
 30
0.0
 11
180.88217622990851
 21
39.855288251358168
 31
0.0
  0
LINE
  5
17E7
  8
TITLE
 10
178.7072920514297
 20
34.800003275544888
 30
0.0
 11
180.89554235834279
 21
36.98825358246178
 31
0.0
  0
LINE
  5
17E8
  8
TITLE
 10
178.7072920514297
 20
34.71271840289775
 30
0.0
 11
180.98282723099021
 21
36.98825358246178
 31
0.0
  0
LINE
  5
17E9
  8
TITLE
 10
178.7072920514297
 20
34.625433530250923
 30
0.0
 11
181.07011210363751
 21
36.98825358246178
 31
0.0
  0
LINE
  5
17EA
  8
TITLE
 10
178.7072920514297
 20
34.538148657607117
 30
0.0
 11
181.1573969762845
 21
36.98825358246178
 31
0.0
  0
LINE
  5
17EB
  8
TITLE
 10
178.7072920514297
 20
34.450863784960262
 30
0.0
 11
180.47909126485229
 21
36.222662998378851
 31
0.0
  0
LINE
  5
17EC
  8
TITLE
 10
178.7072920514297
 20
34.363578912316477
 30
0.0
 11
180.4674022030251
 21
36.123689063912039
 31
0.0
  0
LINE
  5
17ED
  8
TITLE
 10
178.72166237584841
 20
34.290664364088187
 30
0.0
 11
180.45021234783201
 21
36.019214336071769
 31
0.0
  0
LINE
  5
17EE
  8
TITLE
 10
178.808947248496
 20
34.290664364088187
 30
0.0
 11
180.42631676081041
 21
35.908033876402811
 31
0.0
  0
LINE
  5
17EF
  8
TITLE
 10
178.89623212114299
 20
34.290664364088187
 30
0.0
 11
180.39392155695711
 21
35.788353799902453
 31
0.0
  0
LINE
  5
17F0
  8
TITLE
 10
178.98351699379
 20
34.290664364088187
 30
0.0
 11
180.3501351100588
 21
35.657282480356692
 31
0.0
  0
LINE
  5
17F1
  8
TITLE
 10
178.88241953136961
 20
36.284403845184912
 30
0.0
 11
179.5862692686498
 21
36.98825358246178
 31
0.0
  0
LINE
  5
17F2
  8
TITLE
 10
178.96970440401691
 20
36.284403845184912
 30
0.0
 11
179.67355414129719
 21
36.98825358246178
 31
0.0
  0
LINE
  5
17F3
  8
TITLE
 10
178.79513465872961
 20
36.284403845184912
 30
0.0
 11
179.4989843960027
 21
36.98825358246178
 31
0.0
  0
LINE
  5
17F4
  8
TITLE
 10
178.42017100028249
 20
36.345864549973953
 30
0.0
 11
179.06256003276701
 21
36.98825358246178
 31
0.0
  0
LINE
  5
17F5
  8
TITLE
 10
178.44599516814091
 20
36.284403845184912
 30
0.0
 11
179.14984490541411
 21
36.98825358246178
 31
0.0
  0
LINE
  5
17F6
  8
TITLE
 10
178.5332800407883
 20
36.284403845184912
 30
0.0
 11
179.2371297780617
 21
36.98825358246178
 31
0.0
  0
LINE
  5
17F7
  8
TITLE
 10
178.62056491343549
 20
36.284403845184912
 30
0.0
 11
179.3244146507088
 21
36.98825358246178
 31
0.0
  0
LINE
  5
17F8
  8
TITLE
 10
178.70784978608259
 20
36.284403845184912
 30
0.0
 11
179.41169952335571
 21
36.98825358246178
 31
0.0
  0
LINE
  5
17F9
  8
TITLE
 10
178.42017100028249
 20
38.178846875549652
 30
0.0
 11
179.09053220582391
 21
38.849208081094432
 31
0.0
  0
LINE
  5
17FA
  8
TITLE
 10
178.42017100028249
 20
38.091562002902812
 30
0.0
 11
179.22597544339459
 21
38.897366446014829
 31
0.0
  0
LINE
  5
17FB
  8
TITLE
 10
178.42017100028249
 20
38.004277130255851
 30
0.0
 11
179.3710363945861
 21
38.955142524558937
 31
0.0
  0
LINE
  5
17FC
  8
TITLE
 10
184.93086735857389
 20
38.317747530649143
 30
0.0
 11
186.415177265544
 21
39.802057437618679
 31
0.0
  0
LINE
  5
17FD
  8
TITLE
 10
185.01815223122131
 20
38.317747530649143
 30
0.0
 11
186.415177265544
 21
39.714772564971391
 31
0.0
  0
LINE
  5
17FE
  8
TITLE
 10
185.10543710386111
 20
38.317747530649143
 30
0.0
 11
186.415177265544
 21
39.627487692324692
 31
0.0
  0
LINE
  5
17FF
  8
TITLE
 10
185.19272197650821
 20
38.317747530649143
 30
0.0
 11
186.415177265544
 21
39.540202819677241
 31
0.0
  0
LINE
  5
1800
  8
TITLE
 10
185.28000684915551
 20
38.317747530649143
 30
0.0
 11
186.415177265544
 21
39.452917947030272
 31
0.0
  0
LINE
  5
1801
  8
TITLE
 10
185.3672917218027
 20
38.317747530649143
 30
0.0
 11
186.415177265544
 21
39.365633074382991
 31
0.0
  0
LINE
  5
1802
  8
TITLE
 10
184.75629761328
 20
38.317747530649143
 30
0.0
 11
185.4165327229926
 21
38.977982640358569
 31
0.0
  0
LINE
  5
1803
  8
TITLE
 10
184.84358248592679
 20
38.317747530649143
 30
0.0
 11
185.50381759563251
 21
38.977982640358569
 31
0.0
  0
LINE
  5
1804
  8
TITLE
 10
185.3434612796855
 20
35.937225527073203
 30
0.0
 11
186.9893401981364
 21
37.583104445524093
 31
0.0
  0
LINE
  5
1805
  8
TITLE
 10
184.53583911532451
 20
35.827882343885612
 30
0.0
 11
187.23669575390099
 21
38.528738982458492
 31
0.0
  0
LINE
  5
1806
  8
TITLE
 10
184.7065052689405
 20
35.736693879563852
 30
0.0
 11
187.18987184564571
 21
38.220060456265699
 31
0.0
  0
LINE
  5
1807
  8
TITLE
 10
184.81859340874351
 20
35.761497146719641
 30
0.0
 11
187.16506857848981
 21
38.107972316465947
 31
0.0
  0
LINE
  5
1808
  8
TITLE
 10
184.93666218679999
 20
35.792281052128828
 30
0.0
 11
187.13428467308071
 21
37.989903538409997
 31
0.0
  0
LINE
  5
1809
  8
TITLE
 10
185.0620236673679
 20
35.83035766004938
 30
0.0
 11
187.09620806515289
 21
37.864542057835102
 31
0.0
  0
LINE
  5
180A
  8
TITLE
 10
185.1966062580787
 20
35.877655378113438
 30
0.0
 11
187.04891034709601
 21
37.72995946713074
 31
0.0
  0
LINE
  5
180B
  8
TITLE
 10
184.53583911532451
 20
35.740597471242118
 30
0.0
 11
187.22506325416381
 21
38.429821610074463
 31
0.0
  0
LINE
  5
180C
  8
TITLE
 10
184.59945646041271
 20
35.716929943683112
 30
0.0
 11
187.209635781526
 21
38.32710926478979
 31
0.0
  0
LINE
  5
180D
  8
TITLE
 10
184.53583911532451
 20
38.970137759158291
 30
0.0
 11
184.54368399652881
 21
38.977982640358569
 31
0.0
  0
LINE
  5
180E
  8
TITLE
 10
184.53583911532451
 20
38.882852886510811
 30
0.0
 11
184.63096886916861
 21
38.977982640358569
 31
0.0
  0
LINE
  5
180F
  8
TITLE
 10
184.53583911532451
 20
38.79556801386385
 30
0.0
 11
184.71825374181569
 21
38.977982640358569
 31
0.0
  0
LINE
  5
1810
  8
TITLE
 10
183.15732368283571
 20
38.028046689904777
 30
0.0
 11
183.84005054913661
 21
38.710773556205702
 31
0.0
  0
LINE
  5
1811
  8
TITLE
 10
183.22273474111611
 20
38.006172875538788
 30
0.0
 11
183.91406439253009
 21
38.697502526952491
 31
0.0
  0
LINE
  5
1812
  8
TITLE
 10
183.28885476830879
 20
37.98500803008416
 30
0.0
 11
183.9798796460164
 21
38.676032907791708
 31
0.0
  0
LINE
  5
1813
  8
TITLE
 10
183.35569811517101
 20
37.964566504295369
 30
0.0
 11
183.9798796460164
 21
38.588748035144292
 31
0.0
  0
LINE
  5
1814
  8
TITLE
 10
183.63062360672549
 20
37.890352505265241
 30
0.0
 11
183.9798796460164
 21
38.239608544559466
 31
0.0
  0
LINE
  5
1815
  8
TITLE
 10
183.7013317111201
 20
37.87377573701221
 30
0.0
 11
183.9798796460164
 21
38.152323671915681
 31
0.0
  0
LINE
  5
1816
  8
TITLE
 10
183.42328000347581
 20
37.944863519952797
 30
0.0
 11
183.9798796460164
 21
38.501463162497117
 31
0.0
  0
LINE
  5
1817
  8
TITLE
 10
183.4916165907083
 20
37.925915234538131
 30
0.0
 11
183.9798796460164
 21
38.414178289853801
 31
0.0
  0
LINE
  5
1818
  8
TITLE
 10
183.5607250415062
 20
37.907738812692713
 30
0.0
 11
183.9798796460164
 21
38.32689341720674
 31
0.0
  0
LINE
  5
1819
  8
TITLE
 10
183.77287005082201
 20
37.858029204074292
 30
0.0
 11
183.9798796460164
 21
38.065038799268557
 31
0.0
  0
LINE
  5
181A
  8
TITLE
 10
183.84526070198081
 20
37.843134982585823
 30
0.0
 11
183.9798796460164
 21
37.977753926621382
 31
0.0
  0
LINE
  5
181B
  8
TITLE
 10
183.91852724209249
 20
37.829116650050452
 30
0.0
 11
183.9798796460164
 21
37.890469053974549
 31
0.0
  0
LINE
  5
181C
  8
TITLE
 10
184.66901274063261
 20
38.317747530649143
 30
0.0
 11
185.32924785034569
 21
38.977982640358569
 31
0.0
  0
LINE
  5
181D
  8
TITLE
 10
184.53583911532451
 20
38.44642852328213
 30
0.0
 11
185.06739323240421
 21
38.977982640358569
 31
0.0
  0
LINE
  5
181E
  8
TITLE
 10
184.53583911532451
 20
38.359143650635112
 30
0.0
 11
185.1546781050512
 21
38.977982640358569
 31
0.0
  0
LINE
  5
181F
  8
TITLE
 10
184.58172786798559
 20
38.317747530649143
 30
0.0
 11
185.24196297769871
 21
38.977982640358569
 31
0.0
  0
LINE
  5
1820
  8
TITLE
 10
184.53583911532451
 20
38.620998268573217
 30
0.0
 11
184.89282348710989
 21
38.977982640358569
 31
0.0
  0
LINE
  5
1821
  8
TITLE
 10
184.53583911532451
 20
38.53371339592605
 30
0.0
 11
184.98010835975711
 21
38.977982640358569
 31
0.0
  0
LINE
  5
1822
  8
TITLE
 10
184.53583911532451
 20
38.708283141220043
 30
0.0
 11
184.80553861446251
 21
38.977982640358569
 31
0.0
  0
LINE
  5
1823
  8
TITLE
 10
181.4302861585044
 20
39.006840217613828
 30
0.0
 11
182.00484228958121
 21
39.581396348687107
 31
0.0
  0
LINE
  5
1824
  8
TITLE
 10
181.47782837584069
 20
38.967097562296132
 30
0.0
 11
182.0525997903718
 21
39.541868976827111
 31
0.0
  0
LINE
  5
1825
  8
TITLE
 10
181.525880535081
 20
38.927864848896171
 30
0.0
 11
182.10103983979309
 21
39.503024153601032
 31
0.0
  0
LINE
  5
1826
  8
TITLE
 10
181.57444443055701
 20
38.889143871721778
 30
0.0
 11
182.1501659344832
 21
39.464865375644479
 31
0.0
  0
LINE
  5
1827
  8
TITLE
 10
181.6235220747578
 20
38.850936643278899
 30
0.0
 11
182.19998210041101
 21
39.427396668932097
 31
0.0
  0
LINE
  5
1828
  8
TITLE
 10
181.67311570255779
 20
38.81324539843191
 30
0.0
 11
182.2504929079812
 21
39.390622603855782
 31
0.0
  0
LINE
  5
1829
  8
TITLE
 10
181.72322777587399
 20
38.77607259910107
 30
0.0
 11
182.30170348939771
 21
39.354548312624281
 31
0.0
  0
LINE
  5
182A
  8
TITLE
 10
181.7738609889187
 20
38.73942093949811
 30
0.0
 11
182.3536195584837
 21
39.319179509063432
 31
0.0
  0
LINE
  5
182B
  8
TITLE
 10
182.1431634326787
 20
38.497729274735043
 30
0.0
 11
182.73739955812991
 21
39.091965400186488
 31
0.0
  0
LINE
  5
182C
  8
TITLE
 10
182.1980928200563
 20
38.465373789466149
 30
0.0
 11
182.79524385877971
 21
39.062524828189233
 31
0.0
  0
LINE
  5
182D
  8
TITLE
 10
182.25357921022459
 20
38.433575306990697
 30
0.0
 11
182.8538760133321
 21
39.033872110094677
 31
0.0
  0
LINE
  5
182E
  8
TITLE
 10
181.92891801792109
 20
38.632623350563257
 30
0.0
 11
182.51366704545609
 21
39.217372378097792
 31
0.0
  0
LINE
  5
182F
  8
TITLE
 10
181.98166759199771
 20
38.5980880519962
 30
0.0
 11
182.56847468222571
 21
39.184895142216902
 31
0.0
  0
LINE
  5
1830
  8
TITLE
 10
182.0349554842289
 20
38.564091071579817
 30
0.0
 11
182.6240259897674
 21
39.153161577118468
 31
0.0
  0
LINE
  5
1831
  8
TITLE
 10
182.0887859254301
 20
38.53063664013407
 30
0.0
 11
182.68033075128531
 21
39.122181465988731
 31
0.0
  0
LINE
  5
1832
  8
TITLE
 10
181.82501827393281
 20
38.703293351865767
 30
0.0
 11
182.40624743311719
 21
39.284522511049929
 31
0.0
  0
LINE
  5
1833
  8
TITLE
 10
181.8767028075886
 20
38.667693012874111
 30
0.0
 11
182.45959406049241
 21
39.250584265777611
 31
0.0
  0
LINE
  5
1834
  8
TITLE
 10
182.3662451093987
 20
38.37167146086697
 30
0.0
 11
182.9735582541206
 21
38.978984605592281
 31
0.0
  0
LINE
  5
1835
  8
TITLE
 10
182.42343652560291
 20
38.341578004427319
 30
0.0
 11
183.03463820121189
 21
38.95277968004013
 31
0.0
  0
LINE
  5
1836
  8
TITLE
 10
182.48120878989681
 20
38.312065396074338
 30
0.0
 11
183.0965658840953
 21
38.92742249026886
 31
0.0
  0
LINE
  5
1837
  8
TITLE
 10
182.30962804709131
 20
38.402339271206912
 30
0.0
 11
182.91330935425569
 21
39.006020578374482
 31
0.0
  0
LINE
  5
1838
  8
TITLE
 10
181.3367254414685
 20
39.087849245869457
 30
0.0
 11
181.9113635182766
 21
39.662487322676917
 31
0.0
  0
LINE
  5
1839
  8
TITLE
 10
181.38325230324961
 20
39.047091235002632
 30
0.0
 11
181.9577643571541
 21
39.621603288911011
 31
0.0
  0
LINE
  5
183A
  8
TITLE
 10
183.09260805503001
 20
38.050615934739497
 30
0.0
 11
183.7672288749504
 21
38.725236754659882
 31
0.0
  0
LINE
  5
183B
  8
TITLE
 10
182.5985237740708
 20
38.254810634949891
 30
0.0
 11
183.22303779240551
 21
38.879324653292329
 31
0.0
  0
LINE
  5
183C
  8
TITLE
 10
182.65808147510171
 20
38.227083463337209
 30
0.0
 11
183.28762230785631
 21
38.856624296095852
 31
0.0
  0
LINE
  5
183D
  8
TITLE
 10
182.5395687796057
 20
38.283140513136082
 30
0.0
 11
183.15935928626081
 21
38.902931019791147
 31
0.0
  0
LINE
  5
183E
  8
TITLE
 10
184.53583911532451
 20
35.915167216532751
 30
0.0
 11
185.36061468119979
 21
36.73994278240486
 31
0.0
  0
LINE
  5
183F
  8
TITLE
 10
183.1731908808176
 20
34.290664364088187
 30
0.0
 11
183.6805173432416
 21
34.797990826511978
 31
0.0
  0
LINE
  5
1840
  8
TITLE
 10
183.26047575346479
 20
34.290664364088187
 30
0.0
 11
183.71290877051561
 21
34.743097381139137
 31
0.0
  0
LINE
  5
1841
  8
TITLE
 10
183.34776062611181
 20
34.290664364088187
 30
0.0
 11
183.74530019779729
 21
34.688203935773231
 31
0.0
  0
LINE
  5
1842
  8
TITLE
 10
183.43504549875911
 20
34.290664364088187
 30
0.0
 11
183.77769162507141
 21
34.633310490400497
 31
0.0
  0
LINE
  5
1843
  8
TITLE
 10
183.5223303714061
 20
34.290664364088187
 30
0.0
 11
183.81008305235281
 21
34.578417045031131
 31
0.0
  0
LINE
  5
1844
  8
TITLE
 10
183.60961524405371
 20
34.290664364088187
 30
0.0
 11
183.8424744796269
 21
34.523523599661907
 31
0.0
  0
LINE
  5
1845
  8
TITLE
 10
183.6969001167005
 20
34.290664364088187
 30
0.0
 11
183.87486590690159
 21
34.468630154292612
 31
0.0
  0
LINE
  5
1846
  8
TITLE
 10
183.78418498934769
 20
34.290664364088187
 30
0.0
 11
183.9072573341829
 21
34.413736708923132
 31
0.0
  0
LINE
  5
1847
  8
TITLE
 10
183.8714698619948
 20
34.290664364088187
 30
0.0
 11
183.93964876145711
 21
34.35884326355405
 31
0.0
  0
LINE
  5
1848
  8
TITLE
 10
183.9587547346419
 20
34.290664364088187
 30
0.0
 11
183.97204018873171
 21
34.303949818184648
 31
0.0
  0
LINE
  5
1849
  8
TITLE
 10
183.68308752692701
 20
36.284403845184912
 30
0.0
 11
183.9798796460164
 21
36.581195964277612
 31
0.0
  0
LINE
  5
184A
  8
TITLE
 10
184.53583911532451
 20
36.089736961823533
 30
0.0
 11
184.97922932032981
 21
36.53312716682882
 31
0.0
  0
LINE
  5
184B
  8
TITLE
 10
184.53583911532451
 20
36.002452089179741
 30
0.0
 11
185.14253615227221
 21
36.609149126124137
 31
0.0
  0
LINE
  5
184C
  8
TITLE
 10
183.15937829105141
 20
36.284403845184912
 30
0.0
 11
183.86322802832461
 21
36.98825358246178
 31
0.0
  0
LINE
  5
184D
  8
TITLE
 10
183.2466631636988
 20
36.284403845184912
 30
0.0
 11
183.9505129009718
 21
36.98825358246178
 31
0.0
  0
LINE
  5
184E
  8
TITLE
 10
183.33394803634599
 20
36.284403845184912
 30
0.0
 11
183.9798796460164
 21
36.930335454862842
 31
0.0
  0
LINE
  5
184F
  8
TITLE
 10
183.42123290898559
 20
36.284403845184912
 30
0.0
 11
183.9798796460164
 21
36.843050582215682
 31
0.0
  0
LINE
  5
1850
  8
TITLE
 10
183.50851778163289
 20
36.284403845184912
 30
0.0
 11
183.9798796460164
 21
36.755765709568713
 31
0.0
  0
LINE
  5
1851
  8
TITLE
 10
183.59580265428011
 20
36.284403845184912
 30
0.0
 11
183.9798796460164
 21
36.66848083692129
 31
0.0
  0
LINE
  5
1852
  8
TITLE
 10
183.7703723995744
 20
36.284403845184912
 30
0.0
 11
183.9798796460164
 21
36.493911091630757
 31
0.0
  0
LINE
  5
1853
  8
TITLE
 10
183.8576572722215
 20
36.284403845184912
 30
0.0
 11
183.9798796460164
 21
36.406626218983469
 31
0.0
  0
LINE
  5
1854
  8
TITLE
 10
184.53583911532451
 20
36.177021834470807
 30
0.0
 11
184.8401198459066
 21
36.481302565057042
 31
0.0
  0
LINE
  5
1855
  8
TITLE
 10
184.53583911532451
 20
36.351591579764971
 30
0.0
 11
184.60175585154821
 21
36.417508315989132
 31
0.0
  0
LINE
  5
1856
  8
TITLE
 10
184.53583911532451
 20
36.26430670711779
 30
0.0
 11
184.7157710607689
 21
36.444238652562369
 31
0.0
  0
LINE
  5
1857
  8
TITLE
 10
183.94494214486889
 20
36.284403845184912
 30
0.0
 11
183.9798796460164
 21
36.319341346340131
 31
0.0
  0
LINE
  5
1858
  8
TITLE
 10
181.34020855524869
 20
34.290664364088187
 30
0.0
 11
183.00029737042411
 21
35.95075317927089
 31
0.0
  0
LINE
  5
1859
  8
TITLE
 10
181.42749342788881
 20
34.290664364088187
 30
0.0
 11
183.0326887976982
 21
35.895859733897687
 31
0.0
  0
LINE
  5
185A
  8
TITLE
 10
181.51477830053611
 20
34.290664364088187
 30
0.0
 11
183.06508022497991
 21
35.840966288532101
 31
0.0
  0
LINE
  5
185B
  8
TITLE
 10
181.6020631731829
 20
34.290664364088187
 30
0.0
 11
183.09747165225431
 21
35.786072843159239
 31
0.0
  0
LINE
  5
185C
  8
TITLE
 10
181.6893480458302
 20
34.290664364088187
 30
0.0
 11
183.1298630795356
 21
35.73117939779015
 31
0.0
  0
LINE
  5
185D
  8
TITLE
 10
182.2478221248825
 20
35.721987169608362
 30
0.0
 11
182.4974168179273
 21
35.971581862649522
 31
0.0
  0
LINE
  5
185E
  8
TITLE
 10
182.2802135521639
 20
35.667093724239137
 30
0.0
 11
182.58470169057421
 21
35.971581862649522
 31
0.0
  0
LINE
  5
185F
  8
TITLE
 10
182.27556520902121
 20
35.575160508452733
 30
0.0
 11
182.6719865632212
 21
35.971581862649522
 31
0.0
  0
LINE
  5
1860
  8
TITLE
 10
182.2247665736887
 20
35.43707700046933
 30
0.0
 11
182.75927143586881
 21
35.971581862649522
 31
0.0
  0
LINE
  5
1861
  8
TITLE
 10
182.11825641577821
 20
35.941560951085293
 30
0.0
 11
182.14827732733849
 21
35.971581862649522
 31
0.0
  0
LINE
  5
1862
  8
TITLE
 10
182.15064784305261
 20
35.886667505716353
 30
0.0
 11
182.2355621999854
 21
35.971581862649522
 31
0.0
  0
LINE
  5
1863
  8
TITLE
 10
182.18303927033401
 20
35.831774060346852
 30
0.0
 11
182.3228470726329
 21
35.971581862649522
 31
0.0
  0
LINE
  5
1864
  8
TITLE
 10
182.2154306976083
 20
35.776880614977443
 30
0.0
 11
182.41013194528011
 21
35.971581862649522
 31
0.0
  0
LINE
  5
1865
  8
TITLE
 10
181.8501052013514
 20
36.284403845184912
 30
0.0
 11
182.5539549386246
 21
36.98825358246178
 31
0.0
  0
LINE
  5
1866
  8
TITLE
 10
181.93739007399839
 20
36.284403845184912
 30
0.0
 11
182.6412398112719
 21
36.98825358246178
 31
0.0
  0
LINE
  5
1867
  8
TITLE
 10
182.0246749466458
 20
36.284403845184912
 30
0.0
 11
182.72852468391869
 21
36.98825358246178
 31
0.0
  0
LINE
  5
1868
  8
TITLE
 10
182.11195981929291
 20
36.284403845184912
 30
0.0
 11
182.81580955656599
 21
36.98825358246178
 31
0.0
  0
LINE
  5
1869
  8
TITLE
 10
182.28652956458691
 20
36.284403845184912
 30
0.0
 11
182.99037930186029
 21
36.98825358246178
 31
0.0
  0
LINE
  5
186A
  8
TITLE
 10
182.3738144372341
 20
36.284403845184912
 30
0.0
 11
183.0776641745075
 21
36.98825358246178
 31
0.0
  0
LINE
  5
186B
  8
TITLE
 10
182.1992446919399
 20
36.284403845184912
 30
0.0
 11
182.90309442921321
 21
36.98825358246178
 31
0.0
  0
LINE
  5
186C
  8
TITLE
 10
181.3263959654754
 20
36.284403845184912
 30
0.0
 11
182.03024570274869
 21
36.98825358246178
 31
0.0
  0
LINE
  5
186D
  8
TITLE
 10
181.4136808381229
 20
36.284403845184912
 30
0.0
 11
182.1175305753957
 21
36.98825358246178
 31
0.0
  0
LINE
  5
186E
  8
TITLE
 10
181.5009657107698
 20
36.284403845184912
 30
0.0
 11
182.20481544804289
 21
36.98825358246178
 31
0.0
  0
LINE
  5
186F
  8
TITLE
 10
181.5882505834098
 20
36.284403845184912
 30
0.0
 11
182.29210032069039
 21
36.98825358246178
 31
0.0
  0
LINE
  5
1870
  8
TITLE
 10
181.67553545605691
 20
36.284403845184912
 30
0.0
 11
182.3793851933377
 21
36.98825358246178
 31
0.0
  0
LINE
  5
1871
  8
TITLE
 10
181.76282032870401
 20
36.284403845184912
 30
0.0
 11
182.4666700659846
 21
36.98825358246178
 31
0.0
  0
LINE
  5
1872
  8
TITLE
 10
182.90983467440711
 20
37.431418190884472
 30
0.0
 11
183.09241455760511
 21
37.613998074085849
 31
0.0
  0
LINE
  5
1873
  8
TITLE
 10
182.82254980175969
 20
37.431418190884472
 30
0.0
 11
183.09241455760511
 21
37.701282946733151
 31
0.0
  0
LINE
  5
1874
  8
TITLE
 10
182.9971195470475
 20
37.431418190884472
 30
0.0
 11
183.09241455760511
 21
37.526713201438731
 31
0.0
  0
LINE
  5
1875
  8
TITLE
 10
183.08440441969401
 20
37.431418190884472
 30
0.0
 11
183.09241455760511
 21
37.439428328791713
 31
0.0
  0
LINE
  5
1876
  8
TITLE
 10
181.7868426202308
 20
34.300874065841661
 30
0.0
 11
183.16225450681
 21
35.676285952420791
 31
0.0
  0
LINE
  5
1877
  8
TITLE
 10
181.89893473208431
 20
34.325681305047809
 30
0.0
 11
183.19464593408429
 21
35.621392507051233
 31
0.0
  0
LINE
  5
1878
  8
TITLE
 10
182.0237603146042
 20
34.363222014924268
 30
0.0
 11
183.227037361366
 21
35.566499061682151
 31
0.0
  0
LINE
  5
1879
  8
TITLE
 10
182.16881928277451
 20
34.420996110446751
 30
0.0
 11
183.25942878864001
 21
35.511605616312778
 31
0.0
  0
LINE
  5
187A
  8
TITLE
 10
182.35633628156239
 20
34.521228236591909
 30
0.0
 11
183.2918202159143
 21
35.456712170943227
 31
0.0
  0
LINE
  5
187B
  8
TITLE
 10
182.86325924315099
 20
34.679011707588252
 30
0.0
 11
183.4213859250259
 21
35.237138389466438
 31
0.0
  0
LINE
  5
187C
  8
TITLE
 10
182.8956506704252
 20
34.624118262218701
 30
0.0
 11
183.45377735230011
 21
35.182244944093298
 31
0.0
  0
LINE
  5
187D
  8
TITLE
 10
182.9280420976994
 20
34.569224816849797
 30
0.0
 11
183.48616877958159
 21
35.12735149872772
 31
0.0
  0
LINE
  5
187E
  8
TITLE
 10
182.960433524981
 20
34.514331371480239
 30
0.0
 11
183.51856020685591
 21
35.072458053354808
 31
0.0
  0
LINE
  5
187F
  8
TITLE
 10
182.9928249522554
 20
34.459437926110887
 30
0.0
 11
183.55095163413731
 21
35.017564607989208
 31
0.0
  0
LINE
  5
1880
  8
TITLE
 10
183.0252163795368
 20
34.404544480741798
 30
0.0
 11
183.5833430614116
 21
34.962671162616481
 31
0.0
  0
LINE
  5
1881
  8
TITLE
 10
182.7660849613211
 20
34.843692043696237
 30
0.0
 11
183.32421164319589
 21
35.401818725574607
 31
0.0
  0
LINE
  5
1882
  8
TITLE
 10
182.79847638859559
 20
34.788798598330203
 30
0.0
 11
183.3566030704703
 21
35.346925280204793
 31
0.0
  0
LINE
  5
1883
  8
TITLE
 10
182.83086781586951
 20
34.73390515295781
 30
0.0
 11
183.38899449775161
 21
35.292031834835527
 31
0.0
  0
LINE
  5
1884
  8
TITLE
 10
183.05760780681089
 20
34.349651035372261
 30
0.0
 11
183.61573448868569
 21
34.90777771725044
 31
0.0
  0
LINE
  5
1885
  8
TITLE
 10
183.08999923408561
 20
34.294757590003037
 30
0.0
 11
183.64812591596689
 21
34.852884271877429
 31
0.0
  0
LINE
  5
1886
  8
TITLE
 10
182.4610993098814
 20
36.284403845184912
 30
0.0
 11
183.16494904715461
 21
36.98825358246178
 31
0.0
  0
LINE
  5
1887
  8
TITLE
 10
182.8975236731099
 20
36.284403845184912
 30
0.0
 11
183.6013734103831
 21
36.98825358246178
 31
0.0
  0
LINE
  5
1888
  8
TITLE
 10
182.98480854575701
 20
36.284403845184912
 30
0.0
 11
183.68865828303069
 21
36.98825358246178
 31
0.0
  0
LINE
  5
1889
  8
TITLE
 10
183.07209341840431
 20
36.284403845184912
 30
0.0
 11
183.77594315567751
 21
36.98825358246178
 31
0.0
  0
LINE
  5
188A
  8
TITLE
 10
182.5483841825214
 20
36.284403845184912
 30
0.0
 11
183.25223391980171
 21
36.98825358246178
 31
0.0
  0
LINE
  5
188B
  8
TITLE
 10
182.63566905516871
 20
36.284403845184912
 30
0.0
 11
183.3395187924491
 21
36.98825358246178
 31
0.0
  0
LINE
  5
188C
  8
TITLE
 10
182.72295392781589
 20
36.284403845184912
 30
0.0
 11
183.4268036650891
 21
36.98825358246178
 31
0.0
  0
LINE
  5
188D
  8
TITLE
 10
182.810238800463
 20
36.284403845184912
 30
0.0
 11
183.5140885377362
 21
36.98825358246178
 31
0.0
  0
LINE
  5
188E
  8
TITLE
 10
181.3387069667657
 20
37.431418190884472
 30
0.0
 11
182.1207622304093
 21
38.21347345452439
 31
0.0
  0
LINE
  5
188F
  8
TITLE
 10
181.425991839413
 20
37.431418190884472
 30
0.0
 11
182.20804710305589
 21
38.21347345452439
 31
0.0
  0
LINE
  5
1890
  8
TITLE
 10
181.51327671205959
 20
37.431418190884472
 30
0.0
 11
182.29533197569589
 21
38.21347345452439
 31
0.0
  0
LINE
  5
1891
  8
TITLE
 10
181.6005615847069
 20
37.431418190884472
 30
0.0
 11
182.38261684834319
 21
38.21347345452439
 31
0.0
  0
LINE
  5
1892
  8
TITLE
 10
181.68784645735431
 20
37.431418190884472
 30
0.0
 11
182.46990172099049
 21
38.21347345452439
 31
0.0
  0
LINE
  5
1893
  8
TITLE
 10
181.77513133000119
 20
37.431418190884472
 30
0.0
 11
182.55718659363751
 21
38.21347345452439
 31
0.0
  0
LINE
  5
1894
  8
TITLE
 10
181.8624162026484
 20
37.431418190884472
 30
0.0
 11
182.64447146628461
 21
38.21347345452439
 31
0.0
  0
LINE
  5
1895
  8
TITLE
 10
182.47341031117151
 20
37.431418190884472
 30
0.0
 11
183.09241455760511
 21
38.050422437314147
 31
0.0
  0
LINE
  5
1896
  8
TITLE
 10
182.56069518381881
 20
37.431418190884472
 30
0.0
 11
183.09241455760511
 21
37.963137564670809
 31
0.0
  0
LINE
  5
1897
  8
TITLE
 10
182.64798005646571
 20
37.431418190884472
 30
0.0
 11
183.09241455760511
 21
37.875852692023919
 31
0.0
  0
LINE
  5
1898
  8
TITLE
 10
182.73526492911299
 20
37.431418190884472
 30
0.0
 11
183.09241455760511
 21
37.78856781938012
 31
0.0
  0
LINE
  5
1899
  8
TITLE
 10
181.94970107529571
 20
37.431418190884472
 30
0.0
 11
183.35313539321939
 21
38.834852508812233
 31
0.0
  0
LINE
  5
189A
  8
TITLE
 10
182.03698594794301
 20
37.431418190884472
 30
0.0
 11
183.41960141655591
 21
38.814033659504851
 31
0.0
  0
LINE
  5
189B
  8
TITLE
 10
182.12427082058281
 20
37.431418190884472
 30
0.0
 11
183.48704672587141
 21
38.794194096169868
 31
0.0
  0
LINE
  5
189C
  8
TITLE
 10
182.21155569323
 20
37.431418190884472
 30
0.0
 11
183.55549984517961
 21
38.77536234283054
 31
0.0
  0
LINE
  5
189D
  8
TITLE
 10
182.2988405658773
 20
37.431418190884472
 30
0.0
 11
183.62499169826
 21
38.75756932326729
 31
0.0
  0
LINE
  5
189E
  8
TITLE
 10
182.38612543852409
 20
37.431418190884472
 30
0.0
 11
183.6955558648142
 21
38.740848617178308
 31
0.0
  0
LINE
  5
189F
  8
TITLE
 10
188.25084515361891
 20
39.019179146300772
 30
0.0
 11
189.0869542586766
 21
39.855288251358168
 31
0.0
  0
LINE
  5
18A0
  8
TITLE
 10
188.25084515361891
 20
38.931894273653803
 30
0.0
 11
189.12927505564039
 21
39.810324175678872
 31
0.0
  0
LINE
  5
18A1
  8
TITLE
 10
188.25084515361891
 20
38.844609401006792
 30
0.0
 11
189.12927505564039
 21
39.723039303031712
 31
0.0
  0
LINE
  5
18A2
  8
TITLE
 10
188.25084515361891
 20
38.757324528359469
 30
0.0
 11
189.12927505564039
 21
39.63575443038777
 31
0.0
  0
LINE
  5
18A3
  8
TITLE
 10
187.4800643115928
 20
37.724689068395413
 30
0.0
 11
189.12927505564039
 21
39.373899812446354
 31
0.0
  0
LINE
  5
18A4
  8
TITLE
 10
187.5673491842401
 20
37.724689068395413
 30
0.0
 11
189.12927505564039
 21
39.286614939799492
 31
0.0
  0
LINE
  5
18A5
  8
TITLE
 10
187.6546340568872
 20
37.724689068395413
 30
0.0
 11
189.12927505564039
 21
39.199330067152182
 31
0.0
  0
LINE
  5
18A6
  8
TITLE
 10
187.74191892953439
 20
37.724689068395413
 30
0.0
 11
189.12927505564039
 21
39.112045194505221
 31
0.0
  0
LINE
  5
18A7
  8
TITLE
 10
187.8292038021815
 20
37.724689068395413
 30
0.0
 11
189.12927505564039
 21
39.024760321858381
 31
0.0
  0
LINE
  5
18A8
  8
TITLE
 10
188.25084515361891
 20
38.67003965571223
 30
0.0
 11
189.12927505564039
 21
39.548469557740802
 31
0.0
  0
LINE
  5
18A9
  8
TITLE
 10
188.25084515361891
 20
38.582754783065191
 30
0.0
 11
189.12927505564039
 21
39.461184685093642
 31
0.0
  0
LINE
  5
18AA
  8
TITLE
 10
187.42261117260369
 20
37.929090547344302
 30
0.0
 11
188.07044939141869
 21
38.57692876616624
 31
0.0
  0
LINE
  5
18AB
  8
TITLE
 10
187.42261117260369
 20
37.84180567470078
 30
0.0
 11
188.15773426406551
 21
38.57692876616624
 31
0.0
  0
LINE
  5
18AC
  8
TITLE
 10
187.42261117260369
 20
37.75452080205347
 30
0.0
 11
188.24501913671261
 21
38.57692876616624
 31
0.0
  0
LINE
  5
18AD
  8
TITLE
 10
187.42261117260369
 20
38.016375419991292
 30
0.0
 11
187.9831645187783
 21
38.57692876616624
 31
0.0
  0
LINE
  5
18AE
  8
TITLE
 10
187.42261117260369
 20
38.278230037933113
 30
0.0
 11
187.7213099008369
 21
38.57692876616624
 31
0.0
  0
LINE
  5
18AF
  8
TITLE
 10
187.42261117260369
 20
38.19094516528569
 30
0.0
 11
187.80859477348409
 21
38.57692876616624
 31
0.0
  0
LINE
  5
18B0
  8
TITLE
 10
187.42261117260369
 20
38.103660292638452
 30
0.0
 11
187.89587964613111
 21
38.57692876616624
 31
0.0
  0
LINE
  5
18B1
  8
TITLE
 10
187.42261117260369
 20
38.452799783226851
 30
0.0
 11
187.54674015554241
 21
38.57692876616624
 31
0.0
  0
LINE
  5
18B2
  8
TITLE
 10
187.42261117260369
 20
38.365514910579812
 30
0.0
 11
187.63402502819011
 21
38.57692876616624
 31
0.0
  0
LINE
  5
18B3
  8
TITLE
 10
188.1783432927628
 20
37.724689068395413
 30
0.0
 11
189.12927505564039
 21
38.675620831276319
 31
0.0
  0
LINE
  5
18B4
  8
TITLE
 10
187.42261117260369
 20
38.540084655874132
 30
0.0
 11
187.45945528289559
 21
38.57692876616624
 31
0.0
  0
LINE
  5
18B5
  8
TITLE
 10
188.003773547469
 20
37.724689068395413
 30
0.0
 11
189.12927505564039
 21
38.850190576567293
 31
0.0
  0
LINE
  5
18B6
  8
TITLE
 10
188.0910584201157
 20
37.724689068395413
 30
0.0
 11
189.12927505564039
 21
38.762905703920012
 31
0.0
  0
LINE
  5
18B7
  8
TITLE
 10
187.91648867482141
 20
37.724689068395413
 30
0.0
 11
189.12927505564039
 21
38.937475449214112
 31
0.0
  0
LINE
  5
18B8
  8
TITLE
 10
188.25084515361891
 20
39.106464018947747
 30
0.0
 11
188.99966938602921
 21
39.855288251358168
 31
0.0
  0
LINE
  5
18B9
  8
TITLE
 10
188.25084515361891
 20
39.630173254823937
 30
0.0
 11
188.4759601501535
 21
39.855288251358168
 31
0.0
  0
LINE
  5
18BA
  8
TITLE
 10
188.25084515361891
 20
39.542888382176521
 30
0.0
 11
188.5632450228008
 21
39.855288251358168
 31
0.0
  0
LINE
  5
18BB
  8
TITLE
 10
188.25084515361891
 20
39.455603509529361
 30
0.0
 11
188.65052989544071
 21
39.855288251358168
 31
0.0
  0
LINE
  5
18BC
  8
TITLE
 10
188.25084515361891
 20
39.368318636885867
 30
0.0
 11
188.7378147680877
 21
39.855288251358168
 31
0.0
  0
LINE
  5
18BD
  8
TITLE
 10
188.25084515361891
 20
39.281033764238842
 30
0.0
 11
188.82509964073461
 21
39.855288251358168
 31
0.0
  0
LINE
  5
18BE
  8
TITLE
 10
188.25084515361891
 20
39.193748891591717
 30
0.0
 11
188.91238451338199
 21
39.855288251358168
 31
0.0
  0
LINE
  5
18BF
  8
TITLE
 10
188.25084515361891
 20
39.80474300011808
 30
0.0
 11
188.30139040485881
 21
39.855288251358168
 31
0.0
  0
LINE
  5
18C0
  8
TITLE
 10
188.25084515361891
 20
39.717458127470792
 30
0.0
 11
188.38867527750639
 21
39.855288251358168
 31
0.0
  0
LINE
  5
18C1
  8
TITLE
 10
188.25084515361891
 20
35.702353985734121
 30
0.0
 11
189.12927505564039
 21
36.58078388775904
 31
0.0
  0
LINE
  5
18C2
  8
TITLE
 10
188.25084515361891
 20
35.615069113086818
 30
0.0
 11
189.12927505564039
 21
36.493499015111801
 31
0.0
  0
LINE
  5
18C3
  8
TITLE
 10
188.25084515361891
 20
35.527784240439971
 30
0.0
 11
189.12927505564039
 21
36.406214142464783
 31
0.0
  0
LINE
  5
18C4
  8
TITLE
 10
188.25084515361891
 20
35.440499367796171
 30
0.0
 11
189.12927505564039
 21
36.318929269817652
 31
0.0
  0
LINE
  5
18C5
  8
TITLE
 10
188.25084515361891
 20
35.353214495149317
 30
0.0
 11
189.12927505564039
 21
36.231644397174151
 31
0.0
  0
LINE
  5
18C6
  8
TITLE
 10
188.25084515361891
 20
35.265929622501901
 30
0.0
 11
189.12927505564039
 21
36.144359524527289
 31
0.0
  0
LINE
  5
18C7
  8
TITLE
 10
188.25084515361891
 20
35.178644749854733
 30
0.0
 11
189.12927505564039
 21
36.057074651879852
 31
0.0
  0
LINE
  5
18C8
  8
TITLE
 10
188.25084515361891
 20
35.964208603671757
 30
0.0
 11
189.12927505564039
 21
36.84263850570062
 31
0.0
  0
LINE
  5
18C9
  8
TITLE
 10
188.25084515361891
 20
35.87692373102476
 30
0.0
 11
189.12927505564039
 21
36.75535363305351
 31
0.0
  0
LINE
  5
18CA
  8
TITLE
 10
188.25084515361891
 20
35.789638858377643
 30
0.0
 11
189.12927505564039
 21
36.668068760406477
 31
0.0
  0
LINE
  5
18CB
  8
TITLE
 10
187.27557989520551
 20
34.290664364088187
 30
0.0
 11
188.12781959297189
 21
35.142904061858488
 31
0.0
  0
LINE
  5
18CC
  8
TITLE
 10
187.3628647678521
 20
34.290664364088187
 30
0.0
 11
188.21510446561899
 21
35.142904061858488
 31
0.0
  0
LINE
  5
18CD
  8
TITLE
 10
187.45014964049969
 20
34.290664364088187
 30
0.0
 11
189.12927505564039
 21
35.969789779236201
 31
0.0
  0
LINE
  5
18CE
  8
TITLE
 10
187.53743451314651
 20
34.290664364088187
 30
0.0
 11
189.12927505564039
 21
35.882504906589219
 31
0.0
  0
LINE
  5
18CF
  8
TITLE
 10
187.62471938579401
 20
34.290664364088187
 30
0.0
 11
189.12927505564039
 21
35.795220033941909
 31
0.0
  0
LINE
  5
18D0
  8
TITLE
 10
187.7120042584408
 20
34.290664364088187
 30
0.0
 11
189.12927505564039
 21
35.707935161295069
 31
0.0
  0
LINE
  5
18D1
  8
TITLE
 10
187.7992891310808
 20
34.290664364088187
 30
0.0
 11
189.12927505564039
 21
35.620650288647781
 31
0.0
  0
LINE
  5
18D2
  8
TITLE
 10
187.88657400372799
 20
34.290664364088187
 30
0.0
 11
189.12927505564039
 21
35.53336541600045
 31
0.0
  0
LINE
  5
18D3
  8
TITLE
 10
187.9738588763752
 20
34.290664364088187
 30
0.0
 11
189.12927505564039
 21
35.446080543353062
 31
0.0
  0
LINE
  5
18D4
  8
TITLE
 10
188.06114374902211
 20
34.290664364088187
 30
0.0
 11
189.12927505564039
 21
35.358795670706208
 31
0.0
  0
LINE
  5
18D5
  8
TITLE
 10
188.14842862166941
 20
34.290664364088187
 30
0.0
 11
189.12927505564039
 21
35.27151079806282
 31
0.0
  0
LINE
  5
18D6
  8
TITLE
 10
188.2357134943168
 20
34.290664364088187
 30
0.0
 11
189.12927505564039
 21
35.184225925415717
 31
0.0
  0
LINE
  5
18D7
  8
TITLE
 10
188.3229983669637
 20
34.290664364088187
 30
0.0
 11
189.17523806473071
 21
35.142904061858488
 31
0.0
  0
LINE
  5
18D8
  8
TITLE
 10
188.4102832396112
 20
34.290664364088187
 30
0.0
 11
189.26252293737781
 21
35.142904061858488
 31
0.0
  0
LINE
  5
18D9
  8
TITLE
 10
188.49756811225811
 20
34.290664364088187
 30
0.0
 11
189.34980781002491
 21
35.142904061858488
 31
0.0
  0
LINE
  5
18DA
  8
TITLE
 10
188.5848529849053
 20
34.290664364088187
 30
0.0
 11
189.4370926826719
 21
35.142904061858488
 31
0.0
  0
LINE
  5
18DB
  8
TITLE
 10
188.25084515361891
 20
36.83705733013619
 30
0.0
 11
189.12927505564039
 21
37.715487232164961
 31
0.0
  0
LINE
  5
18DC
  8
TITLE
 10
188.25084515361891
 20
36.749772457489222
 30
0.0
 11
189.12927505564039
 21
37.628202359517907
 31
0.0
  0
LINE
  5
18DD
  8
TITLE
 10
188.25084515361891
 20
36.662487584842047
 30
0.0
 11
189.12927505564039
 21
37.540917486870811
 31
0.0
  0
LINE
  5
18DE
  8
TITLE
 10
188.25084515361891
 20
36.57520271219812
 30
0.0
 11
189.12927505564039
 21
37.453632614223203
 31
0.0
  0
LINE
  5
18DF
  8
TITLE
 10
188.25084515361891
 20
36.487917839551152
 30
0.0
 11
189.12927505564039
 21
37.366347741576341
 31
0.0
  0
LINE
  5
18E0
  8
TITLE
 10
188.25084515361891
 20
36.400632966907892
 30
0.0
 11
189.12927505564039
 21
37.279062868929053
 31
0.0
  0
LINE
  5
18E1
  8
TITLE
 10
188.25084515361891
 20
36.313348094260469
 30
0.0
 11
189.12927505564039
 21
37.191777996282219
 31
0.0
  0
LINE
  5
18E2
  8
TITLE
 10
188.25084515361891
 20
36.226063221613202
 30
0.0
 11
189.12927505564039
 21
37.10449312363842
 31
0.0
  0
LINE
  5
18E3
  8
TITLE
 10
188.25084515361891
 20
36.138778348966298
 30
0.0
 11
189.12927505564039
 21
37.017208250991303
 31
0.0
  0
LINE
  5
18E4
  8
TITLE
 10
188.25084515361891
 20
36.05149347631906
 30
0.0
 11
189.12927505564039
 21
36.92992337834778
 31
0.0
  0
LINE
  5
18E5
  8
TITLE
 10
188.25084515361891
 20
37.709906056600801
 30
0.0
 11
189.12927505564039
 21
38.588335958629223
 31
0.0
  0
LINE
  5
18E6
  8
TITLE
 10
188.25084515361891
 20
37.622621183953768
 30
0.0
 11
189.20515273582421
 21
38.57692876616624
 31
0.0
  0
LINE
  5
18E7
  8
TITLE
 10
188.25084515361891
 20
37.53533631130982
 30
0.0
 11
189.2924376084714
 21
38.57692876616624
 31
0.0
  0
LINE
  5
18E8
  8
TITLE
 10
188.25084515361891
 20
37.448051438662851
 30
0.0
 11
189.37972248111839
 21
38.57692876616624
 31
0.0
  0
LINE
  5
18E9
  8
TITLE
 10
188.25084515361891
 20
37.360766566015549
 30
0.0
 11
189.4670073537655
 21
38.57692876616624
 31
0.0
  0
LINE
  5
18EA
  8
TITLE
 10
185.45457659444989
 20
38.317747530649143
 30
0.0
 11
186.415177265544
 21
39.27834820173581
 31
0.0
  0
LINE
  5
18EB
  8
TITLE
 10
185.54186146709699
 20
38.317747530649143
 30
0.0
 11
186.415177265544
 21
39.191063329088848
 31
0.0
  0
LINE
  5
18EC
  8
TITLE
 10
185.62914633974421
 20
38.317747530649143
 30
0.0
 11
186.415177265544
 21
39.103778456445028
 31
0.0
  0
LINE
  5
18ED
  8
TITLE
 10
186.22070860472331
 20
38.036461069163828
 30
0.0
 11
187.16223017592151
 21
38.977982640358569
 31
0.0
  0
LINE
  5
18EE
  8
TITLE
 10
186.19397826814961
 20
37.922445859943281
 30
0.0
 11
187.2495150485687
 21
38.977982640358569
 31
0.0
  0
LINE
  5
18EF
  8
TITLE
 10
185.71643121239131
 20
38.317747530649143
 30
0.0
 11
186.415177265544
 21
39.016493583797761
 31
0.0
  0
LINE
  5
18F0
  8
TITLE
 10
185.8037160850385
 20
38.317747530649143
 30
0.0
 11
186.4639511947442
 21
38.977982640358569
 31
0.0
  0
LINE
  5
18F1
  8
TITLE
 10
185.8910009576858
 20
38.317747530649143
 30
0.0
 11
186.55123606739161
 21
38.977982640358569
 31
0.0
  0
LINE
  5
18F2
  8
TITLE
 10
185.9782858303258
 20
38.317747530649143
 30
0.0
 11
186.6385209400386
 21
38.977982640358569
 31
0.0
  0
LINE
  5
18F3
  8
TITLE
 10
186.06557070297271
 20
38.317747530649143
 30
0.0
 11
186.72580581268559
 21
38.977982640358569
 31
0.0
  0
LINE
  5
18F4
  8
TITLE
 10
186.1528555756199
 20
38.317747530649143
 30
0.0
 11
186.81309068533301
 21
38.977982640358569
 31
0.0
  0
LINE
  5
18F5
  8
TITLE
 10
186.2401404482668
 20
38.317747530649143
 30
0.0
 11
186.90037555798031
 21
38.977982640358569
 31
0.0
  0
LINE
  5
18F6
  8
TITLE
 10
186.2522682942305
 20
38.24259050395851
 30
0.0
 11
186.98766043062699
 21
38.977982640358569
 31
0.0
  0
LINE
  5
18F7
  8
TITLE
 10
186.2396107474228
 20
38.142648084510462
 30
0.0
 11
187.07494530327421
 21
38.977982640358569
 31
0.0
  0
LINE
  5
18F8
  8
TITLE
 10
185.57991604706569
 20
39.141365964434712
 30
0.0
 11
186.2938383339889
 21
39.855288251358168
 31
0.0
  0
LINE
  5
18F9
  8
TITLE
 10
185.57991604706569
 20
39.054081091787282
 30
0.0
 11
186.381123206636
 21
39.855288251358168
 31
0.0
  0
LINE
  5
18FA
  8
TITLE
 10
185.57991604706569
 20
39.665075200310397
 30
0.0
 11
185.77012909811299
 21
39.855288251358168
 31
0.0
  0
LINE
  5
18FB
  8
TITLE
 10
185.57991604706569
 20
39.577790327663273
 30
0.0
 11
185.8574139707604
 21
39.855288251358168
 31
0.0
  0
LINE
  5
18FC
  8
TITLE
 10
185.57991604706569
 20
39.49050545501656
 30
0.0
 11
185.9446988434002
 21
39.855288251358168
 31
0.0
  0
LINE
  5
18FD
  8
TITLE
 10
185.57991604706569
 20
39.403220582372782
 30
0.0
 11
186.0319837160479
 21
39.855288251358168
 31
0.0
  0
LINE
  5
18FE
  8
TITLE
 10
185.57991604706569
 20
39.315935709725473
 30
0.0
 11
186.11926858869469
 21
39.855288251358168
 31
0.0
  0
LINE
  5
18FF
  8
TITLE
 10
185.57991604706569
 20
39.228650837078213
 30
0.0
 11
186.20655346134191
 21
39.855288251358168
 31
0.0
  0
LINE
  5
1900
  8
TITLE
 10
185.57991604706569
 20
39.839644945604853
 30
0.0
 11
185.59555935281901
 21
39.855288251358168
 31
0.0
  0
LINE
  5
1901
  8
TITLE
 10
185.57991604706569
 20
39.752360072957721
 30
0.0
 11
185.682844225466
 21
39.855288251358168
 31
0.0
  0
LINE
  5
1902
  8
TITLE
 10
185.57991604706569
 20
35.47540131328325
 30
0.0
 11
186.415177265544
 21
36.310662531758148
 31
0.0
  0
LINE
  5
1903
  8
TITLE
 10
185.57991604706569
 20
35.38811644063582
 30
0.0
 11
186.415177265544
 21
36.223377659110909
 31
0.0
  0
LINE
  5
1904
  8
TITLE
 10
185.57991604706569
 20
35.300831567988851
 30
0.0
 11
186.415177265544
 21
36.136092786467103
 31
0.0
  0
LINE
  5
1905
  8
TITLE
 10
185.57991604706569
 20
35.213546695341691
 30
0.0
 11
186.415177265544
 21
36.0488079138198
 31
0.0
  0
LINE
  5
1906
  8
TITLE
 10
186.86947155635869
 20
35.979392968755171
 30
0.0
 11
187.2504387175245
 21
36.360360129924572
 31
0.0
  0
LINE
  5
1907
  8
TITLE
 10
186.91869597919549
 20
35.941332518948528
 30
0.0
 11
187.2504387175245
 21
36.273075257277249
 31
0.0
  0
LINE
  5
1908
  8
TITLE
 10
186.96792040203181
 20
35.90327206913777
 30
0.0
 11
187.2504387175245
 21
36.18579038463379
 31
0.0
  0
LINE
  5
1909
  8
TITLE
 10
187.01714482486881
 20
35.86521161933112
 30
0.0
 11
187.2504387175245
 21
36.098505511986758
 31
0.0
  0
LINE
  5
190A
  8
TITLE
 10
187.06636924771249
 20
35.827151169524328
 30
0.0
 11
187.2504387175245
 21
36.011220639339783
 31
0.0
  0
LINE
  5
190B
  8
TITLE
 10
185.57991604706569
 20
35.911825676511228
 30
0.0
 11
186.78427010667971
 21
37.11617973613307
 31
0.0
  0
LINE
  5
190C
  8
TITLE
 10
185.57991604706569
 20
35.824540803864132
 30
0.0
 11
186.8267609473084
 21
37.071385704110909
 31
0.0
  0
LINE
  5
190D
  8
TITLE
 10
185.57991604706569
 20
35.73725593122073
 30
0.0
 11
186.8692517879368
 21
37.02659167208914
 31
0.0
  0
LINE
  5
190E
  8
TITLE
 10
185.57991604706569
 20
35.64997105857389
 30
0.0
 11
186.9117426285585
 21
36.981797640070468
 31
0.0
  0
LINE
  5
190F
  8
TITLE
 10
185.57991604706569
 20
35.562686185926466
 30
0.0
 11
186.9542334691873
 21
36.937003608051953
 31
0.0
  0
LINE
  5
1910
  8
TITLE
 10
185.57991604706569
 20
34.777122332109329
 30
0.0
 11
186.415177265544
 21
35.612383550584092
 31
0.0
  0
LINE
  5
1911
  8
TITLE
 10
185.57991604706569
 20
34.689837459462169
 30
0.0
 11
186.415177265544
 21
35.525098677940591
 31
0.0
  0
LINE
  5
1912
  8
TITLE
 10
185.57991604706569
 20
34.602552586818852
 30
0.0
 11
186.415177265544
 21
35.437813805293452
 31
0.0
  0
LINE
  5
1913
  8
TITLE
 10
185.57991604706569
 20
34.515267714171387
 30
0.0
 11
186.415177265544
 21
35.350528932646156
 31
0.0
  0
LINE
  5
1914
  8
TITLE
 10
185.57991604706569
 20
34.427982841524511
 30
0.0
 11
186.415177265544
 21
35.263244060002648
 31
0.0
  0
LINE
  5
1915
  8
TITLE
 10
185.57991604706569
 20
34.34069796887708
 30
0.0
 11
186.415177265544
 21
35.175959187355801
 31
0.0
  0
LINE
  5
1916
  8
TITLE
 10
185.61716731492371
 20
34.290664364088187
 30
0.0
 11
186.415177265544
 21
35.088674314708364
 31
0.0
  0
LINE
  5
1917
  8
TITLE
 10
185.70445218757081
 20
34.290664364088187
 30
0.0
 11
186.415177265544
 21
35.001389442061047
 31
0.0
  0
LINE
  5
1918
  8
TITLE
 10
185.57991604706569
 20
34.864407204756773
 30
0.0
 11
186.415177265544
 21
35.699668423231209
 31
0.0
  0
LINE
  5
1919
  8
TITLE
 10
185.79173706021771
 20
34.290664364088187
 30
0.0
 11
186.415177265544
 21
34.914104569414228
 31
0.0
  0
LINE
  5
191A
  8
TITLE
 10
185.8790219328649
 20
34.290664364088187
 30
0.0
 11
186.415177265544
 21
34.826819696767082
 31
0.0
  0
LINE
  5
191B
  8
TITLE
 10
185.96630680550521
 20
34.290664364088187
 30
0.0
 11
186.415177265544
 21
34.739534824119637
 31
0.0
  0
LINE
  5
191C
  8
TITLE
 10
186.05359167815209
 20
34.290664364088187
 30
0.0
 11
186.415177265544
 21
34.652249951472513
 31
0.0
  0
LINE
  5
191D
  8
TITLE
 10
186.14087655079931
 20
34.290664364088187
 30
0.0
 11
186.415177265544
 21
34.564965078828848
 31
0.0
  0
LINE
  5
191E
  8
TITLE
 10
186.22816142344649
 20
34.290664364088187
 30
0.0
 11
186.415177265544
 21
34.477680206182157
 31
0.0
  0
LINE
  5
191F
  8
TITLE
 10
186.31544629609371
 20
34.290664364088187
 30
0.0
 11
186.415177265544
 21
34.39039533353489
 31
0.0
  0
LINE
  5
1920
  8
TITLE
 10
186.40273116874059
 20
34.290664364088187
 30
0.0
 11
186.415177265544
 21
34.303110460891503
 31
0.0
  0
LINE
  5
1921
  8
TITLE
 10
185.57991604706569
 20
35.126261822694403
 30
0.0
 11
186.415177265544
 21
35.961523041172747
 31
0.0
  0
LINE
  5
1922
  8
TITLE
 10
185.57991604706569
 20
35.038976950047271
 30
0.0
 11
186.415177265544
 21
35.874238168525942
 31
0.0
  0
LINE
  5
1923
  8
TITLE
 10
185.57991604706569
 20
34.951692077399983
 30
0.0
 11
186.415177265544
 21
35.786953295878369
 31
0.0
  0
LINE
  5
1924
  8
TITLE
 10
187.0963371022504
 20
35.071555170244856
 30
0.0
 11
187.16768599386069
 21
35.142904061858488
 31
0.0
  0
LINE
  5
1925
  8
TITLE
 10
187.21404251622241
 20
35.712969820099708
 30
0.0
 11
187.2504387175245
 21
35.74936602140172
 31
0.0
  0
LINE
  5
1926
  8
TITLE
 10
187.1155936705488
 20
35.789090719713762
 30
0.0
 11
187.2504387175245
 21
35.923935766696253
 31
0.0
  0
LINE
  5
1927
  8
TITLE
 10
187.16481809338561
 20
35.751030269906941
 30
0.0
 11
187.2504387175245
 21
35.83665089404915
 31
0.0
  0
LINE
  5
1928
  8
TITLE
 10
185.5079806615916
 20
36.0144600363354
 30
0.0
 11
186.91210568887061
 21
37.418585063610827
 31
0.0
  0
LINE
  5
1929
  8
TITLE
 10
185.57991604706569
 20
35.999110549158651
 30
0.0
 11
186.80572262849111
 21
37.224917130584693
 31
0.0
  0
LINE
  5
192A
  8
TITLE
 10
186.72179828784149
 20
36.093574318179783
 30
0.0
 11
187.2504387175245
 21
36.622214747866117
 31
0.0
  0
LINE
  5
192B
  8
TITLE
 10
186.77102271067821
 20
36.055513868372849
 30
0.0
 11
187.2504387175245
 21
36.534929875218829
 31
0.0
  0
LINE
  5
192C
  8
TITLE
 10
186.4264517508141
 20
36.32193701702802
 30
0.0
 11
186.9967243098163
 21
36.89220957603353
 31
0.0
  0
LINE
  5
192D
  8
TITLE
 10
186.47567617365081
 20
36.283876567221192
 30
0.0
 11
187.03921515043751
 21
36.847415544011781
 31
0.0
  0
LINE
  5
192E
  8
TITLE
 10
186.52490059648781
 20
36.245816117410882
 30
0.0
 11
187.0817059910664
 21
36.802621511989869
 31
0.0
  0
LINE
  5
192F
  8
TITLE
 10
186.57412501932421
 20
36.207755667603813
 30
0.0
 11
187.1241968316948
 21
36.757827479971191
 31
0.0
  0
LINE
  5
1930
  8
TITLE
 10
186.6233494421609
 20
36.16969521779717
 30
0.0
 11
187.1666876723169
 21
36.713033447952803
 31
0.0
  0
LINE
  5
1931
  8
TITLE
 10
186.67257386500501
 20
36.131634767986419
 30
0.0
 11
187.20917851294541
 21
36.668239415930749
 31
0.0
  0
LINE
  5
1932
  8
TITLE
 10
186.8202471335147
 20
36.017453418562241
 30
0.0
 11
187.2504387175245
 21
36.447645002571853
 31
0.0
  0
LINE
  5
1933
  8
TITLE
 10
186.0290677945878
 20
37.495680768443442
 30
0.0
 11
187.250204092556
 21
38.716817066415132
 31
0.0
  0
LINE
  5
1934
  8
TITLE
 10
185.8982741383075
 20
37.2776022395159
 30
0.0
 11
187.24496104807099
 21
38.624289149279839
 31
0.0
  0
LINE
  5
1935
  8
TITLE
 10
187.18829502255801
 20
34.290664364088187
 30
0.0
 11
188.0405347203249
 21
35.142904061858488
 31
0.0
  0
LINE
  5
1936
  8
TITLE
 10
187.0963371022504
 20
34.46056106171514
 30
0.0
 11
187.7786801023905
 21
35.142904061858488
 31
0.0
  0
LINE
  5
1937
  8
TITLE
 10
187.0963371022504
 20
34.373276189071213
 30
0.0
 11
187.8659649750376
 21
35.142904061858488
 31
0.0
  0
LINE
  5
1938
  8
TITLE
 10
187.10101014991079
 20
34.290664364088187
 30
0.0
 11
187.95324984767751
 21
35.142904061858488
 31
0.0
  0
LINE
  5
1939
  8
TITLE
 10
187.0963371022504
 20
34.809700552303283
 30
0.0
 11
187.42954061180171
 21
35.142904061858488
 31
0.0
  0
LINE
  5
193A
  8
TITLE
 10
187.0963371022504
 20
34.722415679656137
 30
0.0
 11
187.5168254844489
 21
35.142904061858488
 31
0.0
  0
LINE
  5
193B
  8
TITLE
 10
187.0963371022504
 20
34.635130807009162
 30
0.0
 11
187.60411035709609
 21
35.142904061858488
 31
0.0
  0
LINE
  5
193C
  8
TITLE
 10
187.0963371022504
 20
34.547845934361987
 30
0.0
 11
187.69139522974351
 21
35.142904061858488
 31
0.0
  0
LINE
  5
193D
  8
TITLE
 10
187.0963371022504
 20
34.896985424950728
 30
0.0
 11
187.34225573915501
 21
35.142904061858488
 31
0.0
  0
LINE
  5
193E
  8
TITLE
 10
187.0963371022504
 20
34.984270297597561
 30
0.0
 11
187.25497086650751
 21
35.142904061858488
 31
0.0
  0
LINE
  5
193F
  8
TITLE
 10
186.1050897538835
 20
37.658987600385913
 30
0.0
 11
187.2527078800841
 21
38.806605726586902
 31
0.0
  0
LINE
  5
1940
  8
TITLE
 10
186.1569143556589
 20
37.798097074801831
 30
0.0
 11
187.2527079652925
 21
38.89389068443522
 31
0.0
  0
LINE
  5
1941
  8
TITLE
 10
189.57490125511021
 20
37.724689068395413
 30
0.0
 11
189.98260711391691
 21
38.13239492720578
 31
0.0
  0
LINE
  5
1942
  8
TITLE
 10
189.6621861277502
 20
37.724689068395413
 30
0.0
 11
189.98260711391691
 21
38.045110054558627
 31
0.0
  0
LINE
  5
1943
  8
TITLE
 10
189.74947100039759
 20
37.724689068395413
 30
0.0
 11
189.98260711391691
 21
37.957825181911787
 31
0.0
  0
LINE
  5
1944
  8
TITLE
 10
189.8367558730445
 20
37.724689068395413
 30
0.0
 11
189.98260711391691
 21
37.870540309264221
 31
0.0
  0
LINE
  5
1945
  8
TITLE
 10
189.92404074569171
 20
37.724689068395413
 30
0.0
 11
189.98260711391691
 21
37.783255436617047
 31
0.0
  0
LINE
  5
1946
  8
TITLE
 10
189.5449865840165
 20
34.290664364088187
 30
0.0
 11
190.2335869524936
 21
34.979264732564971
 31
0.0
  0
LINE
  5
1947
  8
TITLE
 10
189.98141094724559
 20
34.290664364088187
 30
0.0
 11
190.2335869524936
 21
34.542840369336069
 31
0.0
  0
LINE
  5
1948
  8
TITLE
 10
190.06869581989261
 20
34.290664364088187
 30
0.0
 11
190.2335869524936
 21
34.455555496689229
 31
0.0
  0
LINE
  5
1949
  8
TITLE
 10
189.63227145665661
 20
34.290664364088187
 30
0.0
 11
190.2335869524936
 21
34.891979859917527
 31
0.0
  0
LINE
  5
194A
  8
TITLE
 10
189.71955632930391
 20
34.290664364088187
 30
0.0
 11
190.2335869524936
 21
34.804694987274182
 31
0.0
  0
LINE
  5
194B
  8
TITLE
 10
189.80684120195099
 20
34.290664364088187
 30
0.0
 11
190.2335869524936
 21
34.71741011462688
 31
0.0
  0
LINE
  5
194C
  8
TITLE
 10
189.89412607459809
 20
34.290664364088187
 30
0.0
 11
190.2335869524936
 21
34.63012524198335
 31
0.0
  0
LINE
  5
194D
  8
TITLE
 10
190.1559806925396
 20
34.290664364088187
 30
0.0
 11
190.2335869524936
 21
34.368270624041926
 31
0.0
  0
LINE
  5
305C
  8
TITLE
 10
127.0465728752536
 20
43.671572875253808
 30
0.0
 11
132.7034271247461
 21
49.32842712474617
 31
0.0
  0
LINE
  5
3D10
  8
GENKYO
 10
77.034999999999982
 20
198.77600000000001
 30
0.0
 11
83.114000000000047
 21
137.988
 31
0.0
  0
LINE
  5
3D11
  8
GENKYO
 10
72.393000000000001
 20
199.977
 30
0.0
 11
78.635999999999981
 21
137.541
 31
0.0
  0
LINE
  5
3D12
  8
SHITAJI
 10
70.402000000000015
 20
199.77799999999999
 30
0.0
 11
76.645999999999987
 21
137.34200000000001
 31
0.0
  0
LINE
  5
3D13
  8
SHITAJI
 10
72.393000000000001
 20
199.977
 30
0.0
 11
78.635999999999981
 21
137.541
 31
0.0
  0
LINE
  5
3D14
  8
SHITAJI
 10
70.402000000000015
 20
199.77799999999999
 30
0.0
 11
72.393000000000001
 21
199.977
 31
0.0
  0
LINE
  5
3D15
  8
HATCH
 10
70.90000000000002
 20
199.828
 30
0.0
 11
77.144000000000034
 21
137.39099999999999
 31
0.0
  0
LINE
  5
3D16
  8
HATCH
 10
71.397999999999996
 20
199.87799999999999
 30
0.0
 11
77.640999999999977
 21
137.441
 31
0.0
  0
LINE
  5
3D17
  8
HATCH
 10
71.895000000000024
 20
199.928
 30
0.0
 11
78.139000000000024
 21
137.49100000000001
 31
0.0
  0
LINE
  5
3D18
  8
MODEL
 10
71.269000000000034
 20
189.875
 30
0.0
 11
70.0
 21
204.375
 31
0.0
  0
LINE
  5
3D19
  8
MODEL
 10
67.557000000000016
 20
203.614
 30
0.0
 11
68.759000000000015
 21
189.875
 31
0.0
  0
LINE
  5
3D1A
  8
MODEL
 10
68.759000000000015
 20
189.875
 30
0.0
 11
71.269000000000034
 21
189.875
 31
0.0
  0
LINE
  5
3D1B
  8
MODEL
 10
85.545999999999978
 20
206.875
 30
0.0
 11
81.546000000000006
 21
206.875
 31
0.0
  0
LINE
  5
3D1C
  8
MODEL
 10
75.545999999999964
 20
206.875
 30
0.0
 11
70.545999999999964
 21
206.875
 31
0.0
  0
LINE
  5
3D1D
  8
MODEL
 10
95.545999999999964
 20
206.875
 30
0.0
 11
91.546000000000006
 21
206.875
 31
0.0
  0
LINE
  5
3D1E
  8
MODEL
 10
107.54600000000001
 20
206.07499999999999
 30
0.0
 11
104.54600000000001
 21
206.875
 31
0.0
  0
LINE
  5
3D1F
  8
MODEL
 10
104.54600000000001
 20
206.875
 30
0.0
 11
101.54600000000001
 21
206.875
 31
0.0
  0
LINE
  5
3D20
  8
MODEL
 10
107.54600000000001
 20
204.375
 30
0.0
 11
107.54600000000001
 21
206.07499999999999
 31
0.0
  0
LINE
  5
3D21
  8
MODEL
 10
93.045999999999964
 20
206.875
 30
0.0
 11
90.796000000000006
 21
204.375
 31
0.0
  0
LINE
  5
3D22
  8
MODEL
 10
86.295999999999978
 20
204.375
 30
0.0
 11
84.046000000000006
 21
206.875
 31
0.0
  0
LINE
  5
3D23
  8
BIS
 10
85.346000000000004
 20
205.43100000000001
 30
0.0
 11
85.346000000000004
 21
206.131
 31
0.0
  0
LINE
  5
3D24
  8
BIS
 10
85.346000000000004
 20
205.43100000000001
 30
0.0
 11
91.745999999999981
 21
205.43100000000001
 31
0.0
  0
LINE
  5
3D25
  8
BIS
 10
91.745999999999981
 20
205.43100000000001
 30
0.0
 11
91.745999999999981
 21
206.131
 31
0.0
  0
LINE
  5
3D26
  8
BIS
 10
85.346000000000004
 20
206.131
 30
0.0
 11
91.745999999999981
 21
206.131
 31
0.0
  0
LINE
  5
3D27
  8
BIS
 10
85.346000000000004
 20
199.875
 30
0.0
 11
91.745999999999981
 21
199.875
 31
0.0
  0
LINE
  5
3D28
  8
BIS
 10
86.995999999999981
 20
205.43100000000001
 30
0.0
 11
86.995999999999981
 21
199.875
 31
0.0
  0
LINE
  5
3D29
  8
BIS
 10
90.096000000000004
 20
205.43100000000001
 30
0.0
 11
90.096000000000004
 21
199.875
 31
0.0
  0
LINE
  5
3D2A
  8
GENKYO
 10
90.096000000000004
 20
199.875
 30
0.0
 11
184.416
 21
199.875
 31
0.0
  0
LINE
  5
3D2B
  8
GENKYO
 10
78.030000000000001
 20
199.875
 30
0.0
 11
86.995999999999981
 21
199.875
 31
0.0
  0
LINE
  5
3D2C
  8
SHITAJI
 10
184.416
 20
206.375
 30
0.0
 11
107.54600000000001
 21
206.375
 31
0.0
  0
LINE
  5
3D2D
  8
SHITAJI
 10
107.54600000000001
 20
206.375
 30
0.0
 11
107.54600000000001
 21
204.375
 31
0.0
  0
LINE
  5
3D2E
  8
SHITAJI
 10
184.416
 20
204.375
 30
0.0
 11
107.54600000000001
 21
204.375
 31
0.0
  0
LINE
  5
3D2F
  8
HATCH
 10
184.416
 20
205.875
 30
0.0
 11
107.54600000000001
 21
205.875
 31
0.0
  0
LINE
  5
3D30
  8
HATCH
 10
184.416
 20
205.375
 30
0.0
 11
107.54600000000001
 21
205.375
 31
0.0
  0
LINE
  5
3D31
  8
HATCH
 10
184.416
 20
204.875
 30
0.0
 11
107.54600000000001
 21
204.875
 31
0.0
  0
LINE
  5
3D32
  8
GENKYO
 10
90.096000000000004
 20
204.375
 30
0.0
 11
184.416
 21
204.375
 31
0.0
  0
LINE
  5
3D33
  8
GENKYO
 10
76.372999999999976
 20
204.375
 30
0.0
 11
86.995999999999981
 21
204.375
 31
0.0
  0
LINE
  5
3D34
  8
MODEL
 10
90.096000000000004
 20
204.375
 30
0.0
 11
107.54600000000001
 21
204.375
 31
0.0
  0
LINE
  5
3D35
  8
MODEL
 10
70.0
 20
204.375
 30
0.0
 11
86.995999999999981
 21
204.375
 31
0.0
  0
ARC
  5
3D36
  8
GENKYO
 10
78.030000000000001
 20
198.875
 30
0.0
 40
1.0
 50
90.0
 51
185.71058654785219
  0
ARC
  5
3D37
  8
GENKYO
 10
76.372999999999976
 20
200.375
 30
0.0
 40
4.0
 50
90.0
 51
185.71058654785219
  0
ARC
  5
3D38
  8
MODEL
 10
98.546000000000006
 20
212.071
 30
0.0
 40
6.0
 50
239.99998474121
 51
300.0
  0
ARC
  5
3D39
  8
MODEL
 10
70.545999999999964
 20
203.875
 30
0.0
 40
3.0
 50
90.0
 51
184.99998474121139
  0
ARC
  5
3D3A
  8
MODEL
 10
78.545999999999964
 20
212.071
 30
0.0
 40
6.0
 50
239.99998474121
 51
300.0
  0
ARC
  5
3D3B
  8
MODEL
 10
88.545999999999964
 20
212.071
 30
0.0
 40
6.0
 50
239.99998474121
 51
300.0
  0
ARC
  5
3D3C
  8
BIS
 10
88.545999999999964
 20
201.435
 30
0.0
 40
3.5600000000000001
 50
205.9892272949217
 51
334.0107421875
  0
LINE
  5
3D43
  8
CENTER
 10
88.545999999999964
 20
210.73400000000001
 30
0.0
 11
88.545999999999964
 21
190.387
 31
0.0
  0
TEXT
  5
3E71
  8
TEXT
 62
     7
 10
108.4103333333334
 20
226.43199999999999
 30
0.0
 40
2.5
  1
ステンレス無垢
  0
SOLID
  5
3E73
  8
TEXT
 62
     1
 10
97.804167068626725
 20
207.211669527509
 30
0.0
 11
96.668464031090565
 21
205.53200000000001
 31
0.0
 12
97.198020030648877
 22
207.48921270035811
 32
0.0
 13
97.198020030648877
 23
207.48921270035811
 33
0.0
1001
ACAD
1000
DSTYLE
1002
{
1070
     5
1000

1070
    40
1040
1.0
1002
}
  0
POLYLINE
  5
3E74
  8
TEXT
 62
     1
 66
     1
 10
0.0
 20
0.0
 30
0.0
1001
ACAD
1000
DSTYLE
1002
{
1070
     5
1000

1070
    40
1040
1.0
1002
}
  0
VERTEX
  5
4067
  8
TEXT
 62
     1
 10
97.501093549637815
 20
207.3504411139335
 30
0.0
  0
VERTEX
  5
4068
  8
TEXT
 62
     1
 10
105.952
 20
225.80699999999999
 30
0.0
  0
VERTEX
  5
4069
  8
TEXT
 62
     1
 10
129.67298418596869
 20
225.80699999999999
 30
0.0
  0
SEQEND
  5
406A
  8
TEXT
 62
     1
  0
TEXT
  5
3E75
  8
TEXT
 62
     7
 10
52.643333333333388
 20
173.745
 30
0.0
 40
2.5
  1
接着剤
  0
SOLID
  5
3E76
  8
TEXT
 62
     1
 10
81.860905192531703
 20
202.86316206809619
 30
0.0
 11
83.212000000000018
 21
204.375
 31
0.0
 12
82.424263160039345
 22
202.50669012685799
 32
0.0
 13
82.424263160039345
 23
202.50669012685799
 33
0.0
1001
ACAD
1000
DSTYLE
1002
{
1070
     5
1000

1070
    40
1040
1.0
1002
}
  0
POLYLINE
  5
3E77
  8
TEXT
 62
     1
 66
     1
 10
0.0
 20
0.0
 30
0.0
1001
ACAD
1000
DSTYLE
1002
{
1070
     5
1000

1070
    40
1040
1.0
1002
}
  0
VERTEX
  5
406B
  8
TEXT
 62
     1
 10
82.142584176285538
 20
202.6849260974771
 30
0.0
  0
VERTEX
  5
406C
  8
TEXT
 62
     1
 10
63.435000000000038
 20
173.12
 30
0.0
  0
VERTEX
  5
406D
  8
TEXT
 62
     1
 10
52.343356365244738
 20
173.12
 30
0.0
  0
SEQEND
  5
406E
  8
TEXT
 62
     1
  0
LINE
  5
3E78
  8
DIMS
 10
67.544999999999987
 20
204.875
 30
0.0
 11
67.544999999999987
 21
219.875
 31
0.0
  0
LINE
  5
3E79
  8
DIMS
 10
107.54600000000001
 20
207.375
 30
0.0
 11
107.54600000000001
 21
219.875
 31
0.0
  0
LINE
  5
3E7A
  8
DIMS
 10
69.544999999999987
 20
218.875
 30
0.0
 11
105.54600000000001
 21
218.875
 31
0.0
  0
SOLID
  5
3E7B
  8
DIMS
 10
69.544999999999987
 20
219.2083333333334
 30
0.0
 11
69.544999999999987
 21
218.54166666666671
 31
0.0
 12
67.544999999999987
 22
218.875
 32
0.0
 13
67.544999999999987
 23
218.875
 33
0.0
  0
SOLID
  5
3E7C
  8
DIMS
 10
105.54600000000001
 20
219.2083333333334
 30
0.0
 11
105.54600000000001
 21
218.54166666666671
 31
0.0
 12
107.54600000000001
 22
218.875
 32
0.0
 13
107.54600000000001
 23
218.875
 33
0.0
  0
INSERT
  5
3E7D
  8
0
  2
*U16
 10
0.0
 20
0.0
 30
0.0
  0
LINE
  5
3E7E
  8
DIMS
 10
108.54600000000001
 20
204.375
 30
0.0
 11
125.54600000000001
 21
204.375
 31
0.0
  0
LINE
  5
3E7F
  8
DIMS
 10
108.54600000000001
 20
199.875
 30
0.0
 11
125.54600000000001
 21
199.875
 31
0.0
  0
LINE
  5
3E80
  8
DIMS
 10
124.54600000000001
 20
206.375
 30
0.0
 11
124.54600000000001
 21
208.375
 31
0.0
  0
LINE
  5
3E81
  8
DIMS
 10
124.54600000000001
 20
197.875
 30
0.0
 11
124.54600000000001
 21
195.875
 31
0.0
  0
LINE
  5
3E82
  8
DIMS
 10
124.54600000000001
 20
218.1300757642619
 30
0.0
 11
124.54600000000001
 21
204.375
 31
0.0
  0
INSERT
  5
3E83
  8
0
  2
*U17
 10
0.0
 20
0.0
 30
0.0
  0
LINE
  5
3E84
  8
DIMS
 10
124.54600000000001
 20
204.375
 30
0.0
 11
124.54600000000001
 21
199.875
 31
0.0
  0
LINE
  5
3E85
  8
DIMS
 10
124.54600000000001
 20
204.375
 30
0.0
 11
124.54600000000001
 21
199.875
 31
0.0
  0
SOLID
  5
3E86
  8
DIMS
 10
124.21266666666661
 20
206.375
 30
0.0
 11
124.87933333333331
 21
206.375
 31
0.0
 12
124.54600000000001
 22
204.375
 32
0.0
 13
124.54600000000001
 23
204.375
 33
0.0
  0
SOLID
  5
3E87
  8
DIMS
 10
124.21266666666661
 20
197.875
 30
0.0
 11
124.87933333333331
 21
197.875
 31
0.0
 12
124.54600000000001
 22
199.875
 32
0.0
 13
124.54600000000001
 23
199.875
 33
0.0
  0
TEXT
  5
3E88
  8
TEXT
 62
     7
 10
138.65199999999999
 20
222.83199999999999
 30
0.0
 40
2.5
  1
長尺シート（別途工事）
  0
SOLID
  5
3E89
  8
TEXT
 62
     1
 10
132.35888028668001
 20
207.14081956262041
 30
0.0
 11
131.52199999999999
 21
205.29400000000001
 31
0.0
 12
131.71467500763131
 22
207.3124121116723
 32
0.0
 13
131.71467500763131
 23
207.3124121116723
 33
0.0
1001
ACAD
1000
DSTYLE
1002
{
1070
     5
1000

1070
    40
1040
1.0
1002
}
  0
POLYLINE
  5
3E8A
  8
TEXT
 62
     1
 66
     1
 10
0.0
 20
0.0
 30
0.0
1001
ACAD
1000
DSTYLE
1002
{
1070
     5
1000

1070
    40
1040
1.0
1002
}
  0
VERTEX
  5
406F
  8
TEXT
 62
     1
 10
132.0367776471557
 20
207.22661583714631
 30
0.0
  0
VERTEX
  5
4070
  8
TEXT
 62
     1
 10
136.02699999999999
 20
222.20699999999999
 30
0.0
  0
VERTEX
  5
4071
  8
TEXT
 62
     1
 10
170.0723812040537
 20
222.20699999999999
 30
0.0
  0
SEQEND
  5
4072
  8
TEXT
 62
     1
  0
TEXT
  5
3E8B
  8
TEXT
 62
     7
 10
50.037666666666659
 20
150.745
 30
0.0
 40
2.5
  1
リベット
  0
SOLID
  5
3E8C
  8
TEXT
 62
     1
 10
86.236435215507157
 20
197.4164085031621
 30
0.0
 11
87.414000000000016
 21
199.06700000000001
 31
0.0
 12
86.835414337967705
 22
197.12371676207451
 32
0.0
 13
86.835414337967705
 23
197.12371676207451
 33
0.0
1001
ACAD
1000
DSTYLE
1002
{
1070
     5
1000

1070
    40
1040
1.0
1002
}
  0
POLYLINE
  5
3E8D
  8
TEXT
 62
     1
 66
     1
 10
0.0
 20
0.0
 30
0.0
1001
ACAD
1000
DSTYLE
1002
{
1070
     5
1000

1070
    40
1040
1.0
1002
}
  0
VERTEX
  5
4073
  8
TEXT
 62
     1
 10
86.535924776737417
 20
197.27006263261839
 30
0.0
  0
VERTEX
  5
4074
  8
TEXT
 62
     1
 10
63.496000000000002
 20
150.12
 30
0.0
  0
VERTEX
  5
4075
  8
TEXT
 62
     1
 10
50.347821983241609
 20
150.12
 30
0.0
  0
SEQEND
  5
4076
  8
TEXT
 62
     1
  0
TEXT
  5
3E8E
  8
TEXT
 62
     7
 10
49.537666666666659
 20
140.745
 30
0.0
 40
2.5
  1
鉄骨階段
  0
SOLID
  5
3E8F
  8
TEXT
 62
     1
 10
77.316076073503893
 20
158.70709009858319
 30
0.0
 11
78.797000000000025
 21
160.09200000000001
 31
0.0
 12
77.8452859835037
 22
158.30165044141779
 32
0.0
 13
77.8452859835037
 23
158.30165044141779
 33
0.0
1001
ACAD
1000
DSTYLE
1002
{
1070
     5
1000

1070
    40
1040
1.0
1002
}
  0
POLYLINE
  5
3E90
  8
TEXT
 62
     1
 66
     1
 10
0.0
 20
0.0
 30
0.0
1001
ACAD
1000
DSTYLE
1002
{
1070
     5
1000

1070
    40
1040
1.0
1002
}
  0
VERTEX
  5
4077
  8
TEXT
 62
     1
 10
77.580681028503804
 20
158.50437027000041
 30
0.0
  0
VERTEX
  5
4078
  8
TEXT
 62
     1
 10
63.496000000000002
 20
140.12
 30
0.0
  0
VERTEX
  5
4079
  8
TEXT
 62
     1
 10
49.223046548959033
 20
140.12
 30
0.0
  0
SEQEND
  5
407A
  8
TEXT
 62
     1
  0
TEXT
  5
3E91
  8
TEXT
 62
     7
 10
31.53766666666667
 20
160.745
 30
0.0
 40
2.5
  1
長尺シート（別途工事
  0
SOLID
  5
3E92
  8
TEXT
 62
     1
 10
72.509973409316743
 20
177.09746479362821
 30
0.0
 11
73.770000000000024
 21
178.68600000000001
 31
0.0
 12
73.093283562230994
 22
176.7746742888863
 32
0.0
 13
73.093283562230994
 23
176.7746742888863
 33
0.0
1001
ACAD
1000
DSTYLE
1002
{
1070
     5
1000

1070
    40
1040
1.0
1002
}
  0
POLYLINE
  5
3E93
  8
TEXT
 62
     1
 66
     1
 10
0.0
 20
0.0
 30
0.0
1001
ACAD
1000
DSTYLE
1002
{
1070
     5
1000

1070
    40
1040
1.0
1002
}
  0
VERTEX
  5
407B
  8
TEXT
 62
     1
 10
72.801628485773875
 20
176.9360695412573
 30
0.0
  0
VERTEX
  5
407C
  8
TEXT
 62
     1
 10
63.495999999999981
 20
160.12
 30
0.0
  0
VERTEX
  5
407D
  8
TEXT
 62
     1
 10
31.442234863711519
 20
160.12
 30
0.0
  0
SEQEND
  5
407E
  8
TEXT
 62
     1
  0
LINE
  5
3E94
  8
DIMS
 10
108.54600000000001
 20
206.07499999999999
 30
0.0
 11
115.54600000000001
 21
206.07499999999999
 31
0.0
  0
LINE
  5
3E95
  8
DIMS
 10
108.54600000000001
 20
204.375
 30
0.0
 11
115.54600000000001
 21
204.375
 31
0.0
  0
LINE
  5
3E96
  8
DIMS
 10
114.54600000000001
 20
208.07499999999999
 30
0.0
 11
114.54600000000001
 21
210.07499999999999
 31
0.0
  0
LINE
  5
3E97
  8
DIMS
 10
114.54600000000001
 20
202.375
 30
0.0
 11
114.54600000000001
 21
200.375
 31
0.0
  0
LINE
  5
3E98
  8
DIMS
 10
114.54600000000001
 20
217.05780575212219
 30
0.0
 11
114.54600000000001
 21
206.07499999999999
 31
0.0
  0
INSERT
  5
3E99
  8
0
  2
*U18
 10
0.0
 20
0.0
 30
0.0
  0
LINE
  5
3E9A
  8
DIMS
 10
114.54600000000001
 20
206.07499999999999
 30
0.0
 11
114.54600000000001
 21
204.375
 31
0.0
  0
LINE
  5
3E9B
  8
DIMS
 10
114.54600000000001
 20
206.07499999999999
 30
0.0
 11
114.54600000000001
 21
204.375
 31
0.0
  0
SOLID
  5
3E9C
  8
DIMS
 10
114.21266666666671
 20
208.07499999999999
 30
0.0
 11
114.87933333333331
 21
208.07499999999999
 31
0.0
 12
114.54600000000001
 22
206.07499999999999
 32
0.0
 13
114.54600000000001
 23
206.07499999999999
 33
0.0
  0
SOLID
  5
3E9D
  8
DIMS
 10
114.21266666666671
 20
202.375
 30
0.0
 11
114.87933333333331
 21
202.375
 31
0.0
 12
114.54600000000001
 22
204.375
 32
0.0
 13
114.54600000000001
 23
204.375
 33
0.0
  0
LINE
  5
3E9E
  8
DIMS
 10
105.54600000000001
 20
206.875
 30
0.0
 11
120.54600000000001
 21
206.875
 31
0.0
  0
LINE
  5
3E9F
  8
DIMS
 10
108.54600000000001
 20
204.375
 30
0.0
 11
120.54600000000001
 21
204.375
 31
0.0
  0
LINE
  5
3EA0
  8
DIMS
 10
119.54600000000001
 20
208.875
 30
0.0
 11
119.54600000000001
 21
210.875
 31
0.0
  0
LINE
  5
3EA1
  8
DIMS
 10
119.54600000000001
 20
202.375
 30
0.0
 11
119.54600000000001
 21
200.375
 31
0.0
  0
LINE
  5
3EA2
  8
DIMS
 10
119.54600000000001
 20
216.96064545627129
 30
0.0
 11
119.54600000000001
 21
206.875
 31
0.0
  0
INSERT
  5
3EA3
  8
0
  2
*U19
 10
0.0
 20
0.0
 30
0.0
  0
LINE
  5
3EA4
  8
DIMS
 10
119.54600000000001
 20
206.875
 30
0.0
 11
119.54600000000001
 21
204.375
 31
0.0
  0
LINE
  5
3EA5
  8
DIMS
 10
119.54600000000001
 20
206.875
 30
0.0
 11
119.54600000000001
 21
204.375
 31
0.0
  0
SOLID
  5
3EA6
  8
DIMS
 10
119.21266666666671
 20
208.875
 30
0.0
 11
119.87933333333331
 21
208.875
 31
0.0
 12
119.54600000000001
 22
206.875
 32
0.0
 13
119.54600000000001
 23
206.875
 33
0.0
  0
SOLID
  5
3EA7
  8
DIMS
 10
119.21266666666671
 20
202.375
 30
0.0
 11
119.87933333333331
 21
202.375
 31
0.0
 12
119.54600000000001
 22
204.375
 32
0.0
 13
119.54600000000001
 23
204.375
 33
0.0
  0
LINE
  5
3EA8
  8
DIMS
 10
68.844000000000023
 20
204.37499999999989
 30
0.0
 11
59.544999999999952
 21
204.37499999999989
 31
0.0
  0
LINE
  5
3EA9
  8
DIMS
 10
67.758999999999986
 20
189.875
 30
0.0
 11
59.544999999999952
 21
189.875
 31
0.0
  0
LINE
  5
3EAA
  8
DIMS
 10
60.544999999999959
 20
202.37499999999989
 30
0.0
 11
60.544999999999959
 21
191.875
 31
0.0
  0
SOLID
  5
3EAB
  8
DIMS
 10
60.211666666666609
 20
202.37499999999989
 30
0.0
 11
60.878333333333288
 21
202.37499999999989
 31
0.0
 12
60.544999999999959
 22
204.37499999999989
 32
0.0
 13
60.544999999999959
 23
204.37499999999989
 33
0.0
  0
SOLID
  5
3EAC
  8
DIMS
 10
60.211666666666609
 20
191.875
 30
0.0
 11
60.878333333333288
 21
191.875
 31
0.0
 12
60.544999999999959
 22
189.875
 32
0.0
 13
60.544999999999959
 23
189.875
 33
0.0
  0
INSERT
  5
3EAD
  8
0
  2
*U20
 10
0.0
 20
0.0
 30
0.0
  0
LINE
  5
3EAE
  8
DIMS
 10
69.544999999999987
 20
206.875
 30
0.0
 11
54.544999999999987
 21
206.875
 31
0.0
  0
LINE
  5
3EAF
  8
DIMS
 10
67.758999999999986
 20
189.875
 30
0.0
 11
54.544999999999987
 21
189.875
 31
0.0
  0
LINE
  5
3EB0
  8
DIMS
 10
55.544999999999987
 20
204.875
 30
0.0
 11
55.544999999999987
 21
191.875
 31
0.0
  0
SOLID
  5
3EB1
  8
DIMS
 10
55.211666666666652
 20
204.875
 30
0.0
 11
55.878333333333323
 21
204.875
 31
0.0
 12
55.544999999999987
 22
206.875
 32
0.0
 13
55.544999999999987
 23
206.875
 33
0.0
  0
SOLID
  5
3EB2
  8
DIMS
 10
55.211666666666652
 20
191.875
 30
0.0
 11
55.878333333333323
 21
191.875
 31
0.0
 12
55.544999999999987
 22
189.875
 32
0.0
 13
55.544999999999987
 23
189.875
 33
0.0
  0
INSERT
  5
3EB3
  8
0
  2
*U21
 10
0.0
 20
0.0
 30
0.0
  0
INSERT
  5
3EB4
  8
0
  2
*U22
 10
0.0
 20
0.0
 30
0.0
  0
TEXT
  5
3EB5
  8
TITLE
 10
131.62009379141281
 20
43.221572875253813
 30
0.0
 40
2.5
  1
１
  0
TEXT
  5
3EB6
  8
TITLE
 10
125.9632395419204
 20
47.278427124746173
 30
0.0
 40
2.5
  1
１
  0
LINE
  5
3EB7
  8
DEFPOINTS
 10
0.0
 20
0.0
 30
0.0
 11
210.0
 21
0.0
 31
0.0
  0
LINE
  5
3EB8
  8
DEFPOINTS
 10
210.0
 20
0.0
 30
0.0
 11
210.0
 21
297.0
 31
0.0
  0
LINE
  5
3EB9
  8
DEFPOINTS
 10
210.0
 20
297.0
 30
0.0
 11
0.0
 21
297.0
 31
0.0
  0
LINE
  5
3EBA
  8
DEFPOINTS
 10
0.0
 20
297.0
 30
0.0
 11
0.0
 21
0.0
 31
0.0
  0
TEXT
  5
3EBB
  8
TITLE
 10
173.20833333333329
 20
44.244047619047613
 30
0.0
 40
2.5
  1
Ｈ２６．１．２４
  0
TEXT
  5
3EBC
  8
TITLE
 10
166.95833333333329
 20
56.25
 30
0.0
 40
2.5
  1
１Ｈ－０４０６
  0
TEXT
  5
3EBD
  8
TITLE
 10
123.875
 20
56.25
 30
0.0
 40
2.5
  1
ＹＭＳ－４０
  0
TEXT
  5
3EBE
  8
TITLE
 10
81.791666666666671
 20
56.25
 30
0.0
 40
2.5
  1
納まり図
  0
TEXT
  5
3EBF
  8
TITLE
 10
33.666666666666671
 20
56.25
 30
0.0
 40
2.5
  1
ノンスリップ
  0
TEXT
  5
3EC0
  8
TITLE
 10
122.0416666666666
 20
63.675497065706637
 30
0.0
 40
2.5
  1
タ    イ    プ
  0
TEXT
  5
3EC1
  8
TITLE
 10
141.1866518802162
 20
48.828796392541342
 30
0.0
 40
2.5
  1
仕上
  0
TEXT
  5
3EC2
  8
TITLE
 10
110.9366518802164
 20
48.828796392541342
 30
0.0
 40
2.5
  1
縮尺
  0
TEXT
  5
3EC3
  8
TITLE
 10
167.125
 20
63.675497065706679
 30
0.0
 40
2.5
  1
図  面  番  号
  0
TEXT
  5
3EC4
  8
TITLE
 10
170.73427092783541
 20
48.828796392541342
 30
0.0
 40
2.5
  1
日付
  0
TEXT
  5
3EC5
  8
TITLE
 10
77.291666666666671
 20
63.675497065706637
 30
0.0
 40
2.5
  1
群          別
  0
TEXT
  5
3EC6
  8
TITLE
 10
66.98729322659878
 20
47.937399917610023
 30
0.0
 40
2.5
  1
材質
  0
TEXT
  5
3EC7
  8
TITLE
 10
67.058721798027349
 20
41.270733250943351
 30
0.0
 40
2.5
  1
規格
  0
TEXT
  5
3EC8
  8
TITLE
 10
66.98729322659878
 20
34.60406658427668
 30
0.0
 40
2.5
  1
重量
  0
TEXT
  5
3EC9
  8
TITLE
 10
23.422619047619051
 20
38.677403026748927
 30
0.0
 40
2.0
  1
2
  0
TEXT
  5
3ECA
  8
TITLE
 10
23.56547619047619
 20
43.67740302674892
 30
0.0
 40
2.0
  1
1
  0
TEXT
  5
3ECB
  8
TITLE
 10
23.422619047619051
 20
33.677403026748941
 30
0.0
 40
2.0
  1
3
  0
LINE
  5
3ECC
  8
TITLE
 10
24.375
 20
47.0
 30
0.0
 11
22.20993649053889
 21
43.25
 31
0.0
  0
LINE
  5
3ECD
  8
TITLE
 10
22.20993649053889
 20
43.25
 30
0.0
 11
26.540063509461081
 21
43.25
 31
0.0
  0
LINE
  5
3ECE
  8
TITLE
 10
26.540063509461081
 20
43.25
 30
0.0
 11
24.375
 21
47.0
 31
0.0
  0
LINE
  5
3ECF
  8
TITLE
 10
24.375
 20
37.0
 30
0.0
 11
22.20993649053889
 21
33.25
 31
0.0
  0
LINE
  5
3ED0
  8
TITLE
 10
22.20993649053889
 20
33.25
 30
0.0
 11
26.540063509461081
 21
33.25
 31
0.0
  0
LINE
  5
3ED1
  8
TITLE
 10
26.540063509461081
 20
33.25
 30
0.0
 11
24.375
 21
37.0
 31
0.0
  0
LINE
  5
3ED2
  8
TITLE
 10
24.375
 20
42.0
 30
0.0
 11
22.20993649053889
 21
38.25
 31
0.0
  0
LINE
  5
3ED3
  8
TITLE
 10
22.20993649053889
 20
38.25
 30
0.0
 11
26.540063509461081
 21
38.25
 31
0.0
  0
LINE
  5
3ED4
  8
TITLE
 10
26.540063509461081
 20
38.25
 30
0.0
 11
24.375
 21
42.0
 31
0.0
  0
TEXT
  5
3ED5
  8
TITLE
 10
21.334471626919079
 20
28.739356149794158
 30
0.0
 40
2.5
  1
特記事項
  0
TEXT
  5
3ED6
  8
TITLE
 10
32.416666666666671
 20
63.675497065706608
 30
0.0
 40
2.5
  1
品          名
  0
TEXT
  5
3ED7
  8
TITLE
 10
32.333333333333329
 20
48.675497065706601
 30
0.0
 40
2.5
  1
経          歴
  0
LINE
  5
3ED8
  8
TITLE
 10
20.0
 20
12.625
 30
0.0
 11
199.75
 21
12.625
 31
0.0
  0
LINE
  5
3ED9
  8
TITLE
 10
199.75
 20
12.625
 30
0.0
 11
199.75
 21
284.37499999999989
 31
0.0
  0
LINE
  5
3EDA
  8
TITLE
 10
199.75
 20
284.37499999999989
 30
0.0
 11
20.0
 21
284.37499999999989
 31
0.0
  0
LINE
  5
3EDB
  8
TITLE
 10
20.0
 20
284.37499999999989
 30
0.0
 11
20.0
 21
12.625
 31
0.0
  0
INSERT
  5
4044
  8
0
  2
*U25
 10
0.0
 20
0.0
 30
0.0
  0
ENDSEC
  0
EOF
