  0
SECTION
  2
HEADER
  9
$ACADVER
  1
AC1009
  9
$INSBASE
 10
0.0
 20
0.0
 30
0.0
  9
$EXTMIN
 10
-0.01922157577701
 20
-0.0145378083351489
 30
-0.000000000000013
  9
$EXTMAX
 10
210.02884219146279
 20
297.0181298502402
 30
0.0000000000000023
  9
$LIMMIN
 10
0.0
 20
0.0
  9
$LIMMAX
 10
420.0
 20
297.0
  9
$ORTHOMODE
 70
     0
  9
$REGENMODE
 70
     1
  9
$FILLMODE
 70
     1
  9
$QTEXTMODE
 70
     0
  9
$MIRRTEXT
 70
     1
  9
$DRAGMODE
 70
     2
  9
$LTSCALE
 40
0.4
  9
$OSMODE
 70
   167
  9
$ATTMODE
 70
     1
  9
$TEXTSIZE
 40
2.5
  9
$TRACEWID
 40
1.0
  9
$TEXTSTYLE
  7
STANDARD
  9
$CLAYER
  8
0
  9
$CELTYPE
  6
BYLAYER
  9
$CECOLOR
 62
   256
  9
$DIMSCALE
 40
0.0
  9
$DIMASZ
 40
2.0
  9
$DIMEXO
 40
0.625
  9
$DIMDLI
 40
3.75
  9
$DIMRND
 40
0.0
  9
$DIMDLE
 40
0.0
  9
$DIMEXE
 40
1.25
  9
$DIMTP
 40
0.0
  9
$DIMTM
 40
0.0
  9
$DIMTXT
 40
2.5
  9
$DIMCEN
 40
0.0
  9
$DIMTSZ
 40
0.0
  9
$DIMTOL
 70
     0
  9
$DIMLIM
 70
     0
  9
$DIMTIH
 70
     0
  9
$DIMTOH
 70
     0
  9
$DIMSE1
 70
     0
  9
$DIMSE2
 70
     0
  9
$DIMTAD
 70
     1
  9
$DIMZIN
 70
     8
  9
$DIMBLK
  1

  9
$DIMASO
 70
     1
  9
$DIMSHO
 70
     1
  9
$DIMPOST
  1

  9
$DIMAPOST
  1

  9
$DIMALT
 70
     0
  9
$DIMALTD
 70
     3
  9
$DIMALTF
 40
0.03937007874016
  9
$DIMLFAC
 40
1.0
  9
$DIMTOFL
 70
     1
  9
$DIMTVP
 40
0.0
  9
$DIMTIX
 70
     0
  9
$DIMSOXD
 70
     0
  9
$DIMSAH
 70
     0
  9
$DIMBLK1
  1

  9
$DIMBLK2
  1

  9
$DIMSTYLE
  2
DIMS
  9
$DIMCLRD
 70
     0
  9
$DIMCLRE
 70
     0
  9
$DIMCLRT
 70
     7
  9
$DIMTFAC
 40
1.0
  9
$DIMGAP
 40
0.625
  9
$LUNITS
 70
     2
  9
$LUPREC
 70
     4
  9
$SKETCHINC
 40
1.0
  9
$FILLETRAD
 40
0.0
  9
$AUNITS
 70
     0
  9
$AUPREC
 70
     0
  9
$MENU
  1
.
  9
$ELEVATION
 40
0.0
  9
$PELEVATION
 40
0.0
  9
$THICKNESS
 40
0.0
  9
$LIMCHECK
 70
     0
  9
$BLIPMODE
 70
     0
  9
$CHAMFERA
 40
10.0
  9
$CHAMFERB
 40
10.0
  9
$SKPOLY
 70
     0
  9
$TDCREATE
 40
2451673.4747106251
  9
$TDUPDATE
 40
2456272.391911169
  9
$TDINDWG
 40
0.0300498843
  9
$TDUSRTIMER
 40
0.030045706
  9
$USRTIMER
 70
     1
  9
$ANGBASE
 50
0.0
  9
$ANGDIR
 70
     0
  9
$PDMODE
 70
     0
  9
$PDSIZE
 40
0.0
  9
$PLINEWID
 40
0.0
  9
$COORDS
 70
     0
  9
$SPLFRAME
 70
     0
  9
$SPLINETYPE
 70
     6
  9
$SPLINESEGS
 70
     8
  9
$ATTDIA
 70
     0
  9
$ATTREQ
 70
     1
  9
$HANDLING
 70
     1
  9
$HANDSEED
  5
1B10
  9
$SURFTAB1
 70
     6
  9
$SURFTAB2
 70
     6
  9
$SURFTYPE
 70
     6
  9
$SURFU
 70
     6
  9
$SURFV
 70
     6
  9
$UCSNAME
  2

  9
$UCSORG
 10
0.0
 20
0.0
 30
0.0
  9
$UCSXDIR
 10
1.0
 20
0.0
 30
0.0
  9
$UCSYDIR
 10
0.0
 20
1.0
 30
0.0
  9
$PUCSNAME
  2

  9
$PUCSORG
 10
0.0
 20
0.0
 30
0.0
  9
$PUCSXDIR
 10
1.0
 20
0.0
 30
0.0
  9
$PUCSYDIR
 10
0.0
 20
1.0
 30
0.0
  9
$USERI1
 70
     0
  9
$USERI2
 70
     0
  9
$USERI3
 70
     0
  9
$USERI4
 70
     0
  9
$USERI5
 70
     0
  9
$USERR1
 40
0.0
  9
$USERR2
 40
0.0
  9
$USERR3
 40
0.0
  9
$USERR4
 40
0.0
  9
$USERR5
 40
0.0
  9
$WORLDVIEW
 70
     1
  9
$SHADEDGE
 70
     3
  9
$SHADEDIF
 70
    70
  9
$TILEMODE
 70
     1
  9
$MAXACTVP
 70
    48
  9
$PLIMCHECK
 70
     0
  9
$PEXTMIN
 10
0.0
 20
0.0
 30
0.0
  9
$PEXTMAX
 10
0.0
 20
0.0
 30
0.0
  9
$PLIMMIN
 10
0.0
 20
0.0
  9
$PLIMMAX
 10
12.0
 20
9.0
  9
$UNITMODE
 70
     0
  9
$VISRETAIN
 70
     1
  9
$PLINEGEN
 70
     0
  9
$PSLTSCALE
 70
     0
  0
ENDSEC
  0
SECTION
  2
TABLES
  0
TABLE
  2
VPORT
 70
     1
  0
VPORT
  2
*ACTIVE
 70
     0
 10
0.0
 20
0.0
 11
1.0
 21
1.0
 12
105.0048103078429
 22
148.5017960209525
 13
0.0
 23
0.0
 14
10.0
 24
10.0
 15
10.0
 25
10.0
 16
0.0
 26
0.0
 36
1.0
 17
0.0
 27
0.0
 37
0.0
 40
300.1107263907885
 41
1.7318339100346021
 42
50.0
 43
0.0
 44
0.0
 50
0.0
 51
0.0
 71
     0
 72
   100
 73
     1
 74
     3
 75
     0
 76
     0
 77
     0
 78
     0
  0
ENDTAB
  0
TABLE
  2
LTYPE
 70
     1
  0
LTYPE
  2
CONTINUOUS
 70
     0
  3
Solid line
 72
    65
 73
     0
 40
0.0
  0
ENDTAB
  0
TABLE
  2
LAYER
 70
     5
  0
LAYER
  2
0
 70
     0
 62
     7
  6
CONTINUOUS
  0
LAYER
  2
MODEL
 70
     0
 62
     7
  6
CONTINUOUS
  0
LAYER
  2
DIMS
 70
     0
 62
     1
  6
CONTINUOUS
  0
LAYER
  2
DEFPOINTS
 70
     0
 62
     7
  6
CONTINUOUS
  0
LAYER
  2
TITLE
 70
     0
 62
     7
  6
CONTINUOUS
  0
ENDTAB
  0
TABLE
  2
STYLE
 70
     2
  0
STYLE
  2
STANDARD
 70
     0
 40
0.0
 41
1.0
 50
0.0
 71
     0
 42
2.5
  3
romans.shx
  4
bigfont.shx
  0
STYLE
  2
DIMS
 70
     0
 40
0.0
 41
0.75
 50
0.0
 71
     0
 42
2.5
  3
romans.shx
  4
bigfont.shx
  0
ENDTAB
  0
TABLE
  2
VIEW
 70
     1
  0
VIEW
  2
PRINT
 70
     1
 40
128.5
 10
98.875866602002361
 20
145.24226553880581
 41
88.0
 11
0.0
 21
0.0
 31
1.0
 12
0.0
 22
0.0
 32
0.0
 42
50.0
 43
0.0
 44
0.0
 50
0.0
 71
     0
  0
ENDTAB
  0
TABLE
  2
UCS
 70
     0
  0
ENDTAB
  0
TABLE
  2
APPID
 70
     2
  0
APPID
  2
ACAD
 70
     0
  0
APPID
  2
ACAD_MLEADERVER
 70
     0
  0
ENDTAB
  0
TABLE
  2
DIMSTYLE
 70
     2
  0
DIMSTYLE
  2
DIMS
 70
     0
  3

  4

  5

  6

  7

 40
0.0
 41
2.0
 42
0.625
 43
3.75
 44
1.25
 45
0.0
 46
0.0
 47
0.0
 48
0.0
140
2.5
141
0.0
142
0.0
143
0.03937007874016
144
1.0
145
0.0
146
1.0
147
0.625
 71
     0
 72
     0
 73
     0
 74
     0
 75
     0
 76
     0
 77
     1
 78
     8
170
     0
171
     3
172
     1
173
     0
174
     0
175
     0
176
     0
177
     0
178
     7
  0
DIMSTYLE
  2
STANDARD
 70
     0
  3

  4

  5

  6

  7

 40
1.0
 41
0.18
 42
0.0625
 43
0.38
 44
0.18
 45
0.0
 46
0.0
 47
0.0
 48
0.0
140
0.18
141
0.09
142
0.0
143
25.399999999999999
144
1.0
145
0.0
146
1.0
147
0.09
 71
     0
 72
     0
 73
     1
 74
     1
 75
     0
 76
     0
 77
     0
 78
     0
170
     0
171
     2
172
     0
173
     0
174
     0
175
     0
176
     0
177
     0
178
     0
  0
ENDTAB
  0
ENDSEC
  0
SECTION
  2
BLOCKS
  0
BLOCK
  8
0
  2
$MODEL_SPACE
 70
     0
 10
0.0
 20
0.0
 30
0.0
  3
$MODEL_SPACE
  1

  0
ENDBLK
  5
21
  8
0
  0
BLOCK
 67
     1
  8
0
  2
$PAPER_SPACE
 70
     0
 10
0.0
 20
0.0
 30
0.0
  3
$PAPER_SPACE
  1

  0
ENDBLK
  5
1896
 67
     1
  8
0
  0
ENDSEC
  0
SECTION
  2
ENTITIES
  0
LINE
  5
B1C
  8
TITLE
 10
20.0
 20
32.5
 30
0.0
 11
199.75
 21
32.5
 31
0.0
  0
LINE
  5
B1D
  8
TITLE
 10
20.0
 20
52.5
 30
0.0
 11
199.75
 21
52.5
 31
0.0
  0
LINE
  5
B1E
  8
TITLE
 10
20.0
 20
62.5
 30
0.0
 11
199.75
 21
62.5
 31
0.0
  0
LINE
  5
B1F
  8
TITLE
 10
64.875
 20
39.166666666666657
 30
0.0
 11
109.8749999999999
 21
39.166666666666657
 31
0.0
  0
LINE
  5
B20
  8
TITLE
 10
64.875
 20
45.833333333333307
 30
0.0
 11
109.8749999999999
 21
45.833333333333307
 31
0.0
  0
LINE
  5
B21
  8
TITLE
 10
20.0
 20
67.5
 30
0.0
 11
199.75
 21
67.5
 31
0.0
  0
LINE
  5
B25
  8
TITLE
 10
20.0
 20
47.5
 30
0.0
 11
64.875
 21
47.5
 31
0.0
  0
LINE
  5
B26
  8
TITLE
 10
20.0
 20
42.5
 30
0.0
 11
64.875
 21
42.5
 31
0.0
  0
LINE
  5
B27
  8
TITLE
 10
20.0
 20
47.5
 30
0.0
 11
64.875
 21
47.5
 31
0.0
  0
LINE
  5
B28
  8
TITLE
 10
20.0
 20
37.5
 30
0.0
 11
64.875
 21
37.5
 31
0.0
  0
LINE
  5
B30
  8
TITLE
 10
64.875
 20
67.5
 30
0.0
 11
64.875
 21
32.5
 31
0.0
  0
LINE
  5
B35
  8
TITLE
 10
172.46755249781691
 20
38.423454330981968
 30
0.0
 11
173.1718691979666
 21
39.127771031131147
 31
0.0
  0
LINE
  5
B36
  8
TITLE
 10
172.55483737046401
 20
38.423454330981968
 30
0.0
 11
173.25915407061399
 21
39.127771031131147
 31
0.0
  0
LINE
  5
B37
  8
TITLE
 10
172.6421222431112
 20
38.423454330981968
 30
0.0
 11
173.34643894326069
 21
39.127771031131147
 31
0.0
  0
LINE
  5
B38
  8
TITLE
 10
172.7294071157512
 20
38.423454330981968
 30
0.0
 11
173.433723815908
 21
39.127771031131147
 31
0.0
  0
LINE
  5
B39
  8
TITLE
 10
172.8166919883985
 20
38.423454330981968
 30
0.0
 11
173.52100868854791
 21
39.127771031131147
 31
0.0
  0
LINE
  5
B3A
  8
TITLE
 10
172.90397686104549
 20
38.423454330981968
 30
0.0
 11
173.6082935611953
 21
39.127771031131147
 31
0.0
  0
LINE
  5
B3B
  8
TITLE
 10
172.99126173369271
 20
38.423454330981968
 30
0.0
 11
173.69557843384229
 21
39.127771031131147
 31
0.0
  0
LINE
  5
B3C
  8
TITLE
 10
173.0785466063399
 20
38.423454330981968
 30
0.0
 11
173.78286330648939
 21
39.127771031131147
 31
0.0
  0
LINE
  5
B3D
  8
TITLE
 10
172.29475386004361
 20
34.322836424122229
 30
0.0
 11
173.15670774170599
 21
35.184790305784759
 31
0.0
  0
LINE
  5
B3E
  8
TITLE
 10
172.35079091551671
 20
34.291588606948068
 30
0.0
 11
173.25261030160959
 21
35.193407993034228
 31
0.0
  0
LINE
  5
B3F
  8
TITLE
 10
172.4401466895485
 20
34.293659508329029
 30
0.0
 11
173.349224182618
 21
35.20273700140244
 31
0.0
  0
LINE
  5
B40
  8
TITLE
 10
172.5302638594369
 20
34.296491805577872
 30
0.0
 11
173.44656687467591
 21
35.212794820813201
 31
0.0
  0
LINE
  5
B41
  8
TITLE
 10
172.6211628459439
 20
34.300105919434301
 30
0.0
 11
173.54465669864331
 21
35.223599772133781
 31
0.0
  0
LINE
  5
B42
  8
TITLE
 10
172.7128651691707
 20
34.304523370017321
 30
0.0
 11
174.3581739212139
 21
35.949832122056712
 31
0.0
  0
LINE
  5
B43
  8
TITLE
 10
172.80539353300179
 20
34.309766861197588
 30
0.0
 11
174.3581739212139
 21
35.862547249409289
 31
0.0
  0
LINE
  5
B44
  8
TITLE
 10
172.8987719179965
 20
34.315860373552027
 30
0.0
 11
174.3581739212139
 21
35.775262376762001
 31
0.0
  0
LINE
  5
B45
  8
TITLE
 10
172.99302568404951
 20
34.322829266958173
 30
0.0
 11
174.3581739212139
 21
35.687977504115139
 31
0.0
  0
LINE
  5
B46
  8
TITLE
 10
173.0881816838926
 20
34.330700394146717
 30
0.0
 11
174.3581739212139
 21
35.600692631471219
 31
0.0
  0
LINE
  5
B47
  8
TITLE
 10
172.4514693816252
 20
37.010813252449907
 30
0.0
 11
173.1597936370915
 21
37.719137507916329
 31
0.0
  0
LINE
  5
B48
  8
TITLE
 10
172.49059017030109
 20
36.962649168479018
 30
0.0
 11
173.24707850973849
 21
37.719137507916329
 31
0.0
  0
LINE
  5
B49
  8
TITLE
 10
172.57787504294839
 20
36.962649168479018
 30
0.0
 11
173.33436338238579
 21
37.719137507916329
 31
0.0
  0
LINE
  5
B4A
  8
TITLE
 10
172.66515991559569
 20
36.962649168479018
 30
0.0
 11
173.42164825503281
 21
37.719137507916329
 31
0.0
  0
LINE
  5
B4B
  8
TITLE
 10
172.752444788243
 20
36.962649168479018
 30
0.0
 11
173.50893312767289
 21
37.719137507916329
 31
0.0
  0
LINE
  5
B4C
  8
TITLE
 10
172.83972966088979
 20
36.962649168479018
 30
0.0
 11
173.59621800031999
 21
37.719137507916329
 31
0.0
  0
LINE
  5
B4D
  8
TITLE
 10
172.92701453353001
 20
36.962649168479018
 30
0.0
 11
173.68350287296721
 21
37.719137507916329
 31
0.0
  0
LINE
  5
B4E
  8
TITLE
 10
173.01429940617709
 20
36.962649168479018
 30
0.0
 11
173.7707877456146
 21
37.719137507916329
 31
0.0
  0
LINE
  5
B4F
  8
TITLE
 10
173.1015842788243
 20
36.962649168479018
 30
0.0
 11
173.8580726182617
 21
37.719137507916329
 31
0.0
  0
LINE
  5
B54
  8
TITLE
 10
109.8749999999999
 20
42.5
 30
0.0
 11
199.75
 21
42.5
 31
0.0
  0
LINE
  5
B55
  8
TITLE
 10
154.87499999999989
 20
67.5
 30
0.0
 11
154.87499999999989
 21
52.5
 31
0.0
  0
LINE
  5
B56
  8
TITLE
 10
109.8749999999999
 20
67.5
 30
0.0
 11
109.8749999999999
 21
32.5
 31
0.0
  0
LINE
  5
B58
  8
TITLE
 10
139.9462940002561
 20
38.284883585264211
 30
0.0
 11
141.36013374838211
 21
39.698723333390092
 31
0.0
  0
LINE
  5
B59
  8
TITLE
 10
140.0933162955269
 20
38.344621007887781
 30
0.0
 11
141.36013374838211
 21
39.611438460742832
 31
0.0
  0
LINE
  5
B5A
  8
TITLE
 10
140.23350378221701
 20
38.397523621927277
 30
0.0
 11
141.36013374838211
 21
39.524153588095828
 31
0.0
  0
LINE
  5
B5B
  8
TITLE
 10
139.6256263884739
 20
38.138785718775637
 30
0.0
 11
141.3266014247061
 21
39.839760755008328
 31
0.0
  0
LINE
  5
B5C
  8
TITLE
 10
139.79104971230311
 20
38.216924169958247
 30
0.0
 11
141.36013374838211
 21
39.78600820603728
 31
0.0
  0
LINE
  5
B5D
  8
TITLE
 10
138.0822591989286
 20
37.206412637753452
 30
0.0
 11
140.5272332402117
 21
39.651386679040769
 31
0.0
  0
LINE
  5
B5E
  8
TITLE
 10
138.17835846748929
 20
37.21522703366314
 30
0.0
 11
140.65121190913311
 21
39.68808047531104
 31
0.0
  0
LINE
  5
B5F
  8
TITLE
 10
138.17835846748929
 20
37.127942161019618
 30
0.0
 11
140.7713804755156
 21
39.720964169046262
 31
0.0
  0
LINE
  5
B60
  8
TITLE
 10
138.17835846748929
 20
37.040657288372778
 30
0.0
 11
140.888125162742
 21
39.750423983625872
 31
0.0
  0
LINE
  5
B61
  8
TITLE
 10
138.17835846748929
 20
36.953372415725482
 30
0.0
 11
141.00176757038659
 21
39.776781518622762
 31
0.0
  0
LINE
  5
B62
  8
TITLE
 10
138.17835846748929
 20
36.8660875430785
 30
0.0
 11
141.11257891923859
 21
39.800307994835038
 31
0.0
  0
LINE
  5
B63
  8
TITLE
 10
138.17835846748929
 20
36.778802670431219
 30
0.0
 11
141.2207904891041
 21
39.821234692053849
 31
0.0
  0
LINE
  5
B64
  8
TITLE
 10
137.9246858038361
 20
37.13612411530471
 30
0.0
 11
140.39897371736859
 21
39.610412028840543
 31
0.0
  0
LINE
  5
B65
  8
TITLE
 10
125.33823048282299
 20
41.10407912057218
 30
0.0
 11
122.41937018706069
 21
38.185218824809752
 31
0.0
  0
LINE
  5
B66
  8
TITLE
 10
123.38447913735121
 20
33.451262901534548
 30
0.0
 11
127.153326110336
 21
37.22010987451722
 31
0.0
  0
LINE
  5
B67
  8
TITLE
 10
123.2968840985492
 20
33.45095273537882
 30
0.0
 11
127.1536362764916
 21
37.307704913320251
 31
0.0
  0
LINE
  5
B68
  8
TITLE
 10
123.2112351791919
 20
33.452588688660242
 30
0.0
 11
127.1608025945805
 21
37.402156104049411
 31
0.0
  0
LINE
  5
B69
  8
TITLE
 10
123.1274103954688
 20
33.456048777583987
 30
0.0
 11
127.1485402342861
 21
37.477178616409113
 31
0.0
  0
LINE
  5
B6A
  8
TITLE
 10
123.0453024283687
 20
33.461225683142871
 30
0.0
 11
127.143363328728
 21
37.559286583495009
 31
0.0
  0
LINE
  5
B6B
  8
TITLE
 10
122.9648162964986
 20
33.4680244239091
 30
0.0
 11
127.1365645879614
 21
37.6397727153714
 31
0.0
  0
LINE
  5
B6C
  8
TITLE
 10
122.8603401779431
 20
33.450833178000913
 30
0.0
 11
127.1282285247259
 21
37.718721524790197
 31
0.0
  0
LINE
  5
B6D
  8
TITLE
 10
123.56608722700901
 20
33.458301245895441
 30
0.0
 11
127.146287765975
 21
37.038501784862213
 31
0.0
  0
LINE
  5
B6E
  8
TITLE
 10
123.47415987532089
 20
33.453658766853778
 30
0.0
 11
127.1509302450166
 21
37.130429136551733
 31
0.0
  0
LINE
  5
B6F
  8
TITLE
 10
123.8573909979948
 20
33.487750398940882
 30
0.0
 11
127.1168386129296
 21
36.747198013875483
 31
0.0
  0
LINE
  5
B70
  8
TITLE
 10
123.66044827911109
 20
33.465377425351491
 30
0.0
 11
127.1392115865191
 21
36.944140732759138
 31
0.0
  0
LINE
  5
B71
  8
TITLE
 10
123.7574626493616
 20
33.475106922954751
 30
0.0
 11
127.12948208891559
 21
36.847126362508732
 31
0.0
  0
LINE
  5
B72
  8
TITLE
 10
122.7730553052957
 20
33.450833178000643
 30
0.0
 11
127.1184306994865
 21
37.796208572191262
 31
0.0
  0
LINE
  5
B73
  8
TITLE
 10
122.6857704326453
 20
33.450833178000643
 30
0.0
 11
127.1072389624086
 21
37.87230170776418
 31
0.0
  0
LINE
  5
B74
  8
TITLE
 10
122.59848556000171
 20
33.450833178000643
 30
0.0
 11
127.0947144793161
 21
37.947062097314962
 31
0.0
  0
LINE
  5
B75
  8
TITLE
 10
122.5112006873545
 20
33.450833178000643
 30
0.0
 11
127.0809125858308
 21
38.020545076476878
 31
0.0
  0
LINE
  5
B76
  8
TITLE
 10
122.4239158147076
 20
33.450833178000643
 30
0.0
 11
127.06588350361601
 21
38.09280086690957
 31
0.0
  0
LINE
  5
B77
  8
TITLE
 10
122.33663094205779
 20
33.450833178000643
 30
0.0
 11
127.04967294494649
 21
38.163875180883373
 31
0.0
  0
LINE
  5
B78
  8
TITLE
 10
122.24934606941051
 20
33.450833178000643
 30
0.0
 11
127.0323226261436
 21
38.23380973472787
 31
0.0
  0
LINE
  5
B79
  8
TITLE
 10
122.16206119677319
 20
33.450833178000643
 30
0.0
 11
127.0138707060766
 21
38.302642687304072
 31
0.0
  0
LINE
  5
B7A
  8
TITLE
 10
122.07477632412569
 20
33.450833178000643
 30
0.0
 11
126.9943521626071
 21
38.370409016481901
 31
0.0
  0
LINE
  5
B7B
  8
TITLE
 10
121.9874914514786
 20
33.450833178000913
 30
0.0
 11
126.9737991173361
 21
38.437140843857946
 31
0.0
  0
LINE
  5
B7C
  8
TITLE
 10
121.9002065788323
 20
33.450833178000643
 30
0.0
 11
126.9365361668489
 21
38.487162766017732
 31
0.0
  0
LINE
  5
B7D
  8
TITLE
 10
121.8129217061845
 20
33.450833178000643
 30
0.0
 11
126.8492512942022
 21
38.487162766017732
 31
0.0
  0
LINE
  5
B7E
  8
TITLE
 10
121.72563683353719
 20
33.450833178000913
 30
0.0
 11
126.7619664215549
 21
38.487162766017462
 31
0.0
  0
LINE
  5
B7F
  8
TITLE
 10
121.6383519608912
 20
33.450833178000643
 30
0.0
 11
126.6746815489069
 21
38.487162766017732
 31
0.0
  0
LINE
  5
B80
  8
TITLE
 10
119.85068909498391
 20
35.678274453828379
 30
0.0
 11
125.2764937617292
 21
41.10407912057218
 31
0.0
  0
LINE
  5
B81
  8
TITLE
 10
119.82361753197451
 20
35.738487763465137
 30
0.0
 11
125.1892088890814
 21
41.10407912057218
 31
0.0
  0
LINE
  5
B82
  8
TITLE
 10
119.79741619693181
 20
35.79957130106925
 30
0.0
 11
125.1019240164335
 21
41.10407912057218
 31
0.0
  0
LINE
  5
B83
  8
TITLE
 10
119.77210340953511
 20
35.861543386320882
 30
0.0
 11
125.0146391437876
 21
41.10407912057218
 31
0.0
  0
LINE
  5
B84
  8
TITLE
 10
119.7476989814178
 20
35.924423830850323
 30
0.0
 11
124.9273542711399
 21
41.10407912057218
 31
0.0
  0
LINE
  5
B85
  8
TITLE
 10
119.55935903193949
 20
36.608932607828791
 30
0.0
 11
124.0545055446686
 21
41.10407912057218
 31
0.0
  0
LINE
  5
B86
  8
TITLE
 10
119.54685359953309
 20
36.683712048076728
 30
0.0
 11
123.9672206720286
 21
41.10407912057218
 31
0.0
  0
LINE
  5
B87
  8
TITLE
 10
119.6401178100719
 20
36.253267022746172
 30
0.0
 11
124.49092990791171
 21
41.10407912057218
 31
0.0
  0
LINE
  5
B88
  8
TITLE
 10
119.6216817176948
 20
36.322115803015933
 30
0.0
 11
124.4036450352644
 21
41.10407912057218
 31
0.0
  0
LINE
  5
B89
  8
TITLE
 10
119.6043477600807
 20
36.392066718045413
 30
0.0
 11
124.3163601626206
 21
41.10407912057218
 31
0.0
  0
LINE
  5
B8A
  8
TITLE
 10
119.58815414519999
 20
36.463157975812237
 30
0.0
 11
124.22907528997369
 21
41.10407912057218
 31
0.0
  0
LINE
  5
B8B
  8
TITLE
 10
119.5731426444103
 20
36.535431347660051
 30
0.0
 11
124.1417904173156
 21
41.10407912057218
 31
0.0
  0
LINE
  5
B8C
  8
TITLE
 10
119.7242243448936
 20
35.988234066972538
 30
0.0
 11
124.8400693984926
 21
41.10407912057218
 31
0.0
  0
LINE
  5
B8D
  8
TITLE
 10
119.70170269854751
 20
36.052997293274132
 30
0.0
 11
124.7527845258455
 21
41.10407912057218
 31
0.0
  0
LINE
  5
B8E
  8
TITLE
 10
119.6801591723346
 20
36.11873863970866
 30
0.0
 11
124.66549965319891
 21
41.10407912057218
 31
0.0
  0
LINE
  5
B8F
  8
TITLE
 10
119.6596210153478
 20
36.18548535537532
 30
0.0
 11
124.5782147805599
 21
41.10407912057218
 31
0.0
  0
LINE
  5
B90
  8
TITLE
 10
121.28921247032299
 20
33.450833178000643
 30
0.0
 11
124.06602082510079
 21
36.227641532797733
 31
0.0
  0
LINE
  5
B91
  8
TITLE
 10
121.5510670882431
 20
33.450833178000643
 30
0.0
 11
126.5873966762605
 21
38.487162766017732
 31
0.0
  0
LINE
  5
B92
  8
TITLE
 10
121.46378221559659
 20
33.450833178000643
 30
0.0
 11
126.5001118036122
 21
38.487162766017462
 31
0.0
  0
LINE
  5
B93
  8
TITLE
 10
121.37649734294889
 20
33.450833178000643
 30
0.0
 11
126.41282693096559
 21
38.487162766017732
 31
0.0
  0
LINE
  5
B94
  8
TITLE
 10
121.20192759766201
 20
33.450833178000913
 30
0.0
 11
123.8610965150265
 21
36.1100020953658
 31
0.0
  0
LINE
  5
B95
  8
TITLE
 10
121.11464272501399
 20
33.450833178000913
 30
0.0
 11
123.7186552097545
 21
36.05484566274059
 31
0.0
  0
LINE
  5
B96
  8
TITLE
 10
121.0273578523668
 20
33.450833178000643
 30
0.0
 11
123.5994184705411
 21
36.022893796174799
 31
0.0
  0
LINE
  5
B97
  8
TITLE
 10
120.9400729797204
 20
33.450833178000643
 30
0.0
 11
123.49378910120311
 21
36.004549299483529
 31
0.0
  0
LINE
  5
B98
  8
TITLE
 10
120.8527881070725
 20
33.450833178000643
 30
0.0
 11
123.3975748664184
 21
35.995619937345808
 31
0.0
  0
LINE
  5
B99
  8
TITLE
 10
120.76550323442569
 20
33.450833178000508
 30
0.0
 11
123.30849127269011
 21
35.993821216265097
 31
0.0
  0
LINE
  5
B9A
  8
TITLE
 10
120.678218361779
 20
33.450833178000643
 30
0.0
 11
123.22512982985
 21
35.99774464607215
 31
0.0
  0
LINE
  5
B9B
  8
TITLE
 10
120.5909334891316
 20
33.450833178000643
 30
0.0
 11
123.1465504968818
 21
36.006450185750751
 31
0.0
  0
LINE
  5
B9C
  8
TITLE
 10
120.5036486164841
 20
33.450833178000643
 30
0.0
 11
123.0720905350867
 21
36.01927509660328
 31
0.0
  0
LINE
  5
B9D
  8
TITLE
 10
120.4163637438228
 20
33.450833178000913
 30
0.0
 11
123.00126389369569
 21
36.035733327855723
 31
0.0
  0
LINE
  5
B9E
  8
TITLE
 10
120.3290788711967
 20
33.450833178000913
 30
0.0
 11
122.93370364306691
 21
36.055457949870203
 31
0.0
  0
LINE
  5
B9F
  8
TITLE
 10
120.24179399854999
 20
33.450833178000643
 30
0.0
 11
122.8691268949387
 21
36.078166074389188
 31
0.0
  0
LINE
  5
BA0
  8
TITLE
 10
120.15450912590229
 20
33.450833178000643
 30
0.0
 11
122.8073123541471
 21
36.10363640624481
 31
0.0
  0
LINE
  5
BA1
  8
TITLE
 10
120.0672242532565
 20
33.450833178000643
 30
0.0
 11
122.74808539198639
 21
36.131694316731199
 31
0.0
  0
LINE
  5
BA2
  8
TITLE
 10
119.9799393806088
 20
33.450833178000643
 30
0.0
 11
122.6913078215826
 21
36.162201618974557
 31
0.0
  0
LINE
  5
BA3
  8
TITLE
 10
119.892654507961
 20
33.450833178000643
 30
0.0
 11
122.6368707391245
 21
36.195049409163772
 31
0.0
  0
LINE
  5
BA4
  8
TITLE
 10
119.8053696353136
 20
33.450833178000643
 30
0.0
 11
122.5846894423362
 21
36.230152985022762
 31
0.0
  0
LINE
  5
BA5
  8
TITLE
 10
119.6307998900197
 20
33.450833178000643
 30
0.0
 11
122.4868557481595
 21
36.30688903614012
 31
0.0
  0
LINE
  5
BA6
  8
TITLE
 10
119.54351501740329
 20
33.450833178000643
 30
0.0
 11
122.44112745603989
 21
36.34844561666516
 31
0.0
  0
LINE
  5
BA7
  8
TITLE
 10
119.718084762667
 20
33.450833178000508
 30
0.0
 11
122.53469980975861
 21
36.267448225091947
 31
0.0
  0
LINE
  5
BA9
  8
TITLE
 10
119.6991955842628
 20
38.494466613062862
 30
0.0
 11
122.30880809173929
 21
41.10407912057218
 31
0.0
  0
LINE
  5
BAA
  8
TITLE
 10
119.5356817625027
 20
36.759825083693897
 30
0.0
 11
123.8799357993811
 21
41.10407912057218
 31
0.0
  0
LINE
  5
BAB
  8
TITLE
 10
119.52590477776231
 20
36.837332971600183
 30
0.0
 11
123.7926509267341
 21
41.10407912057218
 31
0.0
  0
LINE
  5
BAC
  8
TITLE
 10
119.51759060022469
 20
36.916303666709751
 30
0.0
 11
123.7053660540867
 21
41.10407912057218
 31
0.0
  0
LINE
  5
BAD
  8
TITLE
 10
119.5108149115577
 20
36.996812850689793
 30
0.0
 11
123.61808118143961
 21
41.10407912057218
 31
0.0
  0
LINE
  5
BAE
  8
TITLE
 10
119.5056623657136
 20
37.078945177492869
 30
0.0
 11
123.5307963087926
 21
41.10407912057218
 31
0.0
  0
LINE
  5
BAF
  8
TITLE
 10
119.5022281098661
 20
37.16279579428334
 30
0.0
 11
123.4435114361454
 21
41.10407912057218
 31
0.0
  0
LINE
  5
BB0
  8
TITLE
 10
119.50061965915749
 20
37.248472216222581
 30
0.0
 11
123.3562265634983
 21
41.10407912057218
 31
0.0
  0
LINE
  5
BB1
  8
TITLE
 10
119.50095923156221
 20
37.336096661273778
 30
0.0
 11
123.26894169085099
 21
41.10407912057218
 31
0.0
  0
LINE
  5
BB2
  8
TITLE
 10
119.5033866891868
 20
37.425808991536059
 30
0.0
 11
123.18165681820371
 21
41.10407912057218
 31
0.0
  0
LINE
  5
BB3
  8
TITLE
 10
119.508063290866
 20
37.517770465861418
 30
0.0
 11
123.0943719455567
 21
41.10407912057218
 31
0.0
  0
LINE
  5
BB4
  8
TITLE
 10
119.5151765482412
 20
37.61216859589581
 30
0.0
 11
123.0070870729167
 21
41.10407912057218
 31
0.0
  0
LINE
  5
BB5
  8
TITLE
 10
119.5249466109308
 20
37.70922353123288
 30
0.0
 11
122.9198022002699
 21
41.10407912057218
 31
0.0
  0
LINE
  5
BB6
  8
TITLE
 10
119.5376348155601
 20
37.809196608509239
 30
0.0
 11
122.8325173276224
 21
41.10407912057218
 31
0.0
  0
LINE
  5
BB7
  8
TITLE
 10
119.553555371068
 20
37.912402036663451
 30
0.0
 11
122.7452324549751
 21
41.10407912057218
 31
0.0
  0
LINE
  5
BB8
  8
TITLE
 10
119.5730917166423
 20
38.019223254885461
 30
0.0
 11
122.6579475823283
 21
41.10407912057218
 31
0.0
  0
LINE
  5
BB9
  8
TITLE
 10
119.59672006767261
 20
38.130136478562797
 30
0.0
 11
122.5706627096809
 21
41.10407912057218
 31
0.0
  0
LINE
  5
BBA
  8
TITLE
 10
119.62504444435901
 20
38.245745727882792
 30
0.0
 11
122.4833778370337
 21
41.10407912057218
 31
0.0
  0
LINE
  5
BBB
  8
TITLE
 10
119.6588508908735
 20
38.366837047043362
 30
0.0
 11
122.3960929643866
 21
41.10407912057218
 31
0.0
  0
LINE
  5
BBC
  8
TITLE
 10
119.7475570630407
 20
38.630112964483317
 30
0.0
 11
122.2215232190926
 21
41.10407912057218
 31
0.0
  0
LINE
  5
BBD
  8
TITLE
 10
123.7842161662909
 20
38.47709818073524
 30
0.0
 11
123.7942807515736
 21
38.487162766017732
 31
0.0
  0
LINE
  5
BBE
  8
TITLE
 10
123.846069687748
 20
38.451666829545729
 30
0.0
 11
123.8815656242203
 21
38.487162766017732
 31
0.0
  0
LINE
  5
BBF
  8
TITLE
 10
119.87837471686829
 20
38.935500363634219
 30
0.0
 11
122.0469534738053
 21
41.10407912057218
 31
0.0
  0
LINE
  5
BC0
  8
TITLE
 10
119.8061210691303
 20
38.77596184321375
 30
0.0
 11
122.1342383464455
 21
41.10407912057218
 31
0.0
  0
LINE
  5
BC1
  8
TITLE
 10
119.99855021796169
 20
35.389711213578458
 30
0.0
 11
122.0544190242497
 21
37.445580019865162
 31
0.0
  0
LINE
  5
BC2
  8
TITLE
 10
119.9673574068533
 20
35.445803275119729
 30
0.0
 11
122.0729252477288
 21
37.551371115991991
 31
0.0
  0
LINE
  5
BC3
  8
TITLE
 10
119.9369620260148
 20
35.502692766959562
 30
0.0
 11
122.1051251839025
 21
37.670855924819648
 31
0.0
  0
LINE
  5
BC4
  8
TITLE
 10
119.9073764141266
 20
35.560392027709511
 30
0.0
 11
122.1607584701225
 21
37.813774083683853
 31
0.0
  0
LINE
  5
BC5
  8
TITLE
 10
119.8786139441456
 20
35.61891443032178
 30
0.0
 11
122.2803928826204
 21
38.020693368814712
 31
0.0
  0
LINE
  5
BC6
  8
TITLE
 10
120.0305290909705
 20
35.334405213938197
 30
0.0
 11
122.04537152320729
 21
37.349247646174959
 31
0.0
  0
LINE
  5
BC7
  8
TITLE
 10
120.47256755522849
 20
34.729025206448192
 30
0.0
 11
122.27930117902849
 21
36.535758830238251
 31
0.0
  0
LINE
  5
BC8
  8
TITLE
 10
120.5992525161101
 20
34.593855549403287
 30
0.0
 11
122.3975003441045
 21
36.392103377374923
 31
0.0
  0
LINE
  5
BC9
  8
TITLE
 10
120.5563192463168
 20
34.638207152264542
 30
0.0
 11
122.3559745190458
 21
36.43786242496342
 31
0.0
  0
LINE
  5
BCA
  8
TITLE
 10
120.514090557313
 20
34.683263335880213
 30
0.0
 11
122.3165647872935
 21
36.485737565855857
 31
0.0
  0
LINE
  5
BCB
  8
TITLE
 10
120.3916458255553
 20
34.822673222058548
 30
0.0
 11
122.21141576110131
 21
36.642443157604177
 31
0.0
  0
LINE
  5
BCC
  8
TITLE
 10
120.3522521212294
 20
34.87056439038021
 30
0.0
 11
122.1809433794772
 21
36.69925564862789
 31
0.0
  0
LINE
  5
BCD
  8
TITLE
 10
120.3135741703726
 20
34.919171312170391
 30
0.0
 11
122.1529221823248
 21
36.758519324122631
 31
0.0
  0
LINE
  5
BCE
  8
TITLE
 10
120.27561595025711
 20
34.968497964702692
 30
0.0
 11
122.12749083113501
 21
36.82037284558016
 31
0.0
  0
LINE
  5
BCF
  8
TITLE
 10
120.16610875714279
 20
35.120845389507913
 30
0.0
 11
122.06873736886099
 21
37.023474001244182
 31
0.0
  0
LINE
  5
BD0
  8
TITLE
 10
120.2383820510445
 20
35.018548938136249
 30
0.0
 11
122.104824553463
 21
36.884991440554792
 31
0.0
  0
LINE
  5
BD1
  8
TITLE
 10
120.20187769474779
 20
35.069329454486891
 30
0.0
 11
122.08514542238881
 21
36.952597182127853
 31
0.0
  0
LINE
  5
BD2
  8
TITLE
 10
120.1310817927648
 20
35.173103297818642
 30
0.0
 11
122.0559687700523
 21
37.097990275081123
 31
0.0
  0
LINE
  5
BD3
  8
TITLE
 10
120.0968040634874
 20
35.226110441196241
 30
0.0
 11
122.0473277703136
 21
37.176634147990001
 31
0.0
  0
LINE
  5
BD4
  8
TITLE
 10
120.0632835705832
 20
35.279874820909953
 30
0.0
 11
122.0434802906088
 21
37.260071540929232
 31
0.0
  0
LINE
  5
BD5
  8
TITLE
 10
120.431751902741
 20
34.77549442660748
 30
0.0
 11
122.2442300364996
 21
36.58797256035615
 31
0.0
  0
LINE
  5
BD6
  8
TITLE
 10
121.7420937297891
 20
41.10407912057218
 30
0.0
 11
120.6213018105438
 21
39.983287201326647
 31
0.0
  0
LINE
  5
BD7
  8
TITLE
 10
120.3023601853122
 20
39.62134045001514
 30
0.0
 11
121.78509885586379
 21
41.10407912057218
 31
0.0
  0
LINE
  5
BD8
  8
TITLE
 10
120.0962783141606
 20
39.327973706222721
 30
0.0
 11
121.872383728511
 21
41.10407912057218
 31
0.0
  0
LINE
  5
BD9
  8
TITLE
 10
119.97055903818359
 20
39.114969557597817
 30
0.0
 11
121.9596686011581
 21
41.10407912057218
 31
0.0
  0
LINE
  5
BDA
  8
TITLE
 10
124.5422261388137
 20
33.64887630388786
 30
0.0
 11
126.9557127079826
 21
36.062362873056571
 31
0.0
  0
LINE
  5
BDB
  8
TITLE
 10
124.29369694209061
 20
33.574916852455232
 30
0.0
 11
127.0296721594151
 21
36.310892069779811
 31
0.0
  0
LINE
  5
BDC
  8
TITLE
 10
124.41470140681901
 20
33.608636444536259
 30
0.0
 11
126.9959525673341
 21
36.189887605051503
 31
0.0
  0
LINE
  5
BDD
  8
TITLE
 10
124.1781613964546
 20
33.5466661794663
 30
0.0
 11
127.0579228324042
 21
36.426427615416067
 31
0.0
  0
LINE
  5
BDE
  8
TITLE
 10
124.06731190958
 20
33.52310156523879
 30
0.0
 11
127.0814874466307
 21
36.5372771022856
 31
0.0
  0
LINE
  5
BDF
  8
TITLE
 10
123.96054665794659
 20
33.503621186252602
 30
0.0
 11
127.10096782561681
 21
36.64404235391909
 31
0.0
  0
LINE
  5
BE0
  8
TITLE
 10
124.8234209858055
 20
33.75550140558542
 30
0.0
 11
126.8490876062875
 21
35.781168026070389
 31
0.0
  0
LINE
  5
BE1
  8
TITLE
 10
124.67774191356381
 20
33.697107205987173
 30
0.0
 11
126.9074818058828
 21
35.926847098305757
 31
0.0
  0
LINE
  5
BE2
  8
TITLE
 10
124.98272433684321
 20
33.827519883972151
 30
0.0
 11
126.7770691278983
 21
35.621864675026629
 31
0.0
  0
LINE
  5
BE3
  8
TITLE
 10
125.1618332045707
 20
33.91934387905394
 30
0.0
 11
126.6852451328142
 21
35.442755807295782
 31
0.0
  0
LINE
  5
BE6
  8
TITLE
 10
131.62276507624671
 20
38.689841925901888
 30
0.0
 11
132.7781583346721
 21
39.845235184330853
 31
0.0
  0
LINE
  5
BE7
  8
TITLE
 10
131.71004994889401
 20
38.689841925901888
 30
0.0
 11
132.86544320731949
 21
39.845235184330853
 31
0.0
  0
LINE
  5
BE8
  8
TITLE
 10
131.79733482154089
 20
38.689841925901888
 30
0.0
 11
132.95272807996659
 21
39.845235184330853
 31
0.0
  0
LINE
  5
BE9
  8
TITLE
 10
131.88461969418819
 20
38.689841925901888
 30
0.0
 11
133.04001295261361
 21
39.845235184330853
 31
0.0
  0
LINE
  5
BEA
  8
TITLE
 10
131.97190456683569
 20
38.689841925901888
 30
0.0
 11
133.127297825261
 21
39.845235184330853
 31
0.0
  0
LINE
  5
BEB
  8
TITLE
 10
132.05918943948251
 20
38.689841925901888
 30
0.0
 11
133.2145826979077
 21
39.845235184330853
 31
0.0
  0
LINE
  5
BEC
  8
TITLE
 10
131.01177096772409
 20
38.689841925901888
 30
0.0
 11
132.167164226149
 21
39.845235184330853
 31
0.0
  0
LINE
  5
BED
  8
TITLE
 10
131.09905584037119
 20
38.689841925901888
 30
0.0
 11
132.2544490987961
 21
39.845235184330853
 31
0.0
  0
LINE
  5
BEE
  8
TITLE
 10
131.18634071301801
 20
38.689841925901888
 30
0.0
 11
132.3417339714436
 21
39.845235184330853
 31
0.0
  0
LINE
  5
BEF
  8
TITLE
 10
131.2736255856654
 20
38.689841925901888
 30
0.0
 11
132.42901884409059
 21
39.845235184330853
 31
0.0
  0
LINE
  5
BF0
  8
TITLE
 10
131.36091045830531
 20
38.689841925901888
 30
0.0
 11
132.51630371673801
 21
39.845235184330853
 31
0.0
  0
LINE
  5
BF1
  8
TITLE
 10
131.4481953309525
 20
38.689841925901888
 30
0.0
 11
132.6035885893848
 21
39.845235184330853
 31
0.0
  0
LINE
  5
BF2
  8
TITLE
 10
131.5354802035996
 20
38.689841925901888
 30
0.0
 11
132.69087346203199
 21
39.845235184330853
 31
0.0
  0
LINE
  5
BF3
  8
TITLE
 10
131.58783114675879
 20
34.290664364088187
 30
0.0
 11
132.76881084983481
 21
35.47164406716476
 31
0.0
  0
LINE
  5
BF4
  8
TITLE
 10
131.67511601940561
 20
34.290664364088187
 30
0.0
 11
132.9332571018237
 21
35.548805446506208
 31
0.0
  0
LINE
  5
BF5
  8
TITLE
 10
131.7624008920528
 20
34.290664364088187
 30
0.0
 11
133.19069160982869
 21
35.718955081863868
 31
0.0
  0
LINE
  5
BF6
  8
TITLE
 10
131.0641219108827
 20
34.290664364088187
 30
0.0
 11
132.121546663706
 21
35.348089116911311
 31
0.0
  0
LINE
  5
BF7
  8
TITLE
 10
131.15140678353001
 20
34.290664364088187
 30
0.0
 11
132.21053226598781
 21
35.34978984654623
 31
0.0
  0
LINE
  5
BF8
  8
TITLE
 10
131.238691656177
 20
34.290664364088187
 30
0.0
 11
132.30468771114431
 21
35.356660419062862
 31
0.0
  0
LINE
  5
BF9
  8
TITLE
 10
131.32597652881711
 20
34.290664364088187
 30
0.0
 11
132.40519659512461
 21
35.369884430395793
 31
0.0
  0
LINE
  5
BFA
  8
TITLE
 10
131.41326140146421
 20
34.290664364088187
 30
0.0
 11
132.5137681585486
 21
35.391171121172853
 31
0.0
  0
LINE
  5
BFB
  8
TITLE
 10
131.5005462741114
 20
34.290664364088187
 30
0.0
 11
132.6332124734231
 21
35.423330563399958
 31
0.0
  0
LINE
  5
BFC
  8
TITLE
 10
131.84968576470001
 20
34.290664364088187
 30
0.0
 11
135.1387854337799
 21
37.57976403316809
 31
0.0
  0
LINE
  5
BFD
  8
TITLE
 10
131.93697063734709
 20
34.290664364088187
 30
0.0
 11
135.1387854337799
 21
37.492479160520787
 31
0.0
  0
LINE
  5
BFE
  8
TITLE
 10
132.02425550999411
 20
34.290664364088187
 30
0.0
 11
135.1387854337799
 21
37.40519428787394
 31
0.0
  0
LINE
  5
C01
  8
TITLE
 10
124.374436026848
 20
38.019899569533891
 30
0.0
 11
124.8416992233321
 21
38.487162766017732
 31
0.0
  0
LINE
  5
C02
  8
TITLE
 10
124.4423873928959
 20
37.913281190288131
 30
0.0
 11
125.0162689686257
 21
38.487162766017732
 31
0.0
  0
LINE
  5
C03
  8
TITLE
 10
124.5009526056257
 20
37.797276657723181
 30
0.0
 11
125.1908387139206
 21
38.487162766017732
 31
0.0
  0
LINE
  5
C04
  8
TITLE
 10
124.5264229374814
 20
37.735462116931757
 30
0.0
 11
125.2781235865676
 21
38.487162766017732
 31
0.0
  0
LINE
  5
C05
  8
TITLE
 10
124.4728946951391
 20
37.85650361988435
 30
0.0
 11
125.1035538412728
 21
38.487162766017732
 31
0.0
  0
LINE
  5
C06
  8
TITLE
 10
124.409539602707
 20
37.967718272745877
 30
0.0
 11
124.92898409597861
 21
38.487162766017732
 31
0.0
  0
LINE
  5
C07
  8
TITLE
 10
124.3371407867786
 20
38.069889202111852
 30
0.0
 11
124.7544143506846
 21
38.487162766017732
 31
0.0
  0
LINE
  5
C08
  8
TITLE
 10
124.2124856345074
 20
38.207088667754761
 30
0.0
 11
124.4925597327745
 21
38.487162766017732
 31
0.0
  0
LINE
  5
C09
  8
TITLE
 10
124.2561433951965
 20
38.163461555839788
 30
0.0
 11
124.5798446053719
 21
38.487162766017732
 31
0.0
  0
LINE
  5
C0A
  8
TITLE
 10
124.2976999757305
 20
38.11773326371042
 30
0.0
 11
124.6671294780375
 21
38.487162766017732
 31
0.0
  0
LINE
  5
C0B
  8
TITLE
 10
124.16672658692301
 20
38.248614492810631
 30
0.0
 11
124.4052748601341
 21
38.487162766017917
 31
0.0
  0
LINE
  5
C0C
  8
TITLE
 10
124.06883018163791
 20
38.325287832837802
 30
0.0
 11
124.230705114819
 21
38.487162766017917
 31
0.0
  0
LINE
  5
C0D
  8
TITLE
 10
124.1188514460176
 20
38.28802422457494
 30
0.0
 11
124.317989987461
 21
38.487162766017732
 31
0.0
  0
LINE
  5
C0E
  8
TITLE
 10
123.9621458542659
 20
38.393173250769522
 30
0.0
 11
124.05613536951449
 21
38.487162766017732
 31
0.0
  0
LINE
  5
C0F
  8
TITLE
 10
123.90533336324251
 20
38.423645632393047
 30
0.0
 11
123.96885049686711
 21
38.487162766017732
 31
0.0
  0
LINE
  5
C10
  8
TITLE
 10
124.01661645152041
 20
38.360358975367149
 30
0.0
 11
124.1434202421719
 21
38.487162766017917
 31
0.0
  0
LINE
  5
C11
  8
TITLE
 10
125.66539193621109
 20
34.248332865401942
 30
0.0
 11
126.3562561464686
 21
34.939197075659067
 31
0.0
  0
LINE
  5
C12
  8
TITLE
 10
125.3741686879834
 20
34.044394489821443
 30
0.0
 11
126.5601945220491
 21
35.230420323887273
 31
0.0
  0
LINE
  5
C13
  8
TITLE
 10
124.5491310620002
 20
37.67088536880317
 30
0.0
 11
125.3654084592151
 21
38.487162766017462
 31
0.0
  0
LINE
  5
C14
  8
TITLE
 10
124.5688556840169
 20
37.60332511816614
 30
0.0
 11
125.4526933318746
 21
38.487162766017462
 31
0.0
  0
LINE
  5
C15
  8
TITLE
 10
124.58531391526709
 20
37.532498476783559
 30
0.0
 11
125.53997820450179
 21
38.487162766017732
 31
0.0
  0
LINE
  5
C16
  8
TITLE
 10
124.59813882611979
 20
37.458038514988793
 30
0.0
 11
125.6272630771489
 21
38.487162766017732
 31
0.0
  0
LINE
  5
C17
  8
TITLE
 10
124.6068443657983
 20
37.37945918202081
 30
0.0
 11
125.7145479497955
 21
38.487162766017732
 31
0.0
  0
LINE
  5
C18
  8
TITLE
 10
124.6089690745244
 20
37.207014145452028
 30
0.0
 11
125.88911769509021
 21
38.487162766017732
 31
0.0
  0
LINE
  5
C19
  8
TITLE
 10
124.600039712387
 20
37.110799910667453
 30
0.0
 11
125.9764025677372
 21
38.487162766017732
 31
0.0
  0
LINE
  5
C1A
  8
TITLE
 10
124.5816952156959
 20
37.005170541329022
 30
0.0
 11
126.063687440385
 21
38.487162766017732
 31
0.0
  0
LINE
  5
C1B
  8
TITLE
 10
124.6107677956052
 20
37.296097739180162
 30
0.0
 11
125.80183282244271
 21
38.487162766017732
 31
0.0
  0
LINE
  5
C1C
  8
TITLE
 10
124.5497433491297
 20
36.885933802115929
 30
0.0
 11
126.1509723130323
 21
38.487162766017462
 31
0.0
  0
LINE
  5
C1D
  8
TITLE
 10
124.4945869165047
 20
36.743492496843828
 30
0.0
 11
126.23825718567861
 21
38.487162766017462
 31
0.0
  0
LINE
  5
C1E
  8
TITLE
 10
124.3769474790779
 20
36.5385681867767
 30
0.0
 11
126.325542058306
 21
38.487162766017732
 31
0.0
  0
LINE
  5
C1F
  8
TITLE
 10
130.92448609507699
 20
38.689841925901888
 30
0.0
 11
132.07987935350201
 21
39.845235184330853
 31
0.0
  0
LINE
  5
C20
  8
TITLE
 10
130.71498242029401
 20
34.290664364088187
 30
0.0
 11
131.77240717311699
 21
35.348089116911311
 31
0.0
  0
LINE
  5
C21
  8
TITLE
 10
130.80226729294131
 20
34.290664364088187
 30
0.0
 11
131.8596920457644
 21
35.348089116911311
 31
0.0
  0
LINE
  5
C22
  8
TITLE
 10
130.8895521655885
 20
34.290664364088187
 30
0.0
 11
131.94697691841171
 21
35.348089116911311
 31
0.0
  0
LINE
  5
C23
  8
TITLE
 10
130.1617067820934
 20
34.87209207029332
 30
0.0
 11
130.63770382871161
 21
35.348089116911311
 31
0.0
  0
LINE
  5
C24
  8
TITLE
 10
130.1617067820934
 20
34.784807197646167
 30
0.0
 11
130.7249887013588
 21
35.348089116911311
 31
0.0
  0
LINE
  5
C25
  8
TITLE
 10
130.1617067820934
 20
34.697522324999333
 30
0.0
 11
130.81227357400579
 21
35.348089116911311
 31
0.0
  0
LINE
  5
C26
  8
TITLE
 10
130.1617067820934
 20
34.61023745235191
 30
0.0
 11
130.89955844665289
 21
35.348089116911311
 31
0.0
  0
LINE
  5
C27
  8
TITLE
 10
130.1617067820934
 20
34.522952579704743
 30
0.0
 11
130.98684331929991
 21
35.348089116911311
 31
0.0
  0
LINE
  5
C28
  8
TITLE
 10
130.1617067820934
 20
34.435667707057483
 30
0.0
 11
131.0741281919471
 21
35.348089116911311
 31
0.0
  0
LINE
  5
C29
  8
TITLE
 10
130.1617067820934
 20
34.3483828344106
 30
0.0
 11
131.16141306459431
 21
35.348089116911311
 31
0.0
  0
LINE
  5
C2A
  8
TITLE
 10
130.19127318441849
 20
34.290664364088187
 30
0.0
 11
131.24869793724159
 21
35.348089116911311
 31
0.0
  0
LINE
  5
C2B
  8
TITLE
 10
130.2785580570654
 20
34.290664364088187
 30
0.0
 11
131.3359828098888
 21
35.348089116911311
 31
0.0
  0
LINE
  5
C2C
  8
TITLE
 10
130.36584292970539
 20
34.290664364088187
 30
0.0
 11
131.42326768253579
 21
35.348089116911311
 31
0.0
  0
LINE
  5
C2D
  8
TITLE
 10
130.4531278023527
 20
34.290664364088187
 30
0.0
 11
131.51055255517599
 21
35.348089116911311
 31
0.0
  0
LINE
  5
C2E
  8
TITLE
 10
130.5404126749998
 20
34.290664364088187
 30
0.0
 11
131.59783742782309
 21
35.348089116911311
 31
0.0
  0
LINE
  5
C2F
  8
TITLE
 10
130.62769754764699
 20
34.290664364088187
 30
0.0
 11
131.68512230047
 21
35.348089116911311
 31
0.0
  0
LINE
  5
C30
  8
TITLE
 10
130.97683703823549
 20
34.290664364088187
 30
0.0
 11
132.03426179105901
 21
35.348089116911311
 31
0.0
  0
LINE
  5
C31
  8
TITLE
 10
130.1617067820934
 20
35.13394668823112
 30
0.0
 11
130.37584921077729
 21
35.348089116911311
 31
0.0
  0
LINE
  5
C32
  8
TITLE
 10
130.1617067820934
 20
35.046661815584102
 30
0.0
 11
130.46313408342451
 21
35.348089116911311
 31
0.0
  0
LINE
  5
C33
  8
TITLE
 10
130.1617067820934
 20
34.959376942936821
 30
0.0
 11
130.55041895606419
 21
35.348089116911311
 31
0.0
  0
LINE
  5
C34
  8
TITLE
 10
130.1617067820934
 20
35.308516433522193
 30
0.0
 11
130.2012794654828
 21
35.348089116911311
 31
0.0
  0
LINE
  5
C35
  8
TITLE
 10
130.1617067820934
 20
35.221231560875069
 30
0.0
 11
130.2885643381301
 21
35.348089116911311
 31
0.0
  0
LINE
  5
C36
  8
TITLE
 10
130.75522780646941
 20
37.036740802303846
 30
0.0
 11
130.8727180180498
 21
37.154231013884157
 31
0.0
  0
LINE
  5
C37
  8
TITLE
 10
130.84251267911679
 20
37.036740802303846
 30
0.0
 11
130.8727180180498
 21
37.066946141237011
 31
0.0
  0
LINE
  5
C38
  8
TITLE
 10
130.4933731885277
 20
37.036740802303846
 30
0.0
 11
130.8727180180498
 21
37.416085631822227
 31
0.0
  0
LINE
  5
C39
  8
TITLE
 10
130.58065806117509
 20
37.036740802303846
 30
0.0
 11
130.8727180180498
 21
37.328800759175117
 31
0.0
  0
LINE
  5
C3A
  8
TITLE
 10
130.66794293382239
 20
37.036740802303846
 30
0.0
 11
130.8727180180498
 21
37.241515886531147
 31
0.0
  0
LINE
  5
C3B
  8
TITLE
 10
130.23151857059401
 20
37.036740802303846
 30
0.0
 11
130.8727180180498
 21
37.677940249759899
 31
0.0
  0
LINE
  5
C3C
  8
TITLE
 10
130.3188034432406
 20
37.036740802303846
 30
0.0
 11
130.8727180180498
 21
37.590655377112739
 31
0.0
  0
LINE
  5
C3D
  8
TITLE
 10
130.4060883158881
 20
37.036740802303846
 30
0.0
 11
130.8727180180498
 21
37.503370504469252
 31
0.0
  0
LINE
  5
C3E
  8
TITLE
 10
129.88237908000519
 20
37.036740802303846
 30
0.0
 11
130.8727180180498
 21
38.027079740348569
 31
0.0
  0
LINE
  5
C3F
  8
TITLE
 10
129.96966395265221
 20
37.036740802303846
 30
0.0
 11
130.8727180180498
 21
37.939794867701472
 31
0.0
  0
LINE
  5
C40
  8
TITLE
 10
130.05694882529949
 20
37.036740802303846
 30
0.0
 11
130.8727180180498
 21
37.85250999505417
 31
0.0
  0
LINE
  5
C41
  8
TITLE
 10
130.14423369794679
 20
37.036740802303846
 30
0.0
 11
130.8727180180498
 21
37.765225122407173
 31
0.0
  0
LINE
  5
C42
  8
TITLE
 10
129.5928977933286
 20
39.627660312961851
 30
0.0
 11
129.8104726646975
 21
39.845235184330853
 31
0.0
  0
LINE
  5
C43
  8
TITLE
 10
129.5928977933286
 20
39.8022300582561
 30
0.0
 11
129.63590291940321
 21
39.845235184330853
 31
0.0
  0
LINE
  5
C44
  8
TITLE
 10
129.5928977933286
 20
39.714945185609139
 30
0.0
 11
129.7231877920504
 21
39.845235184330853
 31
0.0
  0
LINE
  5
C45
  8
TITLE
 10
129.5928977933286
 20
39.01666620443887
 30
0.0
 11
130.4214667732204
 21
39.845235184330853
 31
0.0
  0
LINE
  5
C46
  8
TITLE
 10
129.5928977933286
 20
38.929381331791703
 30
0.0
 11
130.50875164586779
 21
39.845235184330853
 31
0.0
  0
LINE
  5
C47
  8
TITLE
 10
129.5928977933286
 20
38.8420964591444
 30
0.0
 11
130.59603651851461
 21
39.845235184330853
 31
0.0
  0
LINE
  5
C48
  8
TITLE
 10
129.5928977933286
 20
38.754811586497709
 30
0.0
 11
130.68332139116171
 21
39.845235184330853
 31
0.0
  0
LINE
  5
C49
  8
TITLE
 10
129.5928977933286
 20
38.056532605327419
 30
0.0
 11
131.381600372332
 21
39.845235184330853
 31
0.0
  0
LINE
  5
C4A
  8
TITLE
 10
129.5928977933286
 20
37.969247732680238
 30
0.0
 11
131.46888524497899
 21
39.845235184330853
 31
0.0
  0
LINE
  5
C4B
  8
TITLE
 10
129.5928977933286
 20
37.881962860033141
 30
0.0
 11
131.5561701176261
 21
39.845235184330853
 31
0.0
  0
LINE
  5
C4C
  8
TITLE
 10
129.5928977933286
 20
37.794677987385853
 30
0.0
 11
131.64345499027351
 21
39.845235184330853
 31
0.0
  0
LINE
  5
C4D
  8
TITLE
 10
129.5928977933286
 20
37.707393114738821
 30
0.0
 11
131.7307398629207
 21
39.845235184330853
 31
0.0
  0
LINE
  5
C4E
  8
TITLE
 10
129.5928977933286
 20
37.620108242091561
 30
0.0
 11
131.8180247355678
 21
39.845235184330853
 31
0.0
  0
LINE
  5
C4F
  8
TITLE
 10
129.5928977933286
 20
37.532823369444259
 30
0.0
 11
131.9053096082078
 21
39.845235184330853
 31
0.0
  0
LINE
  5
C50
  8
TITLE
 10
129.5928977933286
 20
37.445538496800879
 30
0.0
 11
131.99259448085499
 21
39.845235184330853
 31
0.0
  0
LINE
  5
C51
  8
TITLE
 10
129.5928977933286
 20
38.492956968555859
 30
0.0
 11
130.9451760090962
 21
39.845235184330853
 31
0.0
  0
LINE
  5
C52
  8
TITLE
 10
129.5928977933286
 20
38.405672095908812
 30
0.0
 11
131.03246088174319
 21
39.845235184330853
 31
0.0
  0
LINE
  5
C53
  8
TITLE
 10
129.5928977933286
 20
38.318387223265219
 30
0.0
 11
131.11974575439041
 21
39.845235184330853
 31
0.0
  0
LINE
  5
C54
  8
TITLE
 10
129.5928977933286
 20
38.231102350618059
 30
0.0
 11
131.2070306270374
 21
39.845235184330853
 31
0.0
  0
LINE
  5
C55
  8
TITLE
 10
129.5928977933286
 20
38.143817477970771
 30
0.0
 11
131.2943154996845
 21
39.845235184330853
 31
0.0
  0
LINE
  5
C56
  8
TITLE
 10
129.5928977933286
 20
38.667526713850251
 30
0.0
 11
130.7706062638091
 21
39.845235184330853
 31
0.0
  0
LINE
  5
C57
  8
TITLE
 10
129.5928977933286
 20
38.580241841202991
 30
0.0
 11
130.8578911364562
 21
39.845235184330853
 31
0.0
  0
LINE
  5
C58
  8
TITLE
 10
129.5928977933286
 20
37.358253624153782
 30
0.0
 11
130.8727180180498
 21
38.638073848871159
 31
0.0
  0
LINE
  5
C59
  8
TITLE
 10
129.5928977933286
 20
37.270968751506757
 30
0.0
 11
130.8727180180498
 21
38.550788976224311
 31
0.0
  0
LINE
  5
C5A
  8
TITLE
 10
129.6205244620636
 20
37.036740802303846
 30
0.0
 11
130.8727180180498
 21
38.288934358286241
 31
0.0
  0
LINE
  5
C5B
  8
TITLE
 10
129.7078093347107
 20
37.036740802303846
 30
0.0
 11
130.8727180180498
 21
38.201649485642719
 31
0.0
  0
LINE
  5
C5C
  8
TITLE
 10
129.79509420735769
 20
37.036740802303846
 30
0.0
 11
130.8727180180498
 21
38.114364612995871
 31
0.0
  0
LINE
  5
C5D
  8
TITLE
 10
129.5928977933286
 20
37.183683878863278
 30
0.0
 11
130.8727180180498
 21
38.463504103580817
 31
0.0
  0
LINE
  5
C5E
  8
TITLE
 10
129.5928977933286
 20
37.096399006216117
 30
0.0
 11
130.8727180180498
 21
38.37621923093397
 31
0.0
  0
LINE
  5
C5F
  8
TITLE
 10
129.5928977933286
 20
39.103951077082471
 30
0.0
 11
130.33418190057321
 21
39.845235184330853
 31
0.0
  0
LINE
  5
C60
  8
TITLE
 10
129.5928977933286
 20
39.191235949729773
 30
0.0
 11
130.246897027926
 21
39.845235184330853
 31
0.0
  0
LINE
  5
C61
  8
TITLE
 10
129.5928977933286
 20
39.365805695020413
 30
0.0
 11
130.07232728263199
 21
39.845235184330853
 31
0.0
  0
LINE
  5
C62
  8
TITLE
 10
129.5928977933286
 20
39.278520822373707
 30
0.0
 11
130.15961215527881
 21
39.845235184330853
 31
0.0
  0
LINE
  5
C63
  8
TITLE
 10
129.5928977933286
 20
39.540375440314719
 30
0.0
 11
129.8977575373446
 21
39.845235184330853
 31
0.0
  0
LINE
  5
C64
  8
TITLE
 10
129.5928977933286
 20
39.45309056766758
 30
0.0
 11
129.9850424099846
 21
39.845235184330853
 31
0.0
  0
LINE
  5
C65
  8
TITLE
 10
139.87499999999989
 20
52.5
 30
0.0
 11
139.87499999999989
 21
42.5
 31
0.0
  0
LINE
  5
C66
  8
TITLE
 10
135.979095482638
 20
36.674376629097708
 30
0.0
 11
137.40085015379179
 21
38.096131300251457
 31
0.0
  0
LINE
  5
C67
  8
TITLE
 10
136.07288564064109
 20
36.680881914460642
 30
0.0
 11
137.5316075596385
 21
38.139603833454352
 31
0.0
  0
LINE
  5
C68
  8
TITLE
 10
136.1683507421202
 20
36.689062143292738
 30
0.0
 11
137.6678888718005
 21
38.188600272965751
 31
0.0
  0
LINE
  5
C69
  8
TITLE
 10
135.6009427371518
 20
36.994502864780841
 30
0.0
 11
136.49015255532359
 21
37.883712682960208
 31
0.0
  0
LINE
  5
C6A
  8
TITLE
 10
135.6009427371518
 20
36.907217992133852
 30
0.0
 11
136.5939931766024
 21
37.900268431588373
 31
0.0
  0
LINE
  5
C6B
  8
TITLE
 10
135.6009427371518
 20
36.819933119486819
 30
0.0
 11
136.7002008248237
 21
37.919191207166492
 31
0.0
  0
LINE
  5
C6C
  8
TITLE
 10
135.6009427371518
 20
36.732648246842899
 30
0.0
 11
136.80897126922611
 21
37.94067677892123
 31
0.0
  0
LINE
  5
C6D
  8
TITLE
 10
135.61900412636629
 20
36.663424763414127
 30
0.0
 11
136.92053195825571
 21
37.964952595300453
 31
0.0
  0
LINE
  5
C6E
  8
TITLE
 10
135.70691449470971
 20
36.66405025911029
 30
0.0
 11
137.03514973620389
 21
37.992285500604808
 31
0.0
  0
LINE
  5
C6F
  8
TITLE
 10
135.79618745172851
 20
36.66603834348544
 30
0.0
 11
137.153141170075
 21
38.022992061829051
 31
0.0
  0
LINE
  5
C70
  8
TITLE
 10
135.8868898937078
 20
36.669455912818123
 30
0.0
 11
137.27488665635011
 21
38.057452675456922
 31
0.0
  0
LINE
  5
C71
  8
TITLE
 10
135.6009427371518
 20
37.169072610075091
 30
0.0
 11
136.28891381967961
 21
37.85704369260381
 31
0.0
  0
LINE
  5
C72
  8
TITLE
 10
135.6009427371518
 20
37.081787737427859
 30
0.0
 11
136.3885090000156
 21
37.869354000292262
 31
0.0
  0
LINE
  5
C73
  8
TITLE
 10
135.6009427371518
 20
37.780066718598128
 30
0.0
 11
135.63972242446181
 21
37.818846405915977
 31
0.0
  0
LINE
  5
C74
  8
TITLE
 10
132.1464743121299
 20
38.689841925901888
 30
0.0
 11
133.30186757055509
 21
39.845235184330853
 31
0.0
  0
LINE
  5
C75
  8
TITLE
 10
132.233759184777
 20
38.689841925901888
 30
0.0
 11
133.38915244320251
 21
39.845235184330853
 31
0.0
  0
LINE
  5
C76
  8
TITLE
 10
132.321044057417
 20
38.689841925901888
 30
0.0
 11
133.47643731584921
 21
39.845235184330853
 31
0.0
  0
LINE
  5
C77
  8
TITLE
 10
132.40832893006399
 20
38.689841925901888
 30
0.0
 11
133.56372218849631
 21
39.845235184330853
 31
0.0
  0
LINE
  5
C78
  8
TITLE
 10
132.4956138027112
 20
38.689841925901888
 30
0.0
 11
133.65100706113651
 21
39.845235184330853
 31
0.0
  0
LINE
  5
C79
  8
TITLE
 10
132.58289867535819
 20
38.689841925901888
 30
0.0
 11
133.73829193378381
 21
39.845235184330853
 31
0.0
  0
LINE
  5
C7A
  8
TITLE
 10
132.67018354800561
 20
38.689841925901888
 30
0.0
 11
133.82557680643069
 21
39.845235184330853
 31
0.0
  0
LINE
  5
C7B
  8
TITLE
 10
132.75746842065249
 20
38.689841925901888
 30
0.0
 11
133.91286167907771
 21
39.845235184330853
 31
0.0
  0
LINE
  5
C7C
  8
TITLE
 10
133.8234146472609
 20
38.010090699581497
 30
0.0
 11
135.1387854337799
 21
39.325461486096771
 31
0.0
  0
LINE
  5
C7D
  8
TITLE
 10
133.8234146472609
 20
37.922805826934209
 30
0.0
 11
135.1387854337799
 21
39.238176613449937
 31
0.0
  0
LINE
  5
C7E
  8
TITLE
 10
133.8234146472609
 20
37.835520954290601
 30
0.0
 11
135.1387854337799
 21
39.150891740802649
 31
0.0
  0
LINE
  5
C7F
  8
TITLE
 10
133.8234146472609
 20
37.748236081643427
 30
0.0
 11
135.1387854337799
 21
39.063606868159191
 31
0.0
  0
LINE
  5
C80
  8
TITLE
 10
133.8234146472609
 20
38.446515062813731
 30
0.0
 11
135.1387854337799
 21
39.761885849332501
 31
0.0
  0
LINE
  5
C81
  8
TITLE
 10
133.8234146472609
 20
38.359230190166471
 30
0.0
 11
135.1387854337799
 21
39.674600976685213
 31
0.0
  0
LINE
  5
C82
  8
TITLE
 10
133.8234146472609
 20
38.271945317519439
 30
0.0
 11
135.1387854337799
 21
39.587316104038223
 31
0.0
  0
LINE
  5
C83
  8
TITLE
 10
133.8234146472609
 20
38.184660444872151
 30
0.0
 11
135.1387854337799
 21
39.500031231391382
 31
0.0
  0
LINE
  5
C84
  8
TITLE
 10
133.8234146472609
 20
38.097375572224898
 30
0.0
 11
135.1387854337799
 21
39.412746358744073
 31
0.0
  0
LINE
  5
C85
  8
TITLE
 10
132.84475329329979
 20
38.689841925901888
 30
0.0
 11
134.00014655172509
 21
39.845235184330853
 31
0.0
  0
LINE
  5
C86
  8
TITLE
 10
132.93203816594681
 20
38.689841925901888
 30
0.0
 11
134.0874314243722
 21
39.845235184330853
 31
0.0
  0
LINE
  5
C87
  8
TITLE
 10
133.01932303859411
 20
38.689841925901888
 30
0.0
 11
134.17471629701939
 21
39.845235184330853
 31
0.0
  0
LINE
  5
C88
  8
TITLE
 10
133.10660791124121
 20
38.689841925901888
 30
0.0
 11
134.2620011696668
 21
39.845235184330853
 31
0.0
  0
LINE
  5
C89
  8
TITLE
 10
133.19389278388121
 20
38.689841925901888
 30
0.0
 11
134.34928604231379
 21
39.845235184330853
 31
0.0
  0
LINE
  5
C8A
  8
TITLE
 10
133.2811776565286
 20
38.689841925901888
 30
0.0
 11
134.43657091496101
 21
39.845235184330853
 31
0.0
  0
LINE
  5
C8B
  8
TITLE
 10
133.36846252917559
 20
38.689841925901888
 30
0.0
 11
134.523855787608
 21
39.845235184330853
 31
0.0
  0
LINE
  5
C8C
  8
TITLE
 10
133.45574740182249
 20
38.689841925901888
 30
0.0
 11
134.61114066024791
 21
39.845235184330853
 31
0.0
  0
LINE
  5
C8D
  8
TITLE
 10
133.8234146472609
 20
38.533799935460891
 30
0.0
 11
135.1348498961309
 21
39.845235184330853
 31
0.0
  0
LINE
  5
C8E
  8
TITLE
 10
133.54303227447011
 20
38.689841925901888
 30
0.0
 11
134.69842553289499
 21
39.845235184330853
 31
0.0
  0
LINE
  5
C8F
  8
TITLE
 10
133.6303171471169
 20
38.689841925901888
 30
0.0
 11
134.7857104055422
 21
39.845235184330853
 31
0.0
  0
LINE
  5
C90
  8
TITLE
 10
133.71760201976409
 20
38.689841925901888
 30
0.0
 11
134.87299527818959
 21
39.845235184330853
 31
0.0
  0
LINE
  5
C91
  8
TITLE
 10
133.8048868924111
 20
38.689841925901888
 30
0.0
 11
134.96028015083641
 21
39.845235184330853
 31
0.0
  0
LINE
  5
C92
  8
TITLE
 10
133.8234146472609
 20
38.621084808108321
 30
0.0
 11
135.0475650234838
 21
39.845235184330853
 31
0.0
  0
LINE
  5
C93
  8
TITLE
 10
133.9649085022254
 20
34.747474521331917
 30
0.0
 11
134.68197527653601
 21
35.464541295642867
 31
0.0
  0
LINE
  5
C94
  8
TITLE
 10
132.11154038264141
 20
34.290664364088187
 30
0.0
 11
135.1387854337799
 21
37.317909415226509
 31
0.0
  0
LINE
  5
C95
  8
TITLE
 10
132.19882525528141
 20
34.290664364088187
 30
0.0
 11
135.1387854337799
 21
37.230624542582973
 31
0.0
  0
LINE
  5
C96
  8
TITLE
 10
132.28611012792879
 20
34.290664364088187
 30
0.0
 11
135.1387854337799
 21
37.143339669935827
 31
0.0
  0
LINE
  5
C97
  8
TITLE
 10
132.37339500057581
 20
34.290664364088187
 30
0.0
 11
135.1387854337799
 21
37.056054797292489
 31
0.0
  0
LINE
  5
C98
  8
TITLE
 10
132.4606798732228
 20
34.290664364088187
 30
0.0
 11
135.1387854337799
 21
36.968769924645187
 31
0.0
  0
LINE
  5
C99
  8
TITLE
 10
132.54906446653101
 20
34.291764084749332
 30
0.0
 11
135.13768571311871
 21
36.880385331336917
 31
0.0
  0
LINE
  5
C9A
  8
TITLE
 10
132.64055128721481
 20
34.295966032789167
 30
0.0
 11
135.13348376507511
 21
36.788898510649801
 31
0.0
  0
LINE
  5
C9B
  8
TITLE
 10
132.73554203711211
 20
34.303671910036272
 30
0.0
 11
135.12577788783199
 21
36.693907760755721
 31
0.0
  0
LINE
  5
C9C
  8
TITLE
 10
132.83451018011971
 20
34.315355180399962
 30
0.0
 11
135.1140946174645
 21
36.59493961774821
 31
0.0
  0
LINE
  5
C9D
  8
TITLE
 10
132.93806686818081
 20
34.331626995810282
 30
0.0
 11
135.09782280205749
 21
36.49138292968685
 31
0.0
  0
LINE
  5
C9E
  8
TITLE
 10
133.0470246953906
 20
34.35329995038019
 30
0.0
 11
135.0761498474881
 21
36.382425102474123
 31
0.0
  0
LINE
  5
C9F
  8
TITLE
 10
133.16250562646869
 20
34.381496008807488
 30
0.0
 11
135.0479537890572
 21
36.26694417139953
 31
0.0
  0
LINE
  5
CA0
  8
TITLE
 10
133.2861376300603
 20
34.417843139748193
 30
0.0
 11
135.01160665811969
 21
36.14331216780807
 31
0.0
  0
LINE
  5
CA1
  8
TITLE
 10
133.4204500329497
 20
34.464870669998241
 30
0.0
 11
134.96457912787
 21
36.0089997649183
 31
0.0
  0
LINE
  5
CA2
  8
TITLE
 10
133.45254868230819
 20
35.980812154347248
 30
0.0
 11
135.1387854337799
 21
37.667048905815193
 31
0.0
  0
LINE
  5
CA3
  8
TITLE
 10
133.7429555842748
 20
34.612806476028211
 30
0.0
 11
134.81664332183931
 21
35.686494213593292
 31
0.0
  0
LINE
  5
CA4
  8
TITLE
 10
133.5697883764945
 20
34.526924140895737
 30
0.0
 11
134.90252565697261
 21
35.85966142137319
 31
0.0
  0
LINE
  5
CA5
  8
TITLE
 10
133.8234146472609
 20
37.399096591054899
 30
0.0
 11
135.1387854337799
 21
38.714467377573783
 31
0.0
  0
LINE
  5
CA6
  8
TITLE
 10
133.8234146472609
 20
37.311811718408201
 30
0.0
 11
135.1387854337799
 21
38.627182504926651
 31
0.0
  0
LINE
  5
CA7
  8
TITLE
 10
133.8234146472609
 20
37.224526845760892
 30
0.0
 11
135.1387854337799
 21
38.539897632279789
 31
0.0
  0
LINE
  5
CA8
  8
TITLE
 10
133.82171391762611
 20
36.960971498188172
 30
0.0
 11
135.1387854337799
 21
38.278043014338223
 31
0.0
  0
LINE
  5
CA9
  8
TITLE
 10
133.81484334510961
 20
36.86681605302762
 30
0.0
 11
135.1387854337799
 21
38.190758141694303
 31
0.0
  0
LINE
  5
CAA
  8
TITLE
 10
133.80161933378361
 20
36.766307169047543
 30
0.0
 11
135.1387854337799
 21
38.103473269047612
 31
0.0
  0
LINE
  5
CAB
  8
TITLE
 10
133.8234146472609
 20
37.137241973117099
 30
0.0
 11
135.1387854337799
 21
38.452612759632501
 31
0.0
  0
LINE
  5
CAC
  8
TITLE
 10
133.8234146472609
 20
37.049957100469811
 30
0.0
 11
135.1387854337799
 21
38.365327886985199
 31
0.0
  0
LINE
  5
CAD
  8
TITLE
 10
133.7803326429997
 20
36.657735605623941
 30
0.0
 11
135.1387854337799
 21
38.01618839640031
 31
0.0
  0
LINE
  5
CAE
  8
TITLE
 10
133.74817320077909
 20
36.538291290752412
 30
0.0
 11
135.1387854337799
 21
37.928903523756901
 31
0.0
  0
LINE
  5
CAF
  8
TITLE
 10
133.6998596970077
 20
36.40269291433728
 30
0.0
 11
135.1387854337799
 21
37.841618651109471
 31
0.0
  0
LINE
  5
CB0
  8
TITLE
 10
133.62269831766579
 20
36.238246662352068
 30
0.0
 11
135.1387854337799
 21
37.754333778462041
 31
0.0
  0
LINE
  5
CB1
  8
TITLE
 10
135.6009427371518
 20
37.518212100660072
 30
0.0
 11
135.90860738553459
 21
37.82587674904677
 31
0.0
  0
LINE
  5
CB2
  8
TITLE
 10
135.6009427371518
 20
37.430927228016543
 30
0.0
 11
136.00118090381011
 21
37.831165394675402
 31
0.0
  0
LINE
  5
CB3
  8
TITLE
 10
135.6009427371518
 20
37.343642355369411
 30
0.0
 11
136.09535955470369
 21
37.838059172922272
 31
0.0
  0
LINE
  5
CB4
  8
TITLE
 10
135.6009427371518
 20
37.256357482722137
 30
0.0
 11
136.1912360352961
 21
37.846650780866639
 31
0.0
  0
LINE
  5
CB5
  8
TITLE
 10
135.6009427371518
 20
37.692781845951288
 30
0.0
 11
135.72795005783831
 21
37.819789166644803
 31
0.0
  0
LINE
  5
CB6
  8
TITLE
 10
135.6009427371518
 20
37.605496973307169
 30
0.0
 11
135.81755557183391
 21
37.822109807993428
 31
0.0
  0
LINE
  5
CB7
  8
TITLE
 10
133.8234146472609
 20
37.486381463702017
 30
0.0
 11
135.1387854337799
 21
38.801752250220773
 31
0.0
  0
LINE
  5
CB8
  8
TITLE
 10
133.8234146472609
 20
37.660951208996472
 30
0.0
 11
135.1387854337799
 21
38.976321995511867
 31
0.0
  0
LINE
  5
CB9
  8
TITLE
 10
133.8234146472609
 20
37.573666336349298
 30
0.0
 11
135.1387854337799
 21
38.889037122868082
 31
0.0
  0
LINE
  5
CBA
  8
TITLE
 10
138.17835846748929
 20
35.905953943966949
 30
0.0
 11
139.49372925400081
 21
37.221324730485691
 31
0.0
  0
LINE
  5
CBB
  8
TITLE
 10
138.17835846748929
 20
35.818669071319619
 30
0.0
 11
139.49372925400081
 21
37.134039857838403
 31
0.0
  0
LINE
  5
CBC
  8
TITLE
 10
138.17835846748929
 20
35.731384198672799
 30
0.0
 11
139.49372925400081
 21
37.04675498519137
 31
0.0
  0
LINE
  5
CBD
  8
TITLE
 10
138.17835846748929
 20
35.644099326025639
 30
0.0
 11
139.49372925400081
 21
36.959470112544267
 31
0.0
  0
LINE
  5
CBE
  8
TITLE
 10
138.17835846748929
 20
35.556814453381691
 30
0.0
 11
139.49372925400081
 21
36.872185239897249
 31
0.0
  0
LINE
  5
CBF
  8
TITLE
 10
138.17835846748929
 20
35.469529580734729
 30
0.0
 11
139.49372925400081
 21
36.784900367250117
 31
0.0
  0
LINE
  5
CC0
  8
TITLE
 10
138.17835846748929
 20
35.382244708090951
 30
0.0
 11
139.49372925400081
 21
36.697615494602829
 31
0.0
  0
LINE
  5
CC1
  8
TITLE
 10
138.17835846748929
 20
34.771250599561078
 30
0.0
 11
139.49372925400081
 21
36.086621386079813
 31
0.0
  0
LINE
  5
CC2
  8
TITLE
 10
138.17835846748929
 20
34.683965726917293
 30
0.0
 11
139.49372925400081
 21
35.999336513432702
 31
0.0
  0
LINE
  5
CC3
  8
TITLE
 10
138.17835846748929
 20
35.29495983544362
 30
0.0
 11
139.49372925400081
 21
36.610330621959037
 31
0.0
  0
LINE
  5
CC4
  8
TITLE
 10
138.17835846748929
 20
35.207674962796787
 30
0.0
 11
139.49372925400081
 21
36.523045749312047
 31
0.0
  0
LINE
  5
CC5
  8
TITLE
 10
138.17835846748929
 20
35.120390090149499
 30
0.0
 11
139.49372925400081
 21
36.435760876664901
 31
0.0
  0
LINE
  5
CC6
  8
TITLE
 10
138.17835846748929
 20
35.033105217502197
 30
0.0
 11
139.49372925400081
 21
36.348476004021222
 31
0.0
  0
LINE
  5
CC7
  8
TITLE
 10
138.17835846748929
 20
34.945820344855221
 30
0.0
 11
139.49372925400081
 21
36.261191131374119
 31
0.0
  0
LINE
  5
CC8
  8
TITLE
 10
138.17835846748929
 20
34.858535472208061
 30
0.0
 11
139.49372925400081
 21
36.173906258726831
 31
0.0
  0
LINE
  5
CC9
  8
TITLE
 10
138.17835846748929
 20
34.596680854269991
 30
0.0
 11
139.49372925400081
 21
35.912051640785648
 31
0.0
  0
LINE
  5
CCA
  8
TITLE
 10
138.17835846748929
 20
34.509395981623143
 30
0.0
 11
139.49372925400081
 21
35.824766768138403
 31
0.0
  0
LINE
  5
CCB
  8
TITLE
 10
138.17835846748929
 20
34.422111108979493
 30
0.0
 11
139.49372925400081
 21
35.737481895494881
 31
0.0
  0
LINE
  5
CCC
  8
TITLE
 10
138.17835846748929
 20
34.334826236332191
 30
0.0
 11
139.49372925400081
 21
35.650197022847742
 31
0.0
  0
LINE
  5
CCD
  8
TITLE
 10
138.22148146789181
 20
34.290664364088187
 30
0.0
 11
139.49372925400081
 21
35.562912150200482
 31
0.0
  0
LINE
  5
CCE
  8
TITLE
 10
138.5706209584805
 20
34.290664364088187
 30
0.0
 11
139.49372925400081
 21
35.213772659615529
 31
0.0
  0
LINE
  5
CCF
  8
TITLE
 10
138.6579058311205
 20
34.290664364088187
 30
0.0
 11
139.49372925400081
 21
35.126487786968553
 31
0.0
  0
LINE
  5
CD0
  8
TITLE
 10
138.74519070376761
 20
34.290664364088187
 30
0.0
 11
139.49372925400081
 21
35.039202914321251
 31
0.0
  0
LINE
  5
CD1
  8
TITLE
 10
138.83247557641471
 20
34.290664364088187
 30
0.0
 11
139.49372925400081
 21
34.951918041674091
 31
0.0
  0
LINE
  5
CD2
  8
TITLE
 10
138.4833360858334
 20
34.290664364088187
 30
0.0
 11
139.49372925400081
 21
35.301057532262817
 31
0.0
  0
LINE
  5
CD3
  8
TITLE
 10
138.30876634053931
 20
34.290664364088187
 30
0.0
 11
139.49372925400081
 21
35.475627277557102
 31
0.0
  0
LINE
  5
CD4
  8
TITLE
 10
138.3960512131861
 20
34.290664364088187
 30
0.0
 11
139.49372925400081
 21
35.388342404909807
 31
0.0
  0
LINE
  5
CD5
  8
TITLE
 10
138.91976044906201
 20
34.290664364088187
 30
0.0
 11
139.49372925400081
 21
34.864633169026852
 31
0.0
  0
LINE
  5
CD6
  8
TITLE
 10
139.0070453217092
 20
34.290664364088187
 30
0.0
 11
139.49372925400081
 21
34.77734829638333
 31
0.0
  0
LINE
  5
CD7
  8
TITLE
 10
139.09433019435619
 20
34.290664364088187
 30
0.0
 11
139.49372925400081
 21
34.690063423736319
 31
0.0
  0
LINE
  5
CD8
  8
TITLE
 10
139.18161506700361
 20
34.290664364088187
 30
0.0
 11
139.49372925400081
 21
34.602778551089173
 31
0.0
  0
LINE
  5
CD9
  8
TITLE
 10
139.26889993965079
 20
34.290664364088187
 30
0.0
 11
139.49372925400081
 21
34.515493678445822
 31
0.0
  0
LINE
  5
CDA
  8
TITLE
 10
139.3561848122977
 20
34.290664364088187
 30
0.0
 11
139.49372925400081
 21
34.428208805798818
 31
0.0
  0
LINE
  5
CDB
  8
TITLE
 10
139.44346968494469
 20
34.290664364088187
 30
0.0
 11
139.49372925400081
 21
34.340923933151231
 31
0.0
  0
LINE
  5
CDC
  8
TITLE
 10
138.17835846748929
 20
36.080523689261071
 30
0.0
 11
139.49372925400081
 21
37.395894475776473
 31
0.0
  0
LINE
  5
CDD
  8
TITLE
 10
138.17835846748929
 20
35.99323881661379
 30
0.0
 11
139.49372925400081
 21
37.308609603133121
 31
0.0
  0
LINE
  5
CDE
  8
TITLE
 10
138.17835846748929
 20
36.342378307199141
 30
0.0
 11
139.49372925400081
 21
37.657749093714543
 31
0.0
  0
LINE
  5
CDF
  8
TITLE
 10
138.17835846748929
 20
36.255093434555192
 30
0.0
 11
139.49372925400081
 21
37.570464221067247
 31
0.0
  0
LINE
  5
CE0
  8
TITLE
 10
138.17835846748929
 20
36.16780856190838
 30
0.0
 11
139.49372925400081
 21
37.483179348423789
 31
0.0
  0
LINE
  5
CE1
  8
TITLE
 10
138.17835846748929
 20
36.691517797784059
 30
0.0
 11
139.49372925400081
 21
38.006888584302828
 31
0.0
  0
LINE
  5
CE2
  8
TITLE
 10
138.17835846748929
 20
36.604232925136792
 30
0.0
 11
139.49372925400081
 21
37.919603711655839
 31
0.0
  0
LINE
  5
CE3
  8
TITLE
 10
138.17835846748929
 20
36.516948052493262
 30
0.0
 11
139.49372925400081
 21
37.832318839008821
 31
0.0
  0
LINE
  5
CE4
  8
TITLE
 10
138.17835846748929
 20
36.429663179846301
 30
0.0
 11
139.49372925400081
 21
37.745033966361859
 31
0.0
  0
LINE
  5
CE5
  8
TITLE
 10
136.26559155389481
 20
36.69901808241287
 30
0.0
 11
137.81064334461749
 21
38.244069873139097
 31
0.0
  0
LINE
  5
CE6
  8
TITLE
 10
136.36472098974971
 20
36.710862645627842
 30
0.0
 11
137.96114514669421
 21
38.30728680256891
 31
0.0
  0
LINE
  5
CE7
  8
TITLE
 10
137.37058204309909
 20
36.931159845160039
 30
0.0
 11
139.82868408240751
 21
39.389261884468468
 31
0.0
  0
LINE
  5
CE8
  8
TITLE
 10
137.00768852730599
 20
36.830120947300969
 30
0.0
 11
139.29926065819851
 21
39.121693078193701
 31
0.0
  0
LINE
  5
CE9
  8
TITLE
 10
137.12484853071859
 20
36.859996078069862
 30
0.0
 11
139.4908127055171
 21
39.225960252872227
 31
0.0
  0
LINE
  5
CEA
  8
TITLE
 10
137.24566571198179
 20
36.893528386682952
 30
0.0
 11
139.66589271248861
 21
39.313755387196778
 31
0.0
  0
LINE
  5
CEB
  8
TITLE
 10
137.5001437011743
 20
36.973436630584501
 30
0.0
 11
139.98182835518611
 21
39.455121284592522
 31
0.0
  0
LINE
  5
CEC
  8
TITLE
 10
137.63503932762691
 20
37.021047384393498
 30
0.0
 11
140.1271211278119
 21
39.51312918457802
 31
0.0
  0
LINE
  5
CED
  8
TITLE
 10
137.7761585635742
 20
37.07488174768622
 30
0.0
 11
140.26584947541551
 21
39.564572659535258
 31
0.0
  0
LINE
  5
CEE
  8
TITLE
 10
136.67480150505591
 20
36.75908854299243
 30
0.0
 11
138.4835440896166
 21
38.56783112755339
 31
0.0
  0
LINE
  5
CEF
  8
TITLE
 10
136.465866267725
 20
36.724723050955816
 30
0.0
 11
138.12117539071079
 21
38.38003217394192
 31
0.0
  0
LINE
  5
CF0
  8
TITLE
 10
136.56917158942679
 20
36.740743500007127
 30
0.0
 11
138.293361398309
 21
38.464933308892803
 31
0.0
  0
LINE
  5
CF1
  8
TITLE
 10
136.78294519211209
 20
36.779947357401397
 30
0.0
 11
138.82879720034271
 21
38.825799365632179
 31
0.0
  0
LINE
  5
CF2
  8
TITLE
 10
136.8938219711826
 20
36.803539263828867
 30
0.0
 11
139.08383951003401
 21
38.993556802679819
 31
0.0
  0
LINE
  5
CF3
  8
TITLE
 10
156.2572655143635
 20
38.971862895652478
 30
0.0
 11
157.14069087006899
 21
39.855288251358182
 31
0.0
  0
LINE
  5
CF4
  8
TITLE
 10
156.2572655143635
 20
38.884578023009112
 30
0.0
 11
157.22797574271621
 21
39.855288251358182
 31
0.0
  0
LINE
  5
CF5
  8
TITLE
 10
156.2572655143635
 20
38.797293150361853
 30
0.0
 11
157.3152606153634
 21
39.855288251358182
 31
0.0
  0
LINE
  5
CF6
  8
TITLE
 10
156.2572655143635
 20
38.273583914482487
 30
0.0
 11
157.83896985123889
 21
39.855288251358182
 31
0.0
  0
LINE
  5
CF7
  8
TITLE
 10
156.2572655143635
 20
38.186299041835468
 30
0.0
 11
157.92625472388619
 21
39.855288251358182
 31
0.0
  0
LINE
  5
CF8
  8
TITLE
 10
156.2572655143635
 20
38.099014169188209
 30
0.0
 11
158.01353959653341
 21
39.855288251358182
 31
0.0
  0
LINE
  5
CF9
  8
TITLE
 10
156.2572655143635
 20
38.448153659776608
 30
0.0
 11
157.6644001059521
 21
39.855288251358182
 31
0.0
  0
LINE
  5
CFA
  8
TITLE
 10
156.2572655143635
 20
38.360868787129462
 30
0.0
 11
157.7516849785921
 21
39.855288251358182
 31
0.0
  0
LINE
  5
CFB
  8
TITLE
 10
156.2572655143635
 20
38.710008277714962
 30
0.0
 11
157.4025454880105
 21
39.855288251358182
 31
0.0
  0
LINE
  5
CFC
  8
TITLE
 10
156.2572655143635
 20
38.622723405071163
 30
0.0
 11
157.48983036065761
 21
39.855288251358182
 31
0.0
  0
LINE
  5
CFD
  8
TITLE
 10
156.2572655143635
 20
38.535438532424187
 30
0.0
 11
157.57711523330491
 21
39.855288251358182
 31
0.0
  0
LINE
  5
CFE
  8
TITLE
 10
156.2572655143635
 20
37.837159551250281
 30
0.0
 11
157.25268124470199
 21
38.832575281585349
 31
0.0
  0
LINE
  5
CFF
  8
TITLE
 10
156.2572655143635
 20
37.749874678606758
 30
0.0
 11
157.25268124470199
 21
38.745290408941692
 31
0.0
  0
LINE
  5
D00
  8
TITLE
 10
156.2572655143635
 20
38.011729296540921
 30
0.0
 11
157.25268124470199
 21
39.007145026879769
 31
0.0
  0
LINE
  5
D01
  8
TITLE
 10
156.2572655143635
 20
37.924444423897263
 30
0.0
 11
157.25268124470199
 21
38.919860154232467
 31
0.0
  0
LINE
  5
D02
  8
TITLE
 10
155.87822847828201
 20
39.029250222799931
 30
0.0
 11
156.7042665068405
 21
39.855288251358182
 31
0.0
  0
LINE
  5
D03
  8
TITLE
 10
155.9655133509292
 20
39.029250222799931
 30
0.0
 11
156.79155137948061
 21
39.855288251358182
 31
0.0
  0
LINE
  5
D04
  8
TITLE
 10
156.05279822357659
 20
39.029250222799931
 30
0.0
 11
156.87883625212791
 21
39.855288251358182
 31
0.0
  0
LINE
  5
D05
  8
TITLE
 10
156.1400830962167
 20
39.029250222799931
 30
0.0
 11
156.9661211247747
 21
39.855288251358182
 31
0.0
  0
LINE
  5
D06
  8
TITLE
 10
156.2273679688634
 20
39.029250222799931
 30
0.0
 11
157.05340599742169
 21
39.855288251358182
 31
0.0
  0
LINE
  5
D07
  8
TITLE
 10
155.41660137924501
 20
34.290664364088187
 30
0.0
 11
157.25268124470199
 21
36.126744229544897
 31
0.0
  0
LINE
  5
D08
  8
TITLE
 10
155.50388625189191
 20
34.290664364088187
 30
0.0
 11
157.25268124470199
 21
36.039459356901688
 31
0.0
  0
LINE
  5
D09
  8
TITLE
 10
156.2572655143635
 20
35.567752862442163
 30
0.0
 11
157.25268124470199
 21
36.563168592780727
 31
0.0
  0
LINE
  5
D0A
  8
TITLE
 10
156.2572655143635
 20
35.480467989795059
 30
0.0
 11
157.25268124470199
 21
36.475883720133879
 31
0.0
  0
LINE
  5
D0B
  8
TITLE
 10
156.2572655143635
 20
35.393183117147771
 30
0.0
 11
157.25268124470199
 21
36.388598847486463
 31
0.0
  0
LINE
  5
D0C
  8
TITLE
 10
156.2572655143635
 20
35.305898244500909
 30
0.0
 11
157.25268124470199
 21
36.301313974839161
 31
0.0
  0
LINE
  5
D0D
  8
TITLE
 10
156.2572655143635
 20
35.218613371857117
 30
0.0
 11
157.25268124470199
 21
36.21402910219247
 31
0.0
  0
LINE
  5
D0E
  8
TITLE
 10
156.2572655143635
 20
35.916892353030761
 30
0.0
 11
157.25268124470199
 21
36.912308083366113
 31
0.0
  0
LINE
  5
D0F
  8
TITLE
 10
156.2572655143635
 20
35.829607480383871
 30
0.0
 11
157.25268124470199
 21
36.825023210718541
 31
0.0
  0
LINE
  5
D10
  8
TITLE
 10
156.2572655143635
 20
35.74232260773644
 30
0.0
 11
157.25268124470199
 21
36.737738338075303
 31
0.0
  0
LINE
  5
D11
  8
TITLE
 10
156.2572655143635
 20
35.655037735089202
 30
0.0
 11
157.25268124470199
 21
36.650453465427887
 31
0.0
  0
LINE
  5
D12
  8
TITLE
 10
155.59117112453919
 20
34.290664364088187
 30
0.0
 11
157.25268124470199
 21
35.95217448425425
 31
0.0
  0
LINE
  5
D13
  8
TITLE
 10
155.67845599718649
 20
34.290664364088187
 30
0.0
 11
157.25268124470199
 21
35.864889611607111
 31
0.0
  0
LINE
  5
D14
  8
TITLE
 10
155.76574086983391
 20
34.290664364088187
 30
0.0
 11
157.25268124470199
 21
35.77760473896376
 31
0.0
  0
LINE
  5
D15
  8
TITLE
 10
155.8530257424807
 20
34.290664364088187
 30
0.0
 11
157.25268124470199
 21
35.690319866316457
 31
0.0
  0
LINE
  5
D16
  8
TITLE
 10
155.94031061512061
 20
34.290664364088187
 30
0.0
 11
157.25268124470199
 21
35.603034993669482
 31
0.0
  0
LINE
  5
D17
  8
TITLE
 10
156.02759548776771
 20
34.290664364088187
 30
0.0
 11
157.25268124470199
 21
35.51575012102218
 31
0.0
  0
LINE
  5
D18
  8
TITLE
 10
156.11488036041499
 20
34.290664364088187
 30
0.0
 11
157.25268124470199
 21
35.428465248375332
 31
0.0
  0
LINE
  5
D19
  8
TITLE
 10
156.2021652330624
 20
34.290664364088187
 30
0.0
 11
157.25268124470199
 21
35.34118037572793
 31
0.0
  0
LINE
  5
D1A
  8
TITLE
 10
156.28945010570939
 20
34.290664364088187
 30
0.0
 11
157.25268124470199
 21
35.253895503080741
 31
0.0
  0
LINE
  5
D1B
  8
TITLE
 10
156.37673497835681
 20
34.290664364088187
 30
0.0
 11
157.25268124470199
 21
35.166610630433439
 31
0.0
  0
LINE
  5
D1C
  8
TITLE
 10
156.46401985100391
 20
34.290664364088187
 30
0.0
 11
157.31645191436661
 21
35.143096427454772
 31
0.0
  0
LINE
  5
D1D
  8
TITLE
 10
156.5513047236509
 20
34.290664364088187
 30
0.0
 11
157.4037367870136
 21
35.143096427454772
 31
0.0
  0
LINE
  5
D1E
  8
TITLE
 10
156.638589596298
 20
34.290664364088187
 30
0.0
 11
157.49102165966079
 21
35.143096427454772
 31
0.0
  0
LINE
  5
D1F
  8
TITLE
 10
156.2572655143635
 20
36.702456206847728
 30
0.0
 11
157.25268124470199
 21
37.697871937182938
 31
0.0
  0
LINE
  5
D20
  8
TITLE
 10
156.2572655143635
 20
36.615171334200909
 30
0.0
 11
157.25268124470199
 21
37.61058706453975
 31
0.0
  0
LINE
  5
D21
  8
TITLE
 10
156.2572655143635
 20
36.527886461553862
 30
0.0
 11
157.25268124470199
 21
37.523302191892441
 31
0.0
  0
LINE
  5
D22
  8
TITLE
 10
156.2572655143635
 20
36.440601588906631
 30
0.0
 11
157.25268124470199
 21
37.436017319245032
 31
0.0
  0
LINE
  5
D23
  8
TITLE
 10
156.2572655143635
 20
36.353316716259719
 30
0.0
 11
157.25268124470199
 21
37.348732446597751
 31
0.0
  0
LINE
  5
D24
  8
TITLE
 10
156.2572655143635
 20
36.266031843612041
 30
0.0
 11
157.25268124470199
 21
37.261447573950733
 31
0.0
  0
LINE
  5
D25
  8
TITLE
 10
156.2572655143635
 20
36.178746970968689
 30
0.0
 11
157.25268124470199
 21
37.174162701303892
 31
0.0
  0
LINE
  5
D26
  8
TITLE
 10
156.2572655143635
 20
36.091462098321401
 30
0.0
 11
157.25268124470199
 21
37.086877828656739
 31
0.0
  0
LINE
  5
D27
  8
TITLE
 10
156.2572655143635
 20
36.004177225674368
 30
0.0
 11
157.25268124470199
 21
36.999592956009309
 31
0.0
  0
LINE
  5
D28
  8
TITLE
 10
156.2572655143635
 20
37.66258980595947
 30
0.0
 11
157.25268124470199
 21
38.65800553629424
 31
0.0
  0
LINE
  5
D29
  8
TITLE
 10
156.2572655143635
 20
37.575304933312168
 30
0.0
 11
157.25268124470199
 21
38.570720663647812
 31
0.0
  0
LINE
  5
D2A
  8
TITLE
 10
156.2572655143635
 20
37.226165442723868
 30
0.0
 11
157.25268124470199
 21
38.221581173062042
 31
0.0
  0
LINE
  5
D2B
  8
TITLE
 10
156.2572655143635
 20
37.138880570076459
 30
0.0
 11
157.25268124470199
 21
38.134296300415201
 31
0.0
  0
LINE
  5
D2C
  8
TITLE
 10
156.2572655143635
 20
37.488020060665193
 30
0.0
 11
157.25268124470199
 21
38.483435791003899
 31
0.0
  0
LINE
  5
D2D
  8
TITLE
 10
156.2572655143635
 20
37.40073518801789
 30
0.0
 11
157.25268124470199
 21
38.396150918356909
 31
0.0
  0
LINE
  5
D2E
  8
TITLE
 10
156.2572655143635
 20
37.313450315370737
 30
0.0
 11
157.25268124470199
 21
38.308866045709479
 31
0.0
  0
LINE
  5
D2F
  8
TITLE
 10
156.2572655143635
 20
36.964310824785677
 30
0.0
 11
157.25268124470199
 21
37.959726555120739
 31
0.0
  0
LINE
  5
D30
  8
TITLE
 10
156.2572655143635
 20
36.877025952138837
 30
0.0
 11
157.25268124470199
 21
37.87244168247728
 31
0.0
  0
LINE
  5
D31
  8
TITLE
 10
156.2572655143635
 20
36.78974107949503
 30
0.0
 11
157.25268124470199
 21
37.785156809830262
 31
0.0
  0
LINE
  5
D32
  8
TITLE
 10
156.2572655143635
 20
37.0515956974331
 30
0.0
 11
157.25268124470199
 21
38.047011427768062
 31
0.0
  0
LINE
  5
D35
  8
TITLE
 10
147.6481874641326
 20
34.552458732449317
 30
0.0
 11
149.619205050142
 21
36.523476318458449
 31
0.0
  0
LINE
  5
D36
  8
TITLE
 10
147.6481874641326
 20
34.465173859801901
 30
0.0
 11
149.57332672906301
 21
36.390313124733098
 31
0.0
  0
LINE
  5
D37
  8
TITLE
 10
147.6481874641326
 20
34.37788898715479
 30
0.0
 11
149.52744840798459
 21
36.257149931010652
 31
0.0
  0
LINE
  5
D38
  8
TITLE
 10
147.64824771371289
 20
34.290664364088187
 30
0.0
 11
149.48157008690609
 21
36.123986737284781
 31
0.0
  0
LINE
  5
D39
  8
TITLE
 10
147.73553258635289
 20
34.290664364088187
 30
0.0
 11
149.43569176582741
 21
35.990823543562747
 31
0.0
  0
LINE
  5
D3A
  8
TITLE
 10
147.6481874641326
 20
34.814313350390748
 30
0.0
 11
149.756840013378
 21
36.922965899635919
 31
0.0
  0
LINE
  5
D3B
  8
TITLE
 10
147.6481874641326
 20
34.72702847774346
 30
0.0
 11
149.71096169229921
 21
36.78980270591029
 31
0.0
  0
LINE
  5
D3C
  8
TITLE
 10
147.6481874641326
 20
34.6397436050962
 30
0.0
 11
149.6650833712205
 21
36.656639512184682
 31
0.0
  0
LINE
  5
D3D
  8
TITLE
 10
147.6481874641326
 20
35.33802258626649
 30
0.0
 11
150.03210993984251
 21
37.721945061983448
 31
0.0
  0
LINE
  5
D3E
  8
TITLE
 10
147.6481874641326
 20
35.250737713619053
 30
0.0
 11
149.98623161876381
 21
37.588781868257684
 31
0.0
  0
LINE
  5
D3F
  8
TITLE
 10
147.6481874641326
 20
35.16345284097585
 30
0.0
 11
149.94035329768519
 21
37.455618674532161
 31
0.0
  0
LINE
  5
D40
  8
TITLE
 10
147.6481874641326
 20
35.076167968328413
 30
0.0
 11
149.89447497660649
 21
37.322455480806113
 31
0.0
  0
LINE
  5
D41
  8
TITLE
 10
147.6481874641326
 20
34.988883095681118
 30
0.0
 11
149.848596655535
 21
37.189292287084243
 31
0.0
  0
LINE
  5
D42
  8
TITLE
 10
147.6481874641326
 20
34.901598223037773
 30
0.0
 11
149.8027183344567
 21
37.056129093358066
 31
0.0
  0
LINE
  5
D43
  8
TITLE
 10
147.82281745899991
 20
34.290664364088187
 30
0.0
 11
149.3898134447486
 21
35.857660349836813
 31
0.0
  0
LINE
  5
D44
  8
TITLE
 10
147.9101023316471
 20
34.290664364088187
 30
0.0
 11
149.34393512367001
 21
35.72449715611107
 31
0.0
  0
LINE
  5
D45
  8
TITLE
 10
148.25924182223571
 20
34.290664364088187
 30
0.0
 11
149.36903508445349
 21
35.400457626305773
 31
0.0
  0
LINE
  5
D46
  8
TITLE
 10
148.3465266948829
 20
34.290664364088187
 30
0.0
 11
149.45631995709351
 21
35.400457626305773
 31
0.0
  0
LINE
  5
D47
  8
TITLE
 10
148.4338115675302
 20
34.290664364088187
 30
0.0
 11
149.5436048297409
 21
35.400457626305773
 31
0.0
  0
LINE
  5
D48
  8
TITLE
 10
147.9973872042942
 20
34.290664364088187
 30
0.0
 11
149.29805680259139
 21
35.591333962385278
 31
0.0
  0
LINE
  5
D49
  8
TITLE
 10
148.0846720769415
 20
34.290664364088187
 30
0.0
 11
149.25217848151291
 21
35.45817076865967
 31
0.0
  0
LINE
  5
D4A
  8
TITLE
 10
148.1719569495886
 20
34.290664364088187
 30
0.0
 11
149.28175021180661
 21
35.400457626305773
 31
0.0
  0
LINE
  5
D4B
  8
TITLE
 10
148.41462498437869
 20
36.715454215042733
 30
0.0
 11
150.3532581873929
 21
38.654087418056932
 31
0.0
  0
LINE
  5
D4C
  8
TITLE
 10
148.3687466633001
 20
36.582291021316962
 30
0.0
 11
150.30737986631459
 21
38.52092422433158
 31
0.0
  0
LINE
  5
D4D
  8
TITLE
 10
148.08360621260971
 20
35.860726207394542
 30
0.0
 11
150.07798826092099
 21
37.855108255709638
 31
0.0
  0
LINE
  5
D4E
  8
TITLE
 10
148.27699002114289
 20
36.315964633868887
 30
0.0
 11
150.21562322415721
 21
38.25459783687986
 31
0.0
  0
LINE
  5
D4F
  8
TITLE
 10
148.2311117000641
 20
36.18280144014679
 30
0.0
 11
150.16974490307851
 21
38.121434643157599
 31
0.0
  0
LINE
  5
D50
  8
TITLE
 10
148.32286834222151
 20
36.449127827591298
 30
0.0
 11
150.2615015452356
 21
38.387761030605191
 31
0.0
  0
LINE
  5
D51
  8
TITLE
 10
148.18523337899299
 20
36.049638246420841
 30
0.0
 11
150.12386658199989
 21
37.988271449431949
 31
0.0
  0
LINE
  5
D52
  8
TITLE
 10
148.46050330545751
 20
36.848617408768639
 30
0.0
 11
150.3991365084716
 21
38.787250611783122
 31
0.0
  0
LINE
  5
D53
  8
TITLE
 10
143.66203262479229
 20
38.421942431288358
 30
0.0
 11
145.0953784448551
 21
39.855288251358182
 31
0.0
  0
LINE
  5
D54
  8
TITLE
 10
143.66203262479229
 20
38.33465755864502
 30
0.0
 11
145.1826633175022
 21
39.855288251358182
 31
0.0
  0
LINE
  5
D55
  8
TITLE
 10
143.66203262479229
 20
38.247372685997711
 30
0.0
 11
145.26994819014919
 21
39.855288251358182
 31
0.0
  0
LINE
  5
D56
  8
TITLE
 10
143.66203262479229
 20
38.160087813350728
 30
0.0
 11
145.35723306279641
 21
39.855288251358182
 31
0.0
  0
LINE
  5
D57
  8
TITLE
 10
143.66203262479229
 20
38.07280294070695
 30
0.0
 11
145.44451793544371
 21
39.855288251358182
 31
0.0
  0
LINE
  5
D58
  8
TITLE
 10
143.66203262479229
 20
37.985518068059648
 30
0.0
 11
145.5318028080909
 21
39.855288251358182
 31
0.0
  0
LINE
  5
D59
  8
TITLE
 10
143.66203262479229
 20
37.8982331954128
 30
0.0
 11
145.61908768073809
 21
39.855288251358182
 31
0.0
  0
LINE
  5
D5A
  8
TITLE
 10
143.66203262479229
 20
37.810948322765782
 30
0.0
 11
145.70637255338499
 21
39.855288251358182
 31
0.0
  0
LINE
  5
D5B
  8
TITLE
 10
143.66203262479229
 20
37.72366345011821
 30
0.0
 11
145.7936574260321
 21
39.855288251358182
 31
0.0
  0
LINE
  5
D5C
  8
TITLE
 10
143.3722638535726
 20
38.743167768598511
 30
0.0
 11
144.4843843363322
 21
39.855288251358182
 31
0.0
  0
LINE
  5
D5D
  8
TITLE
 10
143.45954872621951
 20
38.743167768598511
 30
0.0
 11
144.57166920897919
 21
39.855288251358182
 31
0.0
  0
LINE
  5
D5E
  8
TITLE
 10
143.54683359886681
 20
38.743167768598511
 30
0.0
 11
144.65895408162649
 21
39.855288251358182
 31
0.0
  0
LINE
  5
D5F
  8
TITLE
 10
143.63411847151369
 20
38.743167768598511
 30
0.0
 11
144.74623895427351
 21
39.855288251358182
 31
0.0
  0
LINE
  5
D60
  8
TITLE
 10
143.66203262479229
 20
38.68379704922981
 30
0.0
 11
144.8335238269209
 21
39.855288251358182
 31
0.0
  0
LINE
  5
D61
  8
TITLE
 10
143.66203262479229
 20
38.596512176582948
 30
0.0
 11
144.92080869956811
 21
39.855288251358182
 31
0.0
  0
LINE
  5
D62
  8
TITLE
 10
143.66203262479229
 20
38.509227303935518
 30
0.0
 11
145.00809357220811
 21
39.855288251358182
 31
0.0
  0
LINE
  5
D63
  8
TITLE
 10
143.98228306256101
 20
34.290664364088187
 30
0.0
 11
145.1108089389798
 21
35.419190240506921
 31
0.0
  0
LINE
  5
D64
  8
TITLE
 10
144.06956793520101
 20
34.290664364088187
 30
0.0
 11
145.1980938116198
 21
35.419190240506921
 31
0.0
  0
LINE
  5
D65
  8
TITLE
 10
144.1568528078482
 20
34.290664364088187
 30
0.0
 11
145.2853786842669
 21
35.419190240506921
 31
0.0
  0
LINE
  5
D66
  8
TITLE
 10
144.24413768049519
 20
34.290664364088187
 30
0.0
 11
145.3726635569146
 21
35.419190240506921
 31
0.0
  0
LINE
  5
D67
  8
TITLE
 10
144.3314225531426
 20
34.290664364088187
 30
0.0
 11
145.45994842956159
 21
35.419190240506921
 31
0.0
  0
LINE
  5
D68
  8
TITLE
 10
142.58572510021381
 20
34.290664364088187
 30
0.0
 11
144.9063022877084
 21
36.611241551586318
 31
0.0
  0
LINE
  5
D69
  8
TITLE
 10
142.67300997286091
 20
34.290664364088187
 30
0.0
 11
144.9063022877084
 21
36.523956678939172
 31
0.0
  0
LINE
  5
D6A
  8
TITLE
 10
142.7602948455081
 20
34.290664364088187
 30
0.0
 11
144.9063022877084
 21
36.436671806292338
 31
0.0
  0
LINE
  5
D6B
  8
TITLE
 10
142.8475797181552
 20
34.290664364088187
 30
0.0
 11
144.9063022877084
 21
36.349386933648823
 31
0.0
  0
LINE
  5
D6C
  8
TITLE
 10
142.93486459080231
 20
34.290664364088187
 30
0.0
 11
144.9063022877084
 21
36.262102061001229
 31
0.0
  0
LINE
  5
D6D
  8
TITLE
 10
143.02214946344969
 20
34.290664364088187
 30
0.0
 11
144.9063022877084
 21
36.174817188353799
 31
0.0
  0
LINE
  5
D6E
  8
TITLE
 10
143.10943433608981
 20
34.290664364088187
 30
0.0
 11
144.9063022877084
 21
36.087532315707108
 31
0.0
  0
LINE
  5
D6F
  8
TITLE
 10
143.19671920873679
 20
34.290664364088187
 30
0.0
 11
144.9063022877084
 21
36.000247443059813
 31
0.0
  0
LINE
  5
D70
  8
TITLE
 10
143.28400408138401
 20
34.290664364088187
 30
0.0
 11
144.9063022877084
 21
35.912962570412823
 31
0.0
  0
LINE
  5
D71
  8
TITLE
 10
143.371288954031
 20
34.290664364088187
 30
0.0
 11
144.9063022877084
 21
35.825677697765528
 31
0.0
  0
LINE
  5
D72
  8
TITLE
 10
143.66203262479229
 20
35.977965997189933
 30
0.0
 11
144.9063022877084
 21
37.222235660112823
 31
0.0
  0
LINE
  5
D73
  8
TITLE
 10
143.66203262479229
 20
35.89068112454251
 30
0.0
 11
144.9063022877084
 21
37.134950787465641
 31
0.0
  0
LINE
  5
D74
  8
TITLE
 10
143.66203262479229
 20
35.803396251895201
 30
0.0
 11
144.9063022877084
 21
37.047665914818552
 31
0.0
  0
LINE
  5
D75
  8
TITLE
 10
143.66203262479229
 20
35.716111379247756
 30
0.0
 11
144.9063022877084
 21
36.960381042171392
 31
0.0
  0
LINE
  5
D76
  8
TITLE
 10
143.66203262479229
 20
35.62882650660427
 30
0.0
 11
144.9063022877084
 21
36.873096169524558
 31
0.0
  0
LINE
  5
D77
  8
TITLE
 10
143.66203262479229
 20
35.541541633957721
 30
0.0
 11
144.9063022877084
 21
36.785811296877121
 31
0.0
  0
LINE
  5
D78
  8
TITLE
 10
143.66203262479229
 20
35.454256761310283
 30
0.0
 11
144.9063022877084
 21
36.698526424229811
 31
0.0
  0
LINE
  5
D79
  8
TITLE
 10
143.4585738266783
 20
34.290664364088187
 30
0.0
 11
144.9063022877084
 21
35.73839282511824
 31
0.0
  0
LINE
  5
D7A
  8
TITLE
 10
143.54585869932521
 20
34.290664364088187
 30
0.0
 11
144.9063022877084
 21
35.65110795247476
 31
0.0
  0
LINE
  5
D7B
  8
TITLE
 10
143.6331435719726
 20
34.290664364088187
 30
0.0
 11
144.9063022877084
 21
35.5638230798276
 31
0.0
  0
LINE
  5
D7C
  8
TITLE
 10
143.72042844461961
 20
34.290664364088187
 30
0.0
 11
144.9063022877084
 21
35.476538207184248
 31
0.0
  0
LINE
  5
D7D
  8
TITLE
 10
143.8077133172666
 20
34.290664364088187
 30
0.0
 11
144.93623919368571
 21
35.419190240506921
 31
0.0
  0
LINE
  5
D7E
  8
TITLE
 10
143.89499818991379
 20
34.290664364088187
 30
0.0
 11
145.02352406633281
 21
35.419190240506921
 31
0.0
  0
LINE
  5
D7F
  8
TITLE
 10
143.66203262479229
 20
36.152535742483799
 30
0.0
 11
144.9063022877084
 21
37.396805405404052
 31
0.0
  0
LINE
  5
D80
  8
TITLE
 10
143.66203262479229
 20
36.065250869836753
 30
0.0
 11
144.9063022877084
 21
37.30952053275675
 31
0.0
  0
LINE
  5
D81
  8
TITLE
 10
143.66203262479229
 20
36.414390360421862
 30
0.0
 11
144.9063022877084
 21
37.658660023341533
 31
0.0
  0
LINE
  5
D82
  8
TITLE
 10
143.66203262479229
 20
36.327105487774702
 30
0.0
 11
144.9063022877084
 21
37.571375150694401
 31
0.0
  0
LINE
  5
D83
  8
TITLE
 10
143.66203262479229
 20
36.239820615130753
 30
0.0
 11
144.9063022877084
 21
37.484090278050878
 31
0.0
  0
LINE
  5
D84
  8
TITLE
 10
143.66203262479229
 20
37.63637857747122
 30
0.0
 11
145.8809422986723
 21
39.855288251358182
 31
0.0
  0
LINE
  5
D85
  8
TITLE
 10
143.66203262479229
 20
37.54909370482406
 30
0.0
 11
145.9682271713196
 21
39.855288251358182
 31
0.0
  0
LINE
  5
D86
  8
TITLE
 10
143.66203262479229
 20
37.461808832177098
 30
0.0
 11
144.9063022877084
 21
38.706078495100122
 31
0.0
  0
LINE
  5
D87
  8
TITLE
 10
143.66203262479229
 20
37.374523959533583
 30
0.0
 11
144.9063022877084
 21
38.618793622452813
 31
0.0
  0
LINE
  5
D88
  8
TITLE
 10
143.66203262479229
 20
37.28723908688599
 30
0.0
 11
144.9063022877084
 21
38.531508749805852
 31
0.0
  0
LINE
  5
D89
  8
TITLE
 10
143.66203262479229
 20
37.199954214242481
 30
0.0
 11
144.9063022877084
 21
38.444223877158819
 31
0.0
  0
LINE
  5
D8A
  8
TITLE
 10
143.66203262479229
 20
37.112669341595222
 30
0.0
 11
144.9063022877084
 21
38.356939004515169
 31
0.0
  0
LINE
  5
D8B
  8
TITLE
 10
143.66203262479229
 20
37.025384468948197
 30
0.0
 11
144.9063022877084
 21
38.26965413186791
 31
0.0
  0
LINE
  5
D8C
  8
TITLE
 10
143.66203262479229
 20
36.93809959630137
 30
0.0
 11
144.9063022877084
 21
38.182369259224672
 31
0.0
  0
LINE
  5
D8D
  8
TITLE
 10
143.66203262479229
 20
36.850814723653798
 30
0.0
 11
144.9063022877084
 21
38.095084386577227
 31
0.0
  0
LINE
  5
D8E
  8
TITLE
 10
143.66203262479229
 20
36.76352985100695
 30
0.0
 11
144.9063022877084
 21
38.00779951393028
 31
0.0
  0
LINE
  5
D8F
  8
TITLE
 10
143.66203262479229
 20
36.67624497835952
 30
0.0
 11
144.9063022877084
 21
37.920514641283091
 31
0.0
  0
LINE
  5
D90
  8
TITLE
 10
143.66203262479229
 20
36.588960105712353
 30
0.0
 11
144.9063022877084
 21
37.833229768635853
 31
0.0
  0
LINE
  5
D91
  8
TITLE
 10
143.66203262479229
 20
36.501675233069022
 30
0.0
 11
144.9063022877084
 21
37.745944895988828
 31
0.0
  0
LINE
  5
D92
  8
TITLE
 10
142.7612697450497
 20
38.743167768598511
 30
0.0
 11
143.87339022780901
 21
39.855288251358182
 31
0.0
  0
LINE
  5
D93
  8
TITLE
 10
142.8485546176897
 20
38.743167768598511
 30
0.0
 11
143.96067510045651
 21
39.855288251358182
 31
0.0
  0
LINE
  5
D94
  8
TITLE
 10
142.935839490337
 20
38.743167768598511
 30
0.0
 11
144.04795997309611
 21
39.855288251358182
 31
0.0
  0
LINE
  5
D95
  8
TITLE
 10
143.02312436298411
 20
38.743167768598511
 30
0.0
 11
144.1352448457435
 21
39.855288251358182
 31
0.0
  0
LINE
  5
D96
  8
TITLE
 10
143.11040923563101
 20
38.743167768598511
 30
0.0
 11
144.2225297183906
 21
39.855288251358182
 31
0.0
  0
LINE
  5
D97
  8
TITLE
 10
143.1976941082782
 20
38.743167768598511
 30
0.0
 11
144.30981459103771
 21
39.855288251358182
 31
0.0
  0
LINE
  5
D98
  8
TITLE
 10
143.28497898092539
 20
38.743167768598511
 30
0.0
 11
144.39709946368501
 21
39.855288251358182
 31
0.0
  0
LINE
  5
D99
  8
TITLE
 10
142.3248453818141
 20
38.743167768598511
 30
0.0
 11
143.43696586457361
 21
39.855288251358182
 31
0.0
  0
LINE
  5
D9A
  8
TITLE
 10
142.4121302544612
 20
38.743167768598511
 30
0.0
 11
143.5242507372206
 21
39.855288251358182
 31
0.0
  0
LINE
  5
D9B
  8
TITLE
 10
142.49941512710811
 20
38.743167768598511
 30
0.0
 11
143.6115356098679
 21
39.855288251358182
 31
0.0
  0
LINE
  5
D9C
  8
TITLE
 10
142.58669999975521
 20
38.743167768598511
 30
0.0
 11
143.698820482515
 21
39.855288251358182
 31
0.0
  0
LINE
  5
D9D
  8
TITLE
 10
142.67398487240209
 20
38.743167768598511
 30
0.0
 11
143.78610535516231
 21
39.855288251358182
 31
0.0
  0
LINE
  5
D9E
  8
TITLE
 10
142.2375605091666
 20
38.743167768598511
 30
0.0
 11
143.3496809919265
 21
39.855288251358182
 31
0.0
  0
LINE
  5
D9F
  8
TITLE
 10
142.15027563651941
 20
38.743167768598511
 30
0.0
 11
143.2623961192792
 21
39.855288251358182
 31
0.0
  0
LINE
  5
DA0
  8
TITLE
 10
140.3678826130585
 20
38.444617580124941
 30
0.0
 11
141.36013374838211
 21
39.436868715452484
 31
0.0
  0
LINE
  5
DA1
  8
TITLE
 10
140.49723749477721
 20
38.486687589196862
 30
0.0
 11
141.36013374838211
 21
39.349583842805188
 31
0.0
  0
LINE
  5
DA2
  8
TITLE
 10
140.62218465666251
 20
38.524349878441932
 30
0.0
 11
141.36013374838211
 21
39.262298970161403
 31
0.0
  0
LINE
  5
DA3
  8
TITLE
 10
140.74321866771911
 20
38.558099016847173
 30
0.0
 11
141.36013374838211
 21
39.175014097514541
 31
0.0
  0
LINE
  5
DA4
  8
TITLE
 10
140.86074372522799
 20
38.588339201709459
 30
0.0
 11
141.36013374838211
 21
39.087729224867253
 31
0.0
  0
LINE
  5
DA5
  8
TITLE
 10
141.3017276160156
 20
38.680183601908702
 30
0.0
 11
141.36013374838211
 21
38.738589734278392
 31
0.0
  0
LINE
  5
DA6
  8
TITLE
 10
141.1953641685615
 20
38.661105027101463
 30
0.0
 11
141.36013374838211
 21
38.82587460692568
 31
0.0
  0
LINE
  5
DA7
  8
TITLE
 10
140.97509528488999
 20
38.615405888720332
 30
0.0
 11
141.36013374838211
 21
39.000444352220271
 31
0.0
  0
LINE
  5
DA8
  8
TITLE
 10
141.08655544654471
 20
38.639581177735408
 30
0.0
 11
141.36013374838211
 21
38.91315947957284
 31
0.0
  0
LINE
  5
DA9
  8
TITLE
 10
141.81340341130621
 20
39.628283760434897
 30
0.0
 11
142.04040790223331
 21
39.855288251358182
 31
0.0
  0
LINE
  5
DAA
  8
TITLE
 10
141.81340341130621
 20
39.540998887787481
 30
0.0
 11
142.1276927748807
 21
39.855288251358182
 31
0.0
  0
LINE
  5
DAB
  8
TITLE
 10
141.81340341130621
 20
39.8028535057257
 30
0.0
 11
141.86583815693899
 21
39.855288251358182
 31
0.0
  0
LINE
  5
DAC
  8
TITLE
 10
141.81340341130621
 20
39.715568633078249
 30
0.0
 11
141.9531230295859
 21
39.855288251358182
 31
0.0
  0
LINE
  5
DAD
  8
TITLE
 10
141.81340341130621
 20
39.017289651908101
 30
0.0
 11
142.65140201075619
 21
39.855288251358182
 31
0.0
  0
LINE
  5
DAE
  8
TITLE
 10
141.81340341130621
 20
38.93000477926126
 30
0.0
 11
142.7386868834036
 21
39.855288251358182
 31
0.0
  0
LINE
  5
DAF
  8
TITLE
 10
141.81340341130621
 20
38.842719906613837
 30
0.0
 11
142.82597175605059
 21
39.855288251358182
 31
0.0
  0
LINE
  5
DB0
  8
TITLE
 10
141.81340341130621
 20
38.755435033966677
 30
0.0
 11
142.91325662869781
 21
39.855288251358182
 31
0.0
  0
LINE
  5
DB1
  8
TITLE
 10
141.8884210185781
 20
38.743167768598511
 30
0.0
 11
143.0005415013448
 21
39.855288251358182
 31
0.0
  0
LINE
  5
DB2
  8
TITLE
 10
141.97570589122509
 20
38.743167768598511
 30
0.0
 11
143.0878263739919
 21
39.855288251358182
 31
0.0
  0
LINE
  5
DB3
  8
TITLE
 10
142.06299076387251
 20
38.743167768598511
 30
0.0
 11
143.1751112466319
 21
39.855288251358182
 31
0.0
  0
LINE
  5
DB4
  8
TITLE
 10
141.81340341130621
 20
39.104574524555233
 30
0.0
 11
142.564117138109
 21
39.855288251358182
 31
0.0
  0
LINE
  5
DB5
  8
TITLE
 10
141.81340341130621
 20
39.453714015140783
 30
0.0
 11
142.2149776475207
 21
39.855288251358182
 31
0.0
  0
LINE
  5
DB6
  8
TITLE
 10
141.81340341130621
 20
39.366429142496798
 30
0.0
 11
142.30226252016749
 21
39.855288251358182
 31
0.0
  0
LINE
  5
DB7
  8
TITLE
 10
141.81340341130621
 20
39.279144269849951
 30
0.0
 11
142.38954739281479
 21
39.855288251358182
 31
0.0
  0
LINE
  5
DB8
  8
TITLE
 10
141.81340341130621
 20
39.191859397202649
 30
0.0
 11
142.47683226546201
 21
39.855288251358182
 31
0.0
  0
LINE
  5
DB9
  8
TITLE
 10
142.3238704822723
 20
34.290664364088187
 30
0.0
 11
143.4523963586912
 21
35.419190240506921
 31
0.0
  0
LINE
  5
DBA
  8
TITLE
 10
142.41115535491929
 20
34.290664364088187
 30
0.0
 11
143.53968123133811
 21
35.419190240506921
 31
0.0
  0
LINE
  5
DBB
  8
TITLE
 10
142.4984402275669
 20
34.290664364088187
 30
0.0
 11
143.62696610398569
 21
35.419190240506921
 31
0.0
  0
LINE
  5
DBC
  8
TITLE
 10
142.23658560962519
 20
34.290664364088187
 30
0.0
 11
143.36511148605081
 21
35.419190240506921
 31
0.0
  0
LINE
  5
DBD
  8
TITLE
 10
142.1493007369852
 20
34.290664364088187
 30
0.0
 11
143.2778266134041
 21
35.419190240506921
 31
0.0
  0
LINE
  5
DBE
  8
TITLE
 10
141.36013374838211
 20
34.810770465188739
 30
0.0
 11
141.9685535237038
 21
35.419190240506921
 31
0.0
  0
LINE
  5
DBF
  8
TITLE
 10
141.36013374838211
 20
34.723485592545337
 30
0.0
 11
142.05583839635091
 21
35.419190240506921
 31
0.0
  0
LINE
  5
DC0
  8
TITLE
 10
141.36013374838211
 20
34.898055337836013
 30
0.0
 11
141.8812686510567
 21
35.419190240506921
 31
0.0
  0
LINE
  5
DC1
  8
TITLE
 10
141.36013374838211
 20
35.159909955773969
 30
0.0
 11
141.61941403311511
 21
35.419190240506921
 31
0.0
  0
LINE
  5
DC2
  8
TITLE
 10
141.36013374838211
 20
35.072625083126937
 30
0.0
 11
141.70669890576249
 21
35.419190240506921
 31
0.0
  0
LINE
  5
DC3
  8
TITLE
 10
141.36013374838211
 20
34.985340210479819
 30
0.0
 11
141.79398377840971
 21
35.419190240506921
 31
0.0
  0
LINE
  5
DC4
  8
TITLE
 10
141.36013374838211
 20
35.334479701068247
 30
0.0
 11
141.44484428782809
 21
35.419190240506921
 31
0.0
  0
LINE
  5
DC5
  8
TITLE
 10
141.36013374838211
 20
35.247194828421208
 30
0.0
 11
141.532129160468
 21
35.419190240506921
 31
0.0
  0
LINE
  5
DC6
  8
TITLE
 10
141.36013374838211
 20
34.636200719898227
 30
0.0
 11
142.14312326899849
 21
35.419190240506921
 31
0.0
  0
LINE
  5
DC7
  8
TITLE
 10
141.36013374838211
 20
34.548915847251067
 30
0.0
 11
142.2304081416454
 21
35.419190240506921
 31
0.0
  0
LINE
  5
DC8
  8
TITLE
 10
141.36013374838211
 20
34.461630974603779
 30
0.0
 11
142.31769301429259
 21
35.419190240506921
 31
0.0
  0
LINE
  5
DC9
  8
TITLE
 10
141.36013374838211
 20
34.374346101957073
 30
0.0
 11
142.40497788693261
 21
35.419190240506921
 31
0.0
  0
LINE
  5
DCA
  8
TITLE
 10
141.3637368831609
 20
34.290664364088187
 30
0.0
 11
142.49226275957989
 21
35.419190240506921
 31
0.0
  0
LINE
  5
DCB
  8
TITLE
 10
141.4510217558078
 20
34.290664364088187
 30
0.0
 11
142.57954763222671
 21
35.419190240506921
 31
0.0
  0
LINE
  5
DCC
  8
TITLE
 10
141.53830662845499
 20
34.290664364088187
 30
0.0
 11
142.66683250487381
 21
35.419190240506921
 31
0.0
  0
LINE
  5
DCD
  8
TITLE
 10
141.62559150110229
 20
34.290664364088187
 30
0.0
 11
142.75411737752091
 21
35.419190240506921
 31
0.0
  0
LINE
  5
DCE
  8
TITLE
 10
141.7128763737494
 20
34.290664364088187
 30
0.0
 11
142.84140225016819
 21
35.419190240506921
 31
0.0
  0
LINE
  5
DCF
  8
TITLE
 10
141.80016124639661
 20
34.290664364088187
 30
0.0
 11
142.92868712281521
 21
35.419190240506921
 31
0.0
  0
LINE
  5
DD0
  8
TITLE
 10
141.887446119044
 20
34.290664364088187
 30
0.0
 11
143.01597199546251
 21
35.419190240506921
 31
0.0
  0
LINE
  5
DD1
  8
TITLE
 10
141.97473099169071
 20
34.290664364088187
 30
0.0
 11
143.10325686810981
 21
35.419190240506921
 31
0.0
  0
LINE
  5
DD2
  8
TITLE
 10
142.06201586433829
 20
34.290664364088187
 30
0.0
 11
143.190541740757
 21
35.419190240506921
 31
0.0
  0
LINE
  5
DD3
  8
TITLE
 10
146.25266465090701
 20
38.743167768598511
 30
0.0
 11
146.75493150119451
 21
39.245434618886271
 31
0.0
  0
LINE
  5
DD4
  8
TITLE
 10
146.33994952355411
 20
38.743167768598511
 30
0.0
 11
146.75493150119451
 21
39.158149746239253
 31
0.0
  0
LINE
  5
DD5
  8
TITLE
 10
146.427234396194
 20
38.743167768598511
 30
0.0
 11
146.75493150119451
 21
39.070864873592129
 31
0.0
  0
LINE
  5
DD6
  8
TITLE
 10
146.6890890141359
 20
38.743167768598511
 30
0.0
 11
146.75493150119451
 21
38.809010255654023
 31
0.0
  0
LINE
  5
DD7
  8
TITLE
 10
146.51451926884161
 20
38.743167768598511
 30
0.0
 11
146.75493150119451
 21
38.983580000948137
 31
0.0
  0
LINE
  5
DD8
  8
TITLE
 10
146.6018041414884
 20
38.743167768598511
 30
0.0
 11
146.75493150119451
 21
38.896295128301027
 31
0.0
  0
LINE
  5
DD9
  8
TITLE
 10
147.6481874641326
 20
35.425307458913188
 30
0.0
 11
147.66171308220009
 21
35.438833076981723
 31
0.0
  0
LINE
  5
DDA
  8
TITLE
 10
146.2516897513656
 20
34.290664364088187
 30
0.0
 11
147.20820116411861
 21
35.247175776841331
 31
0.0
  0
LINE
  5
DDB
  8
TITLE
 10
146.33897462401291
 20
34.290664364088187
 30
0.0
 11
147.20820116411861
 21
35.159890904194071
 31
0.0
  0
LINE
  5
DDC
  8
TITLE
 10
146.42625949665981
 20
34.290664364088187
 30
0.0
 11
147.20820116411861
 21
35.072606031546798
 31
0.0
  0
LINE
  5
DDD
  8
TITLE
 10
146.513544369307
 20
34.290664364088187
 30
0.0
 11
147.20820116411861
 21
34.98532115889995
 31
0.0
  0
LINE
  5
DDE
  8
TITLE
 10
146.6008292419541
 20
34.290664364088187
 30
0.0
 11
147.20820116411861
 21
34.89803628625252
 31
0.0
  0
LINE
  5
DDF
  8
TITLE
 10
146.6881141146016
 20
34.290664364088187
 30
0.0
 11
147.20820116411861
 21
34.810751413605217
 31
0.0
  0
LINE
  5
DE0
  8
TITLE
 10
146.7753989872416
 20
34.290664364088187
 30
0.0
 11
147.20820116411861
 21
34.723466540958057
 31
0.0
  0
LINE
  5
DE1
  8
TITLE
 10
146.86268385988831
 20
34.290664364088187
 30
0.0
 11
147.20820116411861
 21
34.636181668310947
 31
0.0
  0
LINE
  5
DE2
  8
TITLE
 10
146.94996873253561
 20
34.290664364088187
 30
0.0
 11
147.20820116411861
 21
34.548896795667702
 31
0.0
  0
LINE
  5
DE3
  8
TITLE
 10
147.03725360518291
 20
34.290664364088187
 30
0.0
 11
147.20820116411861
 21
34.461611923020257
 31
0.0
  0
LINE
  5
DE4
  8
TITLE
 10
147.1245384778297
 20
34.290664364088187
 30
0.0
 11
147.20820116411861
 21
34.37432705037314
 31
0.0
  0
LINE
  5
DE5
  8
TITLE
 10
144.94339156120691
 20
38.743167768598511
 30
0.0
 11
146.05551204396659
 21
39.855288251358182
 31
0.0
  0
LINE
  5
DE6
  8
TITLE
 10
145.03067643385401
 20
38.743167768598511
 30
0.0
 11
146.1427969166138
 21
39.855288251358182
 31
0.0
  0
LINE
  5
DE7
  8
TITLE
 10
145.11796130650109
 20
38.743167768598511
 30
0.0
 11
146.23008178926091
 21
39.855288251358182
 31
0.0
  0
LINE
  5
DE8
  8
TITLE
 10
144.41870742578971
 20
34.290664364088187
 30
0.0
 11
145.54723330220841
 21
35.419190240506921
 31
0.0
  0
LINE
  5
DE9
  8
TITLE
 10
144.50599229843681
 20
34.290664364088187
 30
0.0
 11
145.6345181748556
 21
35.419190240506921
 31
0.0
  0
LINE
  5
DEA
  8
TITLE
 10
144.59327717108391
 20
34.290664364088187
 30
0.0
 11
145.7218030475027
 21
35.419190240506921
 31
0.0
  0
LINE
  5
DEB
  8
TITLE
 10
144.6805620437315
 20
34.290664364088187
 30
0.0
 11
145.80908792015001
 21
35.419190240506921
 31
0.0
  0
LINE
  5
DEC
  8
TITLE
 10
144.76784691637829
 20
34.290664364088187
 30
0.0
 11
145.89637279279719
 21
35.419190240506921
 31
0.0
  0
LINE
  5
DED
  8
TITLE
 10
144.85513178902551
 20
34.290664364088187
 30
0.0
 11
145.98365766544421
 21
35.419190240506921
 31
0.0
  0
LINE
  5
DEE
  8
TITLE
 10
144.94241666166511
 20
34.290664364088187
 30
0.0
 11
146.07094253808421
 21
35.419190240506921
 31
0.0
  0
LINE
  5
DEF
  8
TITLE
 10
145.02970153431241
 20
34.290664364088187
 30
0.0
 11
146.15822741073151
 21
35.419190240506921
 31
0.0
  0
LINE
  5
DF0
  8
TITLE
 10
145.55438566973001
 20
38.743167768598511
 30
0.0
 11
146.66650615249651
 21
39.855288251358182
 31
0.0
  0
LINE
  5
DF1
  8
TITLE
 10
145.64167054237669
 20
38.743167768598511
 30
0.0
 11
146.75379102514401
 21
39.855288251358182
 31
0.0
  0
LINE
  5
DF2
  8
TITLE
 10
145.7289554150239
 20
38.743167768598511
 30
0.0
 11
146.75493150119451
 21
39.769143854765773
 31
0.0
  0
LINE
  5
DF3
  8
TITLE
 10
145.81624028767109
 20
38.743167768598511
 30
0.0
 11
146.75493150119451
 21
39.681858982121781
 31
0.0
  0
LINE
  5
DF4
  8
TITLE
 10
145.90352516031851
 20
38.743167768598511
 30
0.0
 11
146.75493150119451
 21
39.594574109474678
 31
0.0
  0
LINE
  5
DF5
  8
TITLE
 10
145.99081003296541
 20
38.743167768598511
 30
0.0
 11
146.75493150119451
 21
39.507289236827518
 31
0.0
  0
LINE
  5
DF6
  8
TITLE
 10
146.078094905613
 20
38.743167768598511
 30
0.0
 11
146.75493150119451
 21
39.420004364180222
 31
0.0
  0
LINE
  5
DF7
  8
TITLE
 10
146.16537977825999
 20
38.743167768598511
 30
0.0
 11
146.75493150119451
 21
39.332719491533368
 31
0.0
  0
LINE
  5
DF8
  8
TITLE
 10
145.46710079708981
 20
38.743167768598511
 30
0.0
 11
146.57922127984961
 21
39.855288251358182
 31
0.0
  0
LINE
  5
DF9
  8
TITLE
 10
145.20524617914839
 20
38.743167768598511
 30
0.0
 11
146.31736666190801
 21
39.855288251358182
 31
0.0
  0
LINE
  5
DFA
  8
TITLE
 10
145.29253105179581
 20
38.743167768598511
 30
0.0
 11
146.40465153455509
 21
39.855288251358182
 31
0.0
  0
LINE
  5
DFB
  8
TITLE
 10
145.37981592444311
 20
38.743167768598511
 30
0.0
 11
146.4919364072021
 21
39.855288251358182
 31
0.0
  0
LINE
  5
DFC
  8
TITLE
 10
145.55341077019551
 20
34.290664364088187
 30
0.0
 11
146.68193664661419
 21
35.419190240506921
 31
0.0
  0
LINE
  5
DFD
  8
TITLE
 10
145.64069564284279
 20
34.290664364088187
 30
0.0
 11
146.76922151926141
 21
35.419190240506921
 31
0.0
  0
LINE
  5
DFE
  8
TITLE
 10
145.7279805154898
 20
34.290664364088187
 30
0.0
 11
146.85650639190891
 21
35.419190240506921
 31
0.0
  0
LINE
  5
DFF
  8
TITLE
 10
145.81526538813711
 20
34.290664364088187
 30
0.0
 11
146.94379126455581
 21
35.419190240506921
 31
0.0
  0
LINE
  5
E00
  8
TITLE
 10
145.90255026077671
 20
34.290664364088187
 30
0.0
 11
147.0310761371957
 21
35.419190240506921
 31
0.0
  0
LINE
  5
E01
  8
TITLE
 10
145.98983513342401
 20
34.290664364088187
 30
0.0
 11
147.11836100984269
 21
35.419190240506921
 31
0.0
  0
LINE
  5
E02
  8
TITLE
 10
146.07712000607131
 20
34.290664364088187
 30
0.0
 11
147.20564588248999
 21
35.419190240506921
 31
0.0
  0
LINE
  5
E03
  8
TITLE
 10
146.16440487871819
 20
34.290664364088187
 30
0.0
 11
147.20820116411861
 21
35.334460649484868
 31
0.0
  0
LINE
  5
E04
  8
TITLE
 10
145.1169864069598
 20
34.290664364088187
 30
0.0
 11
146.24551228337879
 21
35.419190240506921
 31
0.0
  0
LINE
  5
E05
  8
TITLE
 10
145.20427127960679
 20
34.290664364088187
 30
0.0
 11
146.33279715602561
 21
35.419190240506921
 31
0.0
  0
LINE
  5
E06
  8
TITLE
 10
145.2915561522542
 20
34.290664364088187
 30
0.0
 11
146.42008202867271
 21
35.419190240506921
 31
0.0
  0
LINE
  5
E07
  8
TITLE
 10
145.37884102490119
 20
34.290664364088187
 30
0.0
 11
146.50736690132001
 21
35.419190240506921
 31
0.0
  0
LINE
  5
E08
  8
TITLE
 10
145.46612589754861
 20
34.290664364088187
 30
0.0
 11
146.59465177396731
 21
35.419190240506921
 31
0.0
  0
LINE
  5
E0A
  8
TITLE
 10
150.96507287427599
 20
34.290664364088187
 30
0.0
 11
153.04983958939721
 21
36.37543107921276
 31
0.0
  0
LINE
  5
E0B
  8
TITLE
 10
151.05235774692289
 20
34.290664364088187
 30
0.0
 11
153.0660203328834
 21
36.304326950052221
 31
0.0
  0
LINE
  5
E0C
  8
TITLE
 10
151.1396426195702
 20
34.290664364088187
 30
0.0
 11
153.08220107637001
 21
36.233222820891712
 31
0.0
  0
LINE
  5
E0D
  8
TITLE
 10
151.2269274922175
 20
34.290664364088187
 30
0.0
 11
153.0983818198564
 21
36.162118691730782
 31
0.0
  0
LINE
  5
E0E
  8
TITLE
 10
151.3142123648646
 20
34.290664364088187
 30
0.0
 11
153.1145625633429
 21
36.09101456256964
 31
0.0
  0
LINE
  5
E0F
  8
TITLE
 10
151.40149723750491
 20
34.290664364088187
 30
0.0
 11
153.130743306829
 21
36.019910433409422
 31
0.0
  0
LINE
  5
E10
  8
TITLE
 10
151.99844927682449
 20
35.585895384574741
 30
0.0
 11
153.0012973589451
 21
36.588743466695192
 31
0.0
  0
LINE
  5
E11
  8
TITLE
 10
152.0146300203036
 20
35.514791255413762
 30
0.0
 11
153.01747810242469
 21
36.517639337534241
 31
0.0
  0
LINE
  5
E12
  8
TITLE
 10
152.0308107637901
 20
35.443687126252797
 30
0.0
 11
153.03365884591091
 21
36.44653520837403
 31
0.0
  0
LINE
  5
E13
  8
TITLE
 10
151.91754555939281
 20
35.941416030378207
 30
0.0
 11
152.9203936415135
 21
36.944264112498992
 31
0.0
  0
LINE
  5
E14
  8
TITLE
 10
151.93372630287899
 20
35.870311901217534
 30
0.0
 11
152.93657438499989
 21
36.873159983338191
 31
0.0
  0
LINE
  5
E15
  8
TITLE
 10
151.94990704636541
 20
35.799207772057002
 30
0.0
 11
152.95275512848639
 21
36.802055854177503
 31
0.0
  0
LINE
  5
E16
  8
TITLE
 10
151.9660877898516
 20
35.728103642896201
 30
0.0
 11
152.96893587197269
 21
36.730951725016951
 31
0.0
  0
LINE
  5
E17
  8
TITLE
 10
151.98226853333821
 20
35.656999513735229
 30
0.0
 11
152.98511661545899
 21
36.659847595856149
 31
0.0
  0
LINE
  5
E18
  8
TITLE
 10
151.4887821101517
 20
34.290664364088187
 30
0.0
 11
153.14692405031559
 21
35.948806304244698
 31
0.0
  0
LINE
  5
E19
  8
TITLE
 10
151.57606698279909
 20
34.290664364088187
 30
0.0
 11
153.1631047937947
 21
35.877702175083868
 31
0.0
  0
LINE
  5
E1A
  8
TITLE
 10
151.66335185544591
 20
34.290664364088187
 30
0.0
 11
153.17928553728109
 21
35.806598045923209
 31
0.0
  0
LINE
  5
E1B
  8
TITLE
 10
151.75063672809321
 20
34.290664364088187
 30
0.0
 11
153.1954662807677
 21
35.735493916762273
 31
0.0
  0
LINE
  5
E1C
  8
TITLE
 10
151.8379216007404
 20
34.290664364088187
 30
0.0
 11
153.21164702425401
 21
35.664389787601863
 31
0.0
  0
LINE
  5
E1D
  8
TITLE
 10
151.92520647338759
 20
34.290664364088187
 30
0.0
 11
153.22782776774051
 21
35.593285658440898
 31
0.0
  0
LINE
  5
E1E
  8
TITLE
 10
152.01249134603461
 20
34.290664364088187
 30
0.0
 11
153.24400851122701
 21
35.522181529280232
 31
0.0
  0
LINE
  5
E1F
  8
TITLE
 10
152.09977621868191
 20
34.290664364088187
 30
0.0
 11
153.260189254713
 21
35.451077400119402
 31
0.0
  0
LINE
  5
E20
  8
TITLE
 10
152.1870610913291
 20
34.290664364088187
 30
0.0
 11
153.27636999819961
 21
35.379973270958928
 31
0.0
  0
LINE
  5
E21
  8
TITLE
 10
152.2743459639691
 20
34.290664364088187
 30
0.0
 11
153.29255074167881
 21
35.3088691417978
 31
0.0
  0
LINE
  5
E22
  8
TITLE
 10
152.36163083661589
 20
34.290664364088187
 30
0.0
 11
153.3087314851652
 21
35.237765012637297
 31
0.0
  0
LINE
  5
E23
  8
TITLE
 10
152.4489157092633
 20
34.290664364088187
 30
0.0
 11
153.3249122286517
 21
35.166660883476503
 31
0.0
  0
LINE
  5
E24
  8
TITLE
 10
152.53620058191041
 20
34.290664364088187
 30
0.0
 11
153.3410929721382
 21
35.095556754315503
 31
0.0
  0
LINE
  5
E25
  8
TITLE
 10
151.72337663756321
 20
36.794665580311289
 30
0.0
 11
152.6454192273776
 21
37.716708170125663
 31
0.0
  0
LINE
  5
E26
  8
TITLE
 10
151.73955738104931
 20
36.723561451150459
 30
0.0
 11
152.73270410002479
 21
37.716708170125663
 31
0.0
  0
LINE
  5
E27
  8
TITLE
 10
151.7557381245357
 20
36.65245732198953
 30
0.0
 11
152.7585862066569
 21
37.655305404110443
 31
0.0
  0
LINE
  5
E28
  8
TITLE
 10
151.77191886802271
 20
36.581353192829027
 30
0.0
 11
152.774766950143
 21
37.584201274949493
 31
0.0
  0
LINE
  5
E29
  8
TITLE
 10
151.78809961150861
 20
36.510249063667892
 30
0.0
 11
152.79094769362939
 21
37.513097145788798
 31
0.0
  0
LINE
  5
E2A
  8
TITLE
 10
151.80428035499509
 20
36.43914493450707
 30
0.0
 11
152.80712843711569
 21
37.441993016627862
 31
0.0
  0
LINE
  5
E2B
  8
TITLE
 10
151.8204610984815
 20
36.368040805346851
 30
0.0
 11
152.82330918060219
 21
37.370888887467324
 31
0.0
  0
LINE
  5
E2C
  8
TITLE
 10
151.83664184196769
 20
36.296936676185886
 30
0.0
 11
152.8394899240885
 21
37.299784758306501
 31
0.0
  0
LINE
  5
E2D
  8
TITLE
 10
151.85282258545419
 20
36.225832547024957
 30
0.0
 11
152.85567066757471
 21
37.22868062914587
 31
0.0
  0
LINE
  5
E2E
  8
TITLE
 10
151.86900332893359
 20
36.154728417864128
 30
0.0
 11
152.87185141105391
 21
37.15757649998487
 31
0.0
  0
LINE
  5
E2F
  8
TITLE
 10
151.88518407242
 20
36.083624288703483
 30
0.0
 11
152.88803215454041
 21
37.086472370820871
 31
0.0
  0
LINE
  5
E30
  8
TITLE
 10
151.90136481590619
 20
36.01252015954266
 30
0.0
 11
152.9042128980268
 21
37.015368241659942
 31
0.0
  0
LINE
  5
E31
  8
TITLE
 10
149.19455644270849
 20
38.97922850836332
 30
0.0
 11
150.07061618570691
 21
39.855288251358182
 31
0.0
  0
LINE
  5
E32
  8
TITLE
 10
149.1486781216297
 20
38.846065314641351
 30
0.0
 11
150.15790105835401
 21
39.855288251358182
 31
0.0
  0
LINE
  5
E33
  8
TITLE
 10
149.1027998005512
 20
38.712902120915729
 30
0.0
 11
150.2451859310012
 21
39.855288251358182
 31
0.0
  0
LINE
  5
E34
  8
TITLE
 10
149.05692147948011
 20
38.579738927189482
 30
0.0
 11
150.3324708036485
 21
39.855288251358182
 31
0.0
  0
LINE
  5
E35
  8
TITLE
 10
149.3321914059444
 20
39.378718089537159
 30
0.0
 11
149.80876156776529
 21
39.855288251358182
 31
0.0
  0
LINE
  5
E36
  8
TITLE
 10
149.2863130848657
 20
39.245554895811281
 30
0.0
 11
149.8960464404127
 21
39.855288251358182
 31
0.0
  0
LINE
  5
E37
  8
TITLE
 10
149.24043476378711
 20
39.112391702089099
 30
0.0
 11
149.98333131305981
 21
39.855288251358182
 31
0.0
  0
LINE
  5
E38
  8
TITLE
 10
149.42394804810181
 20
39.645044476988758
 30
0.0
 11
149.63419182247119
 21
39.855288251358182
 31
0.0
  0
LINE
  5
E39
  8
TITLE
 10
149.37806972702299
 20
39.511881283263222
 30
0.0
 11
149.7214766951185
 21
39.855288251358182
 31
0.0
  0
LINE
  5
E3A
  8
TITLE
 10
149.46982636918051
 20
39.778207670714487
 30
0.0
 11
149.54690694982401
 21
39.855288251358182
 31
0.0
  0
LINE
  5
E3B
  8
TITLE
 10
148.8734081951653
 20
38.047086152290163
 30
0.0
 11
150.6816102942299
 21
39.855288251358182
 31
0.0
  0
LINE
  5
E3C
  8
TITLE
 10
148.82752987408651
 20
37.913922958567738
 30
0.0
 11
150.76616307709369
 21
39.852556161578292
 31
0.0
  0
LINE
  5
E3D
  8
TITLE
 10
148.78165155300809
 20
37.780759764841982
 30
0.0
 11
150.72028475602221
 21
39.719392967852642
 31
0.0
  0
LINE
  5
E3E
  8
TITLE
 10
149.01104315840121
 20
38.446575733463732
 30
0.0
 11
150.4197556762885
 21
39.855288251358182
 31
0.0
  0
LINE
  5
E3F
  8
TITLE
 10
148.96516483732259
 20
38.313412539738238
 30
0.0
 11
150.50704054893561
 21
39.855288251358182
 31
0.0
  0
LINE
  5
E40
  8
TITLE
 10
148.91928651624411
 20
38.18024934601597
 30
0.0
 11
150.59432542158271
 21
39.855288251358182
 31
0.0
  0
LINE
  5
E41
  8
TITLE
 10
150.3540787657532
 20
34.290664364088187
 30
0.0
 11
151.46387202796359
 21
35.400457626305773
 31
0.0
  0
LINE
  5
E42
  8
TITLE
 10
150.441363638393
 20
34.290664364088187
 30
0.0
 11
151.55115690061101
 21
35.400457626305773
 31
0.0
  0
LINE
  5
E43
  8
TITLE
 10
150.5286485110401
 20
34.290664364088187
 30
0.0
 11
151.63844177325771
 21
35.400457626305773
 31
0.0
  0
LINE
  5
E44
  8
TITLE
 10
150.61593338368749
 20
34.290664364088187
 30
0.0
 11
151.72572664590521
 21
35.400457626305773
 31
0.0
  0
LINE
  5
E45
  8
TITLE
 10
150.70321825633451
 20
34.290664364088187
 30
0.0
 11
151.8130115185524
 21
35.400457626305773
 31
0.0
  0
LINE
  5
E46
  8
TITLE
 10
150.7905031289817
 20
34.290664364088187
 30
0.0
 11
151.9002963911995
 21
35.400457626305773
 31
0.0
  0
LINE
  5
E47
  8
TITLE
 10
150.87778800162911
 20
34.290664364088187
 30
0.0
 11
151.98758126384669
 21
35.400457626305773
 31
0.0
  0
LINE
  5
E48
  8
TITLE
 10
151.67483440711109
 20
37.007977967793437
 30
0.0
 11
152.3835646094434
 21
37.716708170125663
 31
0.0
  0
LINE
  5
E49
  8
TITLE
 10
151.69101515059759
 20
36.936873838632494
 30
0.0
 11
152.47084948208311
 21
37.716708170125663
 31
0.0
  0
LINE
  5
E4A
  8
TITLE
 10
151.70719589408381
 20
36.86576970947182
 30
0.0
 11
152.5581343547305
 21
37.716708170125663
 31
0.0
  0
LINE
  5
E4B
  8
TITLE
 10
151.6262921766517
 20
37.221290355275869
 30
0.0
 11
152.1217099915018
 21
37.716708170125663
 31
0.0
  0
LINE
  5
E4C
  8
TITLE
 10
151.64247292013809
 20
37.15018622611494
 30
0.0
 11
152.2089948641491
 21
37.716708170125663
 31
0.0
  0
LINE
  5
E4D
  8
TITLE
 10
151.6586536636247
 20
37.079082096953812
 30
0.0
 11
152.2962797367959
 21
37.716708170125663
 31
0.0
  0
LINE
  5
E4E
  8
TITLE
 10
151.5615692027136
 20
37.50570687191869
 30
0.0
 11
151.7725705009131
 21
37.716708170125663
 31
0.0
  0
LINE
  5
E4F
  8
TITLE
 10
151.57774994619291
 20
37.434602742758329
 30
0.0
 11
151.85985537356061
 21
37.716708170125663
 31
0.0
  0
LINE
  5
E50
  8
TITLE
 10
151.59393068967921
 20
37.363498613597251
 30
0.0
 11
151.94714024620751
 21
37.716708170125663
 31
0.0
  0
LINE
  5
E51
  8
TITLE
 10
151.6101114331656
 20
37.292394484436429
 30
0.0
 11
152.0344251188547
 21
37.716708170125663
 31
0.0
  0
LINE
  5
E52
  8
TITLE
 10
151.52920771574091
 20
37.647915130240619
 30
0.0
 11
151.5980007556189
 21
37.716708170125663
 31
0.0
  0
LINE
  5
E53
  8
TITLE
 10
151.54538845922701
 20
37.576811001079363
 30
0.0
 11
151.685285628266
 21
37.716708170125663
 31
0.0
  0
LINE
  5
E54
  8
TITLE
 10
148.52109644017719
 20
34.290664364088187
 30
0.0
 11
149.63088970238809
 21
35.400457626305773
 31
0.0
  0
LINE
  5
E55
  8
TITLE
 10
148.60838131281719
 20
34.290664364088187
 30
0.0
 11
149.71817457503511
 21
35.400457626305773
 31
0.0
  0
LINE
  5
E56
  8
TITLE
 10
148.6956661854646
 20
34.290664364088187
 30
0.0
 11
149.80545944768221
 21
35.400457626305773
 31
0.0
  0
LINE
  5
E57
  8
TITLE
 10
148.78295105811171
 20
34.290664364088187
 30
0.0
 11
149.8927443203292
 21
35.400457626305773
 31
0.0
  0
LINE
  5
E58
  8
TITLE
 10
148.8702359307587
 20
34.290664364088187
 30
0.0
 11
149.9800291929767
 21
35.400457626305773
 31
0.0
  0
LINE
  5
E59
  8
TITLE
 10
148.95752080340571
 20
34.290664364088187
 30
0.0
 11
150.06731406562361
 21
35.400457626305773
 31
0.0
  0
LINE
  5
E5A
  8
TITLE
 10
149.0448056760531
 20
34.290664364088187
 30
0.0
 11
150.15459893827079
 21
35.400457626305773
 31
0.0
  0
LINE
  5
E5B
  8
TITLE
 10
149.13209054870009
 20
34.290664364088187
 30
0.0
 11
150.24188381091821
 21
35.400457626305773
 31
0.0
  0
LINE
  5
E5C
  8
TITLE
 10
149.21937542134771
 20
34.290664364088187
 30
0.0
 11
150.3291686835579
 21
35.400457626305773
 31
0.0
  0
LINE
  5
E5D
  8
TITLE
 10
149.30666029399441
 20
34.290664364088187
 30
0.0
 11
150.41645355620511
 21
35.400457626305773
 31
0.0
  0
LINE
  5
E5E
  8
TITLE
 10
150.17950902045911
 20
34.290664364088187
 30
0.0
 11
151.28930228266921
 21
35.400457626305773
 31
0.0
  0
LINE
  5
E5F
  8
TITLE
 10
150.2667938931059
 20
34.290664364088187
 30
0.0
 11
151.37658715531671
 21
35.400457626305773
 31
0.0
  0
LINE
  5
E60
  8
TITLE
 10
149.39394516664149
 20
34.290664364088187
 30
0.0
 11
150.5037384288521
 21
35.400457626305773
 31
0.0
  0
LINE
  5
E61
  8
TITLE
 10
149.4812300392887
 20
34.290664364088187
 30
0.0
 11
150.5910233014996
 21
35.400457626305773
 31
0.0
  0
LINE
  5
E62
  8
TITLE
 10
149.5685149119289
 20
34.290664364088187
 30
0.0
 11
150.67830817414651
 21
35.400457626305773
 31
0.0
  0
LINE
  5
E63
  8
TITLE
 10
149.655799784576
 20
34.290664364088187
 30
0.0
 11
150.76559304679361
 21
35.400457626305773
 31
0.0
  0
LINE
  5
E64
  8
TITLE
 10
149.74308465722271
 20
34.290664364088187
 30
0.0
 11
150.852877919441
 21
35.400457626305773
 31
0.0
  0
LINE
  5
E65
  8
TITLE
 10
149.8303695298701
 20
34.290664364088187
 30
0.0
 11
150.9401627920879
 21
35.400457626305773
 31
0.0
  0
LINE
  5
E66
  8
TITLE
 10
149.9176544025172
 20
34.290664364088187
 30
0.0
 11
151.02744766473501
 21
35.400457626305773
 31
0.0
  0
LINE
  5
E67
  8
TITLE
 10
150.00493927516459
 20
34.290664364088187
 30
0.0
 11
151.11473253738259
 21
35.400457626305773
 31
0.0
  0
LINE
  5
E68
  8
TITLE
 10
150.09222414781149
 20
34.290664364088187
 30
0.0
 11
151.20201741002211
 21
35.400457626305773
 31
0.0
  0
LINE
  5
E69
  8
TITLE
 10
148.7357732319291
 20
37.647596571116452
 30
0.0
 11
150.67440643494339
 21
39.586229774130203
 31
0.0
  0
LINE
  5
E6A
  8
TITLE
 10
148.68989491085051
 20
37.51443337739012
 30
0.0
 11
150.628528113865
 21
39.453066580404737
 31
0.0
  0
LINE
  5
E6B
  8
TITLE
 10
148.64401658977161
 20
37.38127018366491
 30
0.0
 11
150.5826497927861
 21
39.319903386678789
 31
0.0
  0
LINE
  5
E6C
  8
TITLE
 10
148.5981382686937
 20
37.248106989942613
 30
0.0
 11
150.5367714717076
 21
39.186740192953039
 31
0.0
  0
LINE
  5
E6D
  8
TITLE
 10
148.55225994761469
 20
37.114943796220047
 30
0.0
 11
150.49089315062901
 21
39.053576999227133
 31
0.0
  0
LINE
  5
E6E
  8
TITLE
 10
148.50638162653621
 20
36.981780602494439
 30
0.0
 11
150.44501482955019
 21
38.920413805505291
 31
0.0
  0
LINE
  5
E6F
  8
TITLE
 10
154.48167051593489
 20
39.029250222799931
 30
0.0
 11
155.30770854449321
 21
39.855288251358182
 31
0.0
  0
LINE
  5
E70
  8
TITLE
 10
154.568955388582
 20
39.029250222799931
 30
0.0
 11
155.39499341714051
 21
39.855288251358182
 31
0.0
  0
LINE
  5
E71
  8
TITLE
 10
154.65624026122899
 20
39.029250222799931
 30
0.0
 11
155.48227828978759
 21
39.855288251358182
 31
0.0
  0
LINE
  5
E72
  8
TITLE
 10
154.74352513387609
 20
39.029250222799931
 30
0.0
 11
155.56956316243449
 21
39.855288251358182
 31
0.0
  0
LINE
  5
E73
  8
TITLE
 10
154.83081000652339
 20
39.029250222799931
 30
0.0
 11
155.65684803508211
 21
39.855288251358182
 31
0.0
  0
LINE
  5
E74
  8
TITLE
 10
154.9180948791705
 20
39.029250222799931
 30
0.0
 11
155.7441329077289
 21
39.855288251358182
 31
0.0
  0
LINE
  5
E75
  8
TITLE
 10
155.0053797518178
 20
39.029250222799931
 30
0.0
 11
155.83141778037589
 21
39.855288251358182
 31
0.0
  0
LINE
  5
E76
  8
TITLE
 10
155.0926646244649
 20
39.029250222799931
 30
0.0
 11
155.91870265301591
 21
39.855288251358182
 31
0.0
  0
LINE
  5
E77
  8
TITLE
 10
155.1799494971049
 20
39.029250222799931
 30
0.0
 11
156.00598752566319
 21
39.855288251358182
 31
0.0
  0
LINE
  5
E78
  8
TITLE
 10
155.26723436975209
 20
39.029250222799931
 30
0.0
 11
156.0932723983106
 21
39.855288251358182
 31
0.0
  0
LINE
  5
E79
  8
TITLE
 10
155.35451924239919
 20
39.029250222799931
 30
0.0
 11
156.18055727095759
 21
39.855288251358182
 31
0.0
  0
LINE
  5
E7A
  8
TITLE
 10
155.44180411504641
 20
39.029250222799931
 30
0.0
 11
156.26784214360489
 21
39.855288251358182
 31
0.0
  0
LINE
  5
E7B
  8
TITLE
 10
155.5290889876934
 20
39.029250222799931
 30
0.0
 11
156.35512701625171
 21
39.855288251358182
 31
0.0
  0
LINE
  5
E7C
  8
TITLE
 10
155.61637386034079
 20
39.029250222799931
 30
0.0
 11
156.4424118888991
 21
39.855288251358182
 31
0.0
  0
LINE
  5
E7D
  8
TITLE
 10
155.703658732988
 20
39.029250222799931
 30
0.0
 11
156.52969676154629
 21
39.855288251358182
 31
0.0
  0
LINE
  5
E7E
  8
TITLE
 10
155.79094360563499
 20
39.029250222799931
 30
0.0
 11
156.61698163419339
 21
39.855288251358182
 31
0.0
  0
LINE
  5
E7F
  8
TITLE
 10
154.45646778013341
 20
34.290664364088187
 30
0.0
 11
155.30889984349631
 21
35.143096427454772
 31
0.0
  0
LINE
  5
E80
  8
TITLE
 10
154.54375265278071
 20
34.290664364088187
 30
0.0
 11
155.39618471614341
 21
35.143096427454772
 31
0.0
  0
LINE
  5
E81
  8
TITLE
 10
154.6310375254281
 20
34.290664364088187
 30
0.0
 11
155.48346958879091
 21
35.143096427454772
 31
0.0
  0
LINE
  5
E82
  8
TITLE
 10
154.718322398075
 20
34.290664364088187
 30
0.0
 11
155.5707544614379
 21
35.143096427454772
 31
0.0
  0
LINE
  5
E83
  8
TITLE
 10
154.80560727072191
 20
34.290664364088187
 30
0.0
 11
155.6580393340848
 21
35.143096427454772
 31
0.0
  0
LINE
  5
E84
  8
TITLE
 10
154.89289214336921
 20
34.290664364088187
 30
0.0
 11
155.74532420673199
 21
35.143096427454772
 31
0.0
  0
LINE
  5
E85
  8
TITLE
 10
154.98017701600901
 20
34.290664364088187
 30
0.0
 11
155.83260907937981
 21
35.143096427454772
 31
0.0
  0
LINE
  5
E86
  8
TITLE
 10
155.06746188865651
 20
34.290664364088187
 30
0.0
 11
155.91989395202651
 21
35.143096427454772
 31
0.0
  0
LINE
  5
E87
  8
TITLE
 10
155.15474676130381
 20
34.290664364088187
 30
0.0
 11
156.00717882467359
 21
35.143096427454772
 31
0.0
  0
LINE
  5
E88
  8
TITLE
 10
155.24203163395089
 20
34.290664364088187
 30
0.0
 11
156.094463697321
 21
35.143096427454772
 31
0.0
  0
LINE
  5
E89
  8
TITLE
 10
155.32931650659771
 20
34.290664364088187
 30
0.0
 11
156.1817485699608
 21
35.143096427454772
 31
0.0
  0
LINE
  5
E8A
  8
TITLE
 10
154.20383223845741
 20
39.624260671786772
 30
0.0
 11
154.43485981802871
 21
39.855288251358182
 31
0.0
  0
LINE
  5
E8B
  8
TITLE
 10
154.20383223845741
 20
39.798830417077603
 30
0.0
 11
154.26029007273439
 21
39.855288251358182
 31
0.0
  0
LINE
  5
E8C
  8
TITLE
 10
154.20383223845741
 20
39.711545544430749
 30
0.0
 11
154.34757494538161
 21
39.855288251358182
 31
0.0
  0
LINE
  5
E8D
  8
TITLE
 10
154.02607942946861
 20
34.820409612534448
 30
0.0
 11
154.34876624438471
 21
35.143096427454772
 31
0.0
  0
LINE
  5
E8E
  8
TITLE
 10
154.02607942946861
 20
34.733124739887458
 30
0.0
 11
154.4360511170317
 21
35.143096427454772
 31
0.0
  0
LINE
  5
E8F
  8
TITLE
 10
154.02607942946861
 20
34.907694485181743
 30
0.0
 11
154.2614813717376
 21
35.143096427454772
 31
0.0
  0
LINE
  5
E90
  8
TITLE
 10
152.62348545455771
 20
34.290664364088187
 30
0.0
 11
153.35727371562419
 21
35.024452625154858
 31
0.0
  0
LINE
  5
E91
  8
TITLE
 10
152.7107703272049
 20
34.290664364088187
 30
0.0
 11
153.373454459111
 21
34.953348495994049
 31
0.0
  0
LINE
  5
E92
  8
TITLE
 10
152.79805519985189
 20
34.290664364088187
 30
0.0
 11
153.38963520259699
 21
34.882244366833362
 31
0.0
  0
LINE
  5
E93
  8
TITLE
 10
152.8853400724991
 20
34.290664364088187
 30
0.0
 11
153.40581594608341
 21
34.811140237672831
 31
0.0
  0
LINE
  5
E94
  8
TITLE
 10
152.97262494514629
 20
34.290664364088187
 30
0.0
 11
153.42199668956971
 21
34.740036108511887
 31
0.0
  0
LINE
  5
E95
  8
TITLE
 10
153.05990981779351
 20
34.290664364088187
 30
0.0
 11
153.43817743304959
 21
34.668931979350951
 31
0.0
  0
LINE
  5
E96
  8
TITLE
 10
153.14719469043351
 20
34.290664364088187
 30
0.0
 11
153.45435817653549
 21
34.597827850190129
 31
0.0
  0
LINE
  5
E97
  8
TITLE
 10
153.2344795630807
 20
34.290664364088187
 30
0.0
 11
153.47053892002219
 21
34.526723721029441
 31
0.0
  0
LINE
  5
E98
  8
TITLE
 10
153.3217644357276
 20
34.290664364088187
 30
0.0
 11
153.4867196635085
 21
34.45561959186891
 31
0.0
  0
LINE
  5
E99
  8
TITLE
 10
153.40904930837479
 20
34.290664364088187
 30
0.0
 11
153.5029004069946
 21
34.38451546270808
 31
0.0
  0
LINE
  5
E9A
  8
TITLE
 10
153.49633418102189
 20
34.290664364088187
 30
0.0
 11
153.5190811504809
 21
34.313411333547151
 31
0.0
  0
LINE
  5
E9B
  8
TITLE
 10
154.02607942946861
 20
35.08226423047283
 30
0.0
 11
154.0869116264509
 21
35.143096427454772
 31
0.0
  0
LINE
  5
E9C
  8
TITLE
 10
154.02607942946861
 20
34.994979357828903
 30
0.0
 11
154.17419649909769
 21
35.143096427454772
 31
0.0
  0
LINE
  5
E9D
  8
TITLE
 10
154.10732828954471
 20
34.290664364088187
 30
0.0
 11
154.95976035291511
 21
35.143096427454772
 31
0.0
  0
LINE
  5
E9E
  8
TITLE
 10
154.1946131621919
 20
34.290664364088187
 30
0.0
 11
155.04704522556199
 21
35.143096427454772
 31
0.0
  0
LINE
  5
E9F
  8
TITLE
 10
154.281898034839
 20
34.290664364088187
 30
0.0
 11
155.1343300982092
 21
35.143096427454772
 31
0.0
  0
LINE
  5
EA0
  8
TITLE
 10
154.3691829074865
 20
34.290664364088187
 30
0.0
 11
155.2216149708492
 21
35.143096427454772
 31
0.0
  0
LINE
  5
EA1
  8
TITLE
 10
154.02607942946861
 20
34.296700376655259
 30
0.0
 11
154.87247548026789
 21
35.143096427454772
 31
0.0
  0
LINE
  5
EA2
  8
TITLE
 10
154.02607942946861
 20
34.64583986724017
 30
0.0
 11
154.5233359896792
 21
35.143096427454772
 31
0.0
  0
LINE
  5
EA3
  8
TITLE
 10
154.02607942946861
 20
34.558554994593059
 30
0.0
 11
154.61062086232619
 21
35.143096427454772
 31
0.0
  0
LINE
  5
EA4
  8
TITLE
 10
154.02607942946861
 20
34.471270121945892
 30
0.0
 11
154.69790573497349
 21
35.143096427454772
 31
0.0
  0
LINE
  5
EA5
  8
TITLE
 10
154.02607942946861
 20
34.383985249299187
 30
0.0
 11
154.78519060762079
 21
35.143096427454772
 31
0.0
  0
LINE
  5
EA6
  8
TITLE
 10
154.20383223845741
 20
39.18783630855107
 30
0.0
 11
154.87128418126491
 21
39.855288251358182
 31
0.0
  0
LINE
  5
EA7
  8
TITLE
 10
154.20383223845741
 20
39.10055143590381
 30
0.0
 11
154.95856905390471
 21
39.855288251358182
 31
0.0
  0
LINE
  5
EA8
  8
TITLE
 10
154.21981589800041
 20
39.029250222799931
 30
0.0
 11
155.0458539265517
 21
39.855288251358182
 31
0.0
  0
LINE
  5
EA9
  8
TITLE
 10
154.3071007706406
 20
39.029250222799931
 30
0.0
 11
155.1331387991988
 21
39.855288251358182
 31
0.0
  0
LINE
  5
EAA
  8
TITLE
 10
154.39438564328771
 20
39.029250222799931
 30
0.0
 11
155.22042367184599
 21
39.855288251358182
 31
0.0
  0
LINE
  5
EAB
  8
TITLE
 10
154.20383223845741
 20
39.536975799139917
 30
0.0
 11
154.5221446906757
 21
39.855288251358182
 31
0.0
  0
LINE
  5
EAC
  8
TITLE
 10
154.20383223845741
 20
39.449690926492508
 30
0.0
 11
154.60942956332289
 21
39.855288251358182
 31
0.0
  0
LINE
  5
EAD
  8
TITLE
 10
154.20383223845741
 20
39.36240605384539
 30
0.0
 11
154.69671443597011
 21
39.855288251358182
 31
0.0
  0
LINE
  5
EAE
  8
TITLE
 10
154.20383223845741
 20
39.27512118119823
 30
0.0
 11
154.78399930861761
 21
39.855288251358182
 31
0.0
  0
LINE
  5
EB0
  8
TITLE
 10
164.60189006294689
 20
38.762569924883309
 30
0.0
 11
165.25403524673169
 21
39.414715108664687
 31
0.0
  0
LINE
  5
EB1
  8
TITLE
 10
164.68917493559391
 20
38.762569924883309
 30
0.0
 11
165.34132011937891
 21
39.414715108664687
 31
0.0
  0
LINE
  5
EB2
  8
TITLE
 10
164.77645980824099
 20
38.762569924883309
 30
0.0
 11
165.4286049920189
 21
39.414715108664687
 31
0.0
  0
LINE
  5
EB3
  8
TITLE
 10
164.863744680888
 20
38.762569924883309
 30
0.0
 11
165.51588986466601
 21
39.414715108664687
 31
0.0
  0
LINE
  5
EB4
  8
TITLE
 10
163.3487747902459
 20
37.771309270119687
 30
0.0
 11
164.99218062879041
 21
39.414715108664687
 31
0.0
  0
LINE
  5
EB5
  8
TITLE
 10
163.4360596628928
 20
37.771309270119687
 30
0.0
 11
165.07946550143731
 21
39.414715108664687
 31
0.0
  0
LINE
  5
EB6
  8
TITLE
 10
163.52334453553999
 20
37.771309270119687
 30
0.0
 11
165.16675037408459
 21
39.414715108664687
 31
0.0
  0
LINE
  5
EB7
  8
TITLE
 10
163.69215575805859
 20
38.463829728521283
 30
0.0
 11
165.08361428089589
 21
39.855288251358182
 31
0.0
  0
LINE
  5
EB8
  8
TITLE
 10
163.67029956391701
 20
38.354688661725248
 30
0.0
 11
165.16383407136101
 21
39.848223169176677
 31
0.0
  0
LINE
  5
EB9
  8
TITLE
 10
163.7358681463557
 20
38.682111862105842
 30
0.0
 11
164.90904453560859
 21
39.855288251358182
 31
0.0
  0
LINE
  5
EBA
  8
TITLE
 10
163.7140119522067
 20
38.572970795313182
 30
0.0
 11
164.99632940824841
 21
39.855288251358182
 31
0.0
  0
LINE
  5
EBB
  8
TITLE
 10
164.3961932620042
 20
37.771309270119687
 30
0.0
 11
164.97008104831551
 21
38.34519705643126
 31
0.0
  0
LINE
  5
EBC
  8
TITLE
 10
164.4834781346444
 20
37.771309270119687
 30
0.0
 11
165.05736592095559
 21
38.34519705643126
 31
0.0
  0
LINE
  5
EBD
  8
TITLE
 10
164.57076300729159
 20
37.771309270119687
 30
0.0
 11
165.14465079360281
 21
38.34519705643126
 31
0.0
  0
LINE
  5
EBE
  8
TITLE
 10
164.65804787993849
 20
37.771309270119687
 30
0.0
 11
165.23193566624991
 21
38.34519705643126
 31
0.0
  0
LINE
  5
EBF
  8
TITLE
 10
164.74533275258571
 20
37.771309270119687
 30
0.0
 11
165.31922053889701
 21
38.34519705643126
 31
0.0
  0
LINE
  5
EC0
  8
TITLE
 10
164.83261762523281
 20
37.771309270119687
 30
0.0
 11
165.40650541154389
 21
38.34519705643126
 31
0.0
  0
LINE
  5
EC1
  8
TITLE
 10
164.4212240233407
 20
35.788787960585822
 30
0.0
 11
164.9168542892628
 21
36.284418226511491
 31
0.0
  0
LINE
  5
EC2
  8
TITLE
 10
164.5085088959878
 20
35.788787960585822
 30
0.0
 11
165.00413916190951
 21
36.284418226511491
 31
0.0
  0
LINE
  5
EC3
  8
TITLE
 10
164.59579376863491
 20
35.788787960585822
 30
0.0
 11
165.09142403455681
 21
36.284418226511491
 31
0.0
  0
LINE
  5
EC4
  8
TITLE
 10
164.6830786412819
 20
35.788787960585822
 30
0.0
 11
165.17870890720411
 21
36.284418226511491
 31
0.0
  0
LINE
  5
EC5
  8
TITLE
 10
164.7703635139292
 20
35.788787960585822
 30
0.0
 11
165.26599377985099
 21
36.284418226511491
 31
0.0
  0
LINE
  5
EC6
  8
TITLE
 10
164.857648386569
 20
35.788787960585822
 30
0.0
 11
165.3532786524986
 21
36.284418226511491
 31
0.0
  0
LINE
  5
EC7
  8
TITLE
 10
164.41159364817
 20
34.557169368366353
 30
0.0
 11
164.9422146894897
 21
35.087790409689212
 31
0.0
  0
LINE
  5
EC8
  8
TITLE
 10
164.47055972195551
 20
34.528850569507952
 30
0.0
 11
165.00300379344611
 21
35.061294640994191
 31
0.0
  0
LINE
  5
EC9
  8
TITLE
 10
164.5307945472309
 20
34.501800522135909
 30
0.0
 11
165.06680093899061
 21
35.037806913895807
 31
0.0
  0
LINE
  5
ECA
  8
TITLE
 10
164.59233599182861
 20
34.47605709408311
 30
0.0
 11
165.1338636951977
 21
35.017584797455243
 31
0.0
  0
LINE
  5
ECB
  8
TITLE
 10
164.6552266159689
 20
34.451662845583968
 30
0.0
 11
165.2045299025653
 21
35.000966132176323
 31
0.0
  0
LINE
  5
ECC
  8
TITLE
 10
164.71951427805249
 20
34.428665635016131
 30
0.0
 11
165.27925029849999
 21
34.988401655463861
 31
0.0
  0
LINE
  5
ECD
  8
TITLE
 10
164.78525286217351
 20
34.407119346489822
 30
0.0
 11
165.3586420420304
 21
34.980508526347151
 31
0.0
  0
LINE
  5
ECE
  8
TITLE
 10
164.85250315731301
 20
34.387084768982461
 30
0.0
 11
165.4435820726035
 21
34.978163684272758
 31
0.0
  0
LINE
  5
ECF
  8
TITLE
 10
164.4262653208099
 20
36.75396285716694
 30
0.0
 11
164.94798146783401
 21
37.275679004194131
 31
0.0
  0
LINE
  5
ED0
  8
TITLE
 10
164.51355019345709
 20
36.75396285716694
 30
0.0
 11
165.035266340481
 21
37.275679004194131
 31
0.0
  0
LINE
  5
ED1
  8
TITLE
 10
164.60083506610459
 20
36.75396285716694
 30
0.0
 11
165.12255121312819
 21
37.275679004194131
 31
0.0
  0
LINE
  5
ED2
  8
TITLE
 10
164.6881199387517
 20
36.75396285716694
 30
0.0
 11
165.20983608577521
 21
37.275679004194131
 31
0.0
  0
LINE
  5
ED3
  8
TITLE
 10
164.77540481139889
 20
36.75396285716694
 30
0.0
 11
165.29712095842271
 21
37.275679004194131
 31
0.0
  0
LINE
  5
ED4
  8
TITLE
 10
164.86268968403891
 20
36.75396285716694
 30
0.0
 11
165.3844058310695
 21
37.275679004194131
 31
0.0
  0
LINE
  5
ED5
  8
TITLE
 10
162.15685863199849
 20
36.75396285716694
 30
0.0
 11
165.08605933516239
 21
39.683163560327252
 31
0.0
  0
LINE
  5
ED6
  8
TITLE
 10
162.24414350464571
 20
36.75396285716694
 30
0.0
 11
165.008284598957
 21
39.51810395147843
 31
0.0
  0
LINE
  5
ED7
  8
TITLE
 10
160.15036155797799
 20
38.762569924883309
 30
0.0
 11
161.2381270483875
 21
39.850335415292847
 31
0.0
  0
LINE
  5
ED8
  8
TITLE
 10
160.23764643062489
 20
38.762569924883309
 30
0.0
 11
161.2660825583207
 21
39.79100605257554
 31
0.0
  0
LINE
  5
ED9
  8
TITLE
 10
160.32493130327219
 20
38.762569924883309
 30
0.0
 11
161.2940380682472
 21
39.7316766898618
 31
0.0
  0
LINE
  5
EDA
  8
TITLE
 10
160.41221617591921
 20
38.762569924883309
 30
0.0
 11
161.32199357818041
 21
39.672347327144422
 31
0.0
  0
LINE
  5
EDB
  8
TITLE
 10
160.4995010485664
 20
38.762569924883309
 30
0.0
 11
161.34994908810691
 21
39.613017964427002
 31
0.0
  0
LINE
  5
EDC
  8
TITLE
 10
160.58678592120631
 20
38.762569924883309
 30
0.0
 11
161.37790459804049
 21
39.55368860171339
 31
0.0
  0
LINE
  5
EDD
  8
TITLE
 10
160.67407079385379
 20
38.762569924883309
 30
0.0
 11
161.40586010797369
 21
39.494359239000083
 31
0.0
  0
LINE
  5
EDE
  8
TITLE
 10
160.76135566650089
 20
38.762569924883309
 30
0.0
 11
161.4338156179
 21
39.435029876278911
 31
0.0
  0
LINE
  5
EDF
  8
TITLE
 10
160.73022861085249
 20
37.771309270119687
 30
0.0
 11
162.48600672380269
 21
39.52708738306962
 31
0.0
  0
LINE
  5
EE0
  8
TITLE
 10
160.29380424761681
 20
37.771309270119687
 30
0.0
 11
160.86769203392839
 21
38.34519705643126
 31
0.0
  0
LINE
  5
EE1
  8
TITLE
 10
160.38108912026399
 20
37.771309270119687
 30
0.0
 11
160.95497690657521
 21
38.34519705643126
 31
0.0
  0
LINE
  5
EE2
  8
TITLE
 10
160.46837399291101
 20
37.771309270119687
 30
0.0
 11
161.0422617792226
 21
38.34519705643126
 31
0.0
  0
LINE
  5
EE3
  8
TITLE
 10
160.5556588655582
 20
37.771309270119687
 30
0.0
 11
161.1295466518697
 21
38.34519705643126
 31
0.0
  0
LINE
  5
EE4
  8
TITLE
 10
160.64294373820559
 20
37.771309270119687
 30
0.0
 11
161.21683152451661
 21
38.34519705643126
 31
0.0
  0
LINE
  5
EE5
  8
TITLE
 10
160.61614987812899
 20
39.664782608266712
 30
0.0
 11
160.8066555212211
 21
39.855288251358182
 31
0.0
  0
LINE
  5
EE6
  8
TITLE
 10
160.64410538805521
 20
39.605453245545853
 30
0.0
 11
160.89394039386801
 21
39.855288251358182
 31
0.0
  0
LINE
  5
EE7
  8
TITLE
 10
160.6720608979887
 20
39.546123882831893
 30
0.0
 11
160.98122526651511
 21
39.855288251358182
 31
0.0
  0
LINE
  5
EE8
  8
TITLE
 10
160.700016407915
 20
39.486794520118018
 30
0.0
 11
161.06851013916221
 21
39.855288251358182
 31
0.0
  0
LINE
  5
EE9
  8
TITLE
 10
160.72797191784861
 20
39.427465157397108
 30
0.0
 11
161.15579501180949
 21
39.855288251358182
 31
0.0
  0
LINE
  5
EEA
  8
TITLE
 10
160.12998434505269
 20
34.290664206992837
 30
0.0
 11
162.1237383645751
 21
36.284418226511491
 31
0.0
  0
LINE
  5
EEB
  8
TITLE
 10
160.2178847076257
 20
34.29127969691082
 30
0.0
 11
162.21102323722221
 21
36.284418226511491
 31
0.0
  0
LINE
  5
EEC
  8
TITLE
 10
160.3094904118019
 20
34.295600528440147
 30
0.0
 11
162.29830810986951
 21
36.284418226511491
 31
0.0
  0
LINE
  5
EED
  8
TITLE
 10
160.40476624130369
 20
34.303591485298583
 30
0.0
 11
162.3855929825167
 21
36.284418226511491
 31
0.0
  0
LINE
  5
EEE
  8
TITLE
 10
160.31883500895299
 20
35.788787960585822
 30
0.0
 11
160.81446527488211
 21
36.284418226511491
 31
0.0
  0
LINE
  5
EEF
  8
TITLE
 10
160.4061198816002
 20
35.788787960585822
 30
0.0
 11
160.90175014752941
 21
36.284418226511491
 31
0.0
  0
LINE
  5
EF0
  8
TITLE
 10
160.49340475424751
 20
35.788787960585822
 30
0.0
 11
160.9890350201695
 21
36.284418226511491
 31
0.0
  0
LINE
  5
EF1
  8
TITLE
 10
160.58068962689461
 20
35.788787960585822
 30
0.0
 11
161.07631989281691
 21
36.284418226511491
 31
0.0
  0
LINE
  5
EF2
  8
TITLE
 10
160.66797449954171
 20
35.788787960585822
 30
0.0
 11
161.1636047654637
 21
36.284418226511491
 31
0.0
  0
LINE
  5
EF3
  8
TITLE
 10
160.75525937218879
 20
35.788787960585822
 30
0.0
 11
161.250889638111
 21
36.284418226511491
 31
0.0
  0
LINE
  5
EF4
  8
TITLE
 10
160.04269959145589
 20
34.290664326043057
 30
0.0
 11
160.9916490559319
 21
35.239613790511392
 31
0.0
  0
LINE
  5
EF5
  8
TITLE
 10
160.3238763064227
 20
36.75396285716694
 30
0.0
 11
160.84559245345349
 21
37.275679004194131
 31
0.0
  0
LINE
  5
EF6
  8
TITLE
 10
160.41116117906969
 20
36.75396285716694
 30
0.0
 11
160.93287732610071
 21
37.275679004194131
 31
0.0
  0
LINE
  5
EF7
  8
TITLE
 10
160.498446051717
 20
36.75396285716694
 30
0.0
 11
161.02016219874071
 21
37.275679004194131
 31
0.0
  0
LINE
  5
EF8
  8
TITLE
 10
160.58573092436399
 20
36.75396285716694
 30
0.0
 11
161.10744707138741
 21
37.275679004194131
 31
0.0
  0
LINE
  5
EF9
  8
TITLE
 10
160.67301579701109
 20
36.75396285716694
 30
0.0
 11
161.194731944035
 21
37.275679004194131
 31
0.0
  0
LINE
  5
EFA
  8
TITLE
 10
160.76030066965819
 20
36.75396285716694
 30
0.0
 11
161.28201681668219
 21
37.275679004194131
 31
0.0
  0
LINE
  5
EFB
  8
TITLE
 10
160.50423453726199
 20
34.315774908609647
 30
0.0
 11
163.46413863284661
 21
37.275679004194131
 31
0.0
  0
LINE
  5
EFC
  8
TITLE
 10
160.60857848272479
 20
34.332833981428458
 30
0.0
 11
163.5514235054936
 21
37.275679004194131
 31
0.0
  0
LINE
  5
EFD
  8
TITLE
 10
160.718721629127
 20
34.355692255183847
 30
0.0
 11
163.63870837814079
 21
37.275679004194131
 31
0.0
  0
LINE
  5
EFE
  8
TITLE
 10
160.01480379454659
 20
38.976151652037402
 30
0.0
 11
160.45336725117451
 21
39.414715108664687
 31
0.0
  0
LINE
  5
EFF
  8
TITLE
 10
160.01480379454659
 20
38.888866779390099
 30
0.0
 11
160.54065212382099
 21
39.414715108664687
 31
0.0
  0
LINE
  5
F00
  8
TITLE
 10
160.01480379454659
 20
38.801581906742648
 30
0.0
 11
160.62793699646869
 21
39.414715108664687
 31
0.0
  0
LINE
  5
F01
  8
TITLE
 10
160.06307668533071
 20
38.762569924883309
 30
0.0
 11
160.71522186911571
 21
39.414715108664687
 31
0.0
  0
LINE
  5
F02
  8
TITLE
 10
160.19255660353571
 20
38.019201116620408
 30
0.0
 11
160.51855254333969
 21
38.34519705643126
 31
0.0
  0
LINE
  5
F03
  8
TITLE
 10
160.19255660353571
 20
37.931916243973149
 30
0.0
 11
160.60583741598671
 21
38.34519705643126
 31
0.0
  0
LINE
  5
F04
  8
TITLE
 10
160.19255660353571
 20
37.844631371326258
 30
0.0
 11
160.6931222886339
 21
38.34519705643126
 31
0.0
  0
LINE
  5
F05
  8
TITLE
 10
160.20651937496939
 20
37.771309270119687
 30
0.0
 11
160.78040716128089
 21
38.34519705643126
 31
0.0
  0
LINE
  5
F06
  8
TITLE
 10
160.19255660353571
 20
38.106485989267561
 30
0.0
 11
160.43126767069231
 21
38.34519705643126
 31
0.0
  0
LINE
  5
F07
  8
TITLE
 10
160.19255660353571
 20
38.281055734561839
 30
0.0
 11
160.25669792540521
 21
38.34519705643126
 31
0.0
  0
LINE
  5
F08
  8
TITLE
 10
160.19255660353571
 20
38.19377086191453
 30
0.0
 11
160.34398279805251
 21
38.34519705643126
 31
0.0
  0
LINE
  5
F09
  8
TITLE
 10
158.58405953032269
 20
39.029250222799931
 30
0.0
 11
159.30611452061501
 21
39.751305213092451
 31
0.0
  0
LINE
  5
F0A
  8
TITLE
 10
158.67134440296959
 20
39.029250222799931
 30
0.0
 11
159.30611452061501
 21
39.664020340445148
 31
0.0
  0
LINE
  5
F0B
  8
TITLE
 10
158.7586292756169
 20
39.029250222799931
 30
0.0
 11
159.30611452061501
 21
39.576735467801662
 31
0.0
  0
LINE
  5
F0C
  8
TITLE
 10
158.84591414825641
 20
39.029250222799931
 30
0.0
 11
159.30611452061501
 21
39.489450595154238
 31
0.0
  0
LINE
  5
F0D
  8
TITLE
 10
158.93319902090369
 20
39.029250222799931
 30
0.0
 11
159.30611452061501
 21
39.402165722507078
 31
0.0
  0
LINE
  5
F0E
  8
TITLE
 10
159.02048389355099
 20
39.029250222799931
 30
0.0
 11
159.30611452061501
 21
39.314880849863727
 31
0.0
  0
LINE
  5
F0F
  8
TITLE
 10
159.10776876619801
 20
39.029250222799931
 30
0.0
 11
159.30611452061501
 21
39.2275959772169
 31
0.0
  0
LINE
  5
F10
  8
TITLE
 10
160.01480379454659
 20
39.063436524684221
 30
0.0
 11
160.36608237852701
 21
39.414715108664687
 31
0.0
  0
LINE
  5
F11
  8
TITLE
 10
159.19505363884531
 20
39.029250222799931
 30
0.0
 11
159.30611452061501
 21
39.140311104569598
 31
0.0
  0
LINE
  5
F12
  8
TITLE
 10
159.28233851149261
 20
39.029250222799931
 30
0.0
 11
159.30611452061501
 21
39.053026231922757
 31
0.0
  0
LINE
  5
F13
  8
TITLE
 10
160.01480379454659
 20
39.412576015269451
 30
0.0
 11
160.0169428879384
 21
39.414715108664687
 31
0.0
  0
LINE
  5
F14
  8
TITLE
 10
160.01480379454659
 20
39.325291142622177
 30
0.0
 11
160.1042277605857
 21
39.414715108664687
 31
0.0
  0
LINE
  5
F15
  8
TITLE
 10
160.01480379454659
 20
39.238006269974903
 30
0.0
 11
160.19151263323269
 21
39.414715108664687
 31
0.0
  0
LINE
  5
F16
  8
TITLE
 10
160.01480379454659
 20
39.150721397331537
 30
0.0
 11
160.27879750587991
 21
39.414715108664687
 31
0.0
  0
LINE
  5
F17
  8
TITLE
 10
160.53228334833571
 20
39.842770696411208
 30
0.0
 11
160.54480090327951
 21
39.855288251358182
 31
0.0
  0
LINE
  5
F18
  8
TITLE
 10
160.5602388582692
 20
39.783441333693801
 30
0.0
 11
160.63208577592661
 21
39.855288251358182
 31
0.0
  0
LINE
  5
F19
  8
TITLE
 10
160.58819436819539
 20
39.724111970980182
 30
0.0
 11
160.7193706485736
 21
39.855288251358182
 31
0.0
  0
LINE
  5
F1A
  8
TITLE
 10
157.27478644062239
 20
39.029250222799931
 30
0.0
 11
158.10082446918051
 21
39.855288251358182
 31
0.0
  0
LINE
  5
F1B
  8
TITLE
 10
157.36207131326961
 20
39.029250222799931
 30
0.0
 11
158.18810934182801
 21
39.855288251358182
 31
0.0
  0
LINE
  5
F1C
  8
TITLE
 10
157.44935618591651
 20
39.029250222799931
 30
0.0
 11
158.27539421447489
 21
39.855288251358182
 31
0.0
  0
LINE
  5
F1D
  8
TITLE
 10
157.5366410585637
 20
39.029250222799931
 30
0.0
 11
158.36267908712199
 21
39.855288251358182
 31
0.0
  0
LINE
  5
F1E
  8
TITLE
 10
157.62392593121081
 20
39.029250222799931
 30
0.0
 11
158.44996395976921
 21
39.855288251358182
 31
0.0
  0
LINE
  5
F1F
  8
TITLE
 10
157.71121080385791
 20
39.029250222799931
 30
0.0
 11
158.53724883241659
 21
39.855288251358182
 31
0.0
  0
LINE
  5
F20
  8
TITLE
 10
158.40948978502809
 20
39.029250222799931
 30
0.0
 11
159.2355278135866
 21
39.855288251358182
 31
0.0
  0
LINE
  5
F21
  8
TITLE
 10
158.4967746576753
 20
39.029250222799931
 30
0.0
 11
159.30611452061501
 21
39.838590085739739
 31
0.0
  0
LINE
  5
F22
  8
TITLE
 10
157.7984956765049
 20
39.029250222799931
 30
0.0
 11
158.62453370505651
 21
39.855288251358182
 31
0.0
  0
LINE
  5
F23
  8
TITLE
 10
157.88578054914549
 20
39.029250222799931
 30
0.0
 11
158.7118185777035
 21
39.855288251358182
 31
0.0
  0
LINE
  5
F24
  8
TITLE
 10
157.973065421792
 20
39.029250222799931
 30
0.0
 11
158.7991034503506
 21
39.855288251358182
 31
0.0
  0
LINE
  5
F25
  8
TITLE
 10
158.0603502944395
 20
39.029250222799931
 30
0.0
 11
158.88638832299779
 21
39.855288251358182
 31
0.0
  0
LINE
  5
F26
  8
TITLE
 10
158.14763516708649
 20
39.029250222799931
 30
0.0
 11
158.97367319564489
 21
39.855288251358182
 31
0.0
  0
LINE
  5
F27
  8
TITLE
 10
158.23492003973371
 20
39.029250222799931
 30
0.0
 11
159.06095806829211
 21
39.855288251358182
 31
0.0
  0
LINE
  5
F28
  8
TITLE
 10
158.32220491238081
 20
39.029250222799931
 30
0.0
 11
159.14824294093921
 21
39.855288251358182
 31
0.0
  0
LINE
  5
F29
  8
TITLE
 10
160.01480379454659
 20
35.92118110940811
 30
0.0
 11
160.37804091164639
 21
36.284418226511491
 31
0.0
  0
LINE
  5
F2A
  8
TITLE
 10
160.01480379454659
 20
35.833896236761241
 30
0.0
 11
160.4653257842935
 21
36.284418226511491
 31
0.0
  0
LINE
  5
F2B
  8
TITLE
 10
160.0569803910189
 20
35.788787960585822
 30
0.0
 11
160.5526106569406
 21
36.284418226511491
 31
0.0
  0
LINE
  5
F2C
  8
TITLE
 10
160.14426526366611
 20
35.788787960585822
 30
0.0
 11
160.6398955295879
 21
36.284418226511491
 31
0.0
  0
LINE
  5
F2D
  8
TITLE
 10
160.23155013631319
 20
35.788787960585822
 30
0.0
 11
160.72718040223501
 21
36.284418226511491
 31
0.0
  0
LINE
  5
F2E
  8
TITLE
 10
160.01480379454659
 20
34.524623147068098
 30
0.0
 11
160.49168987092881
 21
35.001509223450441
 31
0.0
  0
LINE
  5
F2F
  8
TITLE
 10
160.01480379454659
 20
34.43733827442081
 30
0.0
 11
160.60971195709701
 21
35.032246436971228
 31
0.0
  0
LINE
  5
F30
  8
TITLE
 10
160.01480379454659
 20
34.350053401773962
 30
0.0
 11
160.75361888464741
 21
35.088868491874763
 31
0.0
  0
LINE
  5
F31
  8
TITLE
 10
158.55885679452109
 20
34.290664364088187
 30
0.0
 11
159.41128885788379
 21
35.143096427454772
 31
0.0
  0
LINE
  5
F32
  8
TITLE
 10
158.64614166716109
 20
34.290664364088187
 30
0.0
 11
159.48386732960401
 21
35.128390026527512
 31
0.0
  0
LINE
  5
F33
  8
TITLE
 10
158.73342653980819
 20
34.290664364088187
 30
0.0
 11
159.48386732960401
 21
35.04110515388021
 31
0.0
  0
LINE
  5
F34
  8
TITLE
 10
158.82071141245521
 20
34.290664364088187
 30
0.0
 11
159.48386732960401
 21
34.953820281233362
 31
0.0
  0
LINE
  5
F35
  8
TITLE
 10
160.01480379454659
 20
34.786477765006147
 30
0.0
 11
160.2076590933637
 21
34.979333063826658
 31
0.0
  0
LINE
  5
F36
  8
TITLE
 10
160.01480379454659
 20
34.699192892358873
 30
0.0
 11
160.29421345776399
 21
34.978602555579442
 31
0.0
  0
LINE
  5
F37
  8
TITLE
 10
160.01480379454659
 20
34.611908019715223
 30
0.0
 11
160.38807530412589
 21
34.985179529294442
 31
0.0
  0
LINE
  5
F38
  8
TITLE
 10
160.01480379454659
 20
34.873762637653023
 30
0.0
 11
160.1211690158423
 21
34.980127858948741
 31
0.0
  0
LINE
  5
F39
  8
TITLE
 10
158.90799628510251
 20
34.290664364088187
 30
0.0
 11
159.48386732960401
 21
34.866535408589712
 31
0.0
  0
LINE
  5
F3A
  8
TITLE
 10
158.99528115774979
 20
34.290664364088187
 30
0.0
 11
159.48386732960401
 21
34.779250535942467
 31
0.0
  0
LINE
  5
F3B
  8
TITLE
 10
159.0825660303968
 20
34.290664364088187
 30
0.0
 11
159.48386732960401
 21
34.691965663295314
 31
0.0
  0
LINE
  5
F3C
  8
TITLE
 10
159.16985090304391
 20
34.290664364088187
 30
0.0
 11
159.48386732960401
 21
34.604680790648132
 31
0.0
  0
LINE
  5
F3D
  8
TITLE
 10
159.25713577569101
 20
34.290664364088187
 30
0.0
 11
159.48386732960401
 21
34.517395918001156
 31
0.0
  0
LINE
  5
F3E
  8
TITLE
 10
159.344420648338
 20
34.290664364088187
 30
0.0
 11
159.48386732960401
 21
34.430111045353847
 31
0.0
  0
LINE
  5
F3F
  8
TITLE
 10
159.43170552098579
 20
34.290664364088187
 30
0.0
 11
159.48386732960401
 21
34.342826172707163
 31
0.0
  0
LINE
  5
F40
  8
TITLE
 10
160.01480379454659
 20
34.961047510296808
 30
0.0
 11
160.033884143195
 21
34.980127858948741
 31
0.0
  0
LINE
  5
F41
  8
TITLE
 10
160.19255660353571
 20
37.059067517508829
 30
0.0
 11
160.40916809021741
 21
37.275679004194131
 31
0.0
  0
LINE
  5
F42
  8
TITLE
 10
160.19255660353571
 20
36.971782644861847
 30
0.0
 11
160.49645296286479
 21
37.275679004194131
 31
0.0
  0
LINE
  5
F43
  8
TITLE
 10
160.19255660353571
 20
36.884497772214672
 30
0.0
 11
160.58373783551221
 21
37.275679004194131
 31
0.0
  0
LINE
  5
F44
  8
TITLE
 10
160.19255660353571
 20
36.797212899570752
 30
0.0
 11
160.671022708159
 21
37.275679004194131
 31
0.0
  0
LINE
  5
F45
  8
TITLE
 10
160.23659143377569
 20
36.75396285716694
 30
0.0
 11
160.75830758080619
 21
37.275679004194131
 31
0.0
  0
LINE
  5
F46
  8
TITLE
 10
160.01480379454659
 20
36.183035727349683
 30
0.0
 11
160.11618629370491
 21
36.284418226511491
 31
0.0
  0
LINE
  5
F47
  8
TITLE
 10
160.01480379454659
 20
36.095750854702672
 30
0.0
 11
160.2034711663519
 21
36.284418226511491
 31
0.0
  0
LINE
  5
F48
  8
TITLE
 10
160.01480379454659
 20
36.008465982055213
 30
0.0
 11
160.29075603899929
 21
36.284418226511491
 31
0.0
  0
LINE
  5
F49
  8
TITLE
 10
160.01480379454659
 20
36.270320599996808
 30
0.0
 11
160.0289014210648
 21
36.284418226511491
 31
0.0
  0
LINE
  5
F4A
  8
TITLE
 10
160.19255660353571
 20
37.23363726280283
 30
0.0
 11
160.23459834492351
 21
37.275679004194131
 31
0.0
  0
LINE
  5
F4B
  8
TITLE
 10
160.19255660353571
 20
37.146352390155847
 30
0.0
 11
160.3218832175707
 21
37.275679004194131
 31
0.0
  0
LINE
  5
F4C
  8
TITLE
 10
156.72587446894499
 20
34.290664364088187
 30
0.0
 11
157.57830653230789
 21
35.143096427454772
 31
0.0
  0
LINE
  5
F4D
  8
TITLE
 10
156.81315934158499
 20
34.290664364088187
 30
0.0
 11
157.66559140495551
 21
35.143096427454772
 31
0.0
  0
LINE
  5
F4E
  8
TITLE
 10
156.90044421423221
 20
34.290664364088187
 30
0.0
 11
157.7528762776023
 21
35.143096427454772
 31
0.0
  0
LINE
  5
F4F
  8
TITLE
 10
156.9877290868796
 20
34.290664364088187
 30
0.0
 11
157.84016115024971
 21
35.143096427454772
 31
0.0
  0
LINE
  5
F50
  8
TITLE
 10
157.0750139595265
 20
34.290664364088187
 30
0.0
 11
157.9274460228898
 21
35.143096427454772
 31
0.0
  0
LINE
  5
F51
  8
TITLE
 10
157.16229883217389
 20
34.290664364088187
 30
0.0
 11
158.0147308955367
 21
35.143096427454772
 31
0.0
  0
LINE
  5
F52
  8
TITLE
 10
157.24958370482091
 20
34.290664364088187
 30
0.0
 11
158.1020157681838
 21
35.143096427454772
 31
0.0
  0
LINE
  5
F53
  8
TITLE
 10
157.33686857746801
 20
34.290664364088187
 30
0.0
 11
158.18930064083071
 21
35.143096427454772
 31
0.0
  0
LINE
  5
F54
  8
TITLE
 10
157.42415345011531
 20
34.290664364088187
 30
0.0
 11
158.27658551347821
 21
35.143096427454772
 31
0.0
  0
LINE
  5
F55
  8
TITLE
 10
157.51143832276281
 20
34.290664364088187
 30
0.0
 11
158.36387038612509
 21
35.143096427454772
 31
0.0
  0
LINE
  5
F56
  8
TITLE
 10
157.5987231954096
 20
34.290664364088187
 30
0.0
 11
158.4511552587727
 21
35.143096427454772
 31
0.0
  0
LINE
  5
F57
  8
TITLE
 10
157.6860080680496
 20
34.290664364088187
 30
0.0
 11
158.53844013141969
 21
35.143096427454772
 31
0.0
  0
LINE
  5
F58
  8
TITLE
 10
158.3842870492268
 20
34.290664364088187
 30
0.0
 11
159.23671911259001
 21
35.143096427454772
 31
0.0
  0
LINE
  5
F59
  8
TITLE
 10
158.4715719218739
 20
34.290664364088187
 30
0.0
 11
159.3240039852368
 21
35.143096427454772
 31
0.0
  0
LINE
  5
F5A
  8
TITLE
 10
157.77329294069659
 20
34.290664364088187
 30
0.0
 11
158.62572500406679
 21
35.143096427454772
 31
0.0
  0
LINE
  5
F5B
  8
TITLE
 10
157.86057781334389
 20
34.290664364088187
 30
0.0
 11
158.71300987671381
 21
35.143096427454772
 31
0.0
  0
LINE
  5
F5C
  8
TITLE
 10
157.94786268599091
 20
34.290664364088187
 30
0.0
 11
158.80029474936069
 21
35.143096427454772
 31
0.0
  0
LINE
  5
F5D
  8
TITLE
 10
158.03514755863799
 20
34.290664364088187
 30
0.0
 11
158.88757962200091
 21
35.143096427454772
 31
0.0
  0
LINE
  5
F5E
  8
TITLE
 10
158.12243243128529
 20
34.290664364088187
 30
0.0
 11
158.97486449464799
 21
35.143096427454772
 31
0.0
  0
LINE
  5
F5F
  8
TITLE
 10
158.20971730393239
 20
34.290664364088187
 30
0.0
 11
159.06214936729509
 21
35.143096427454772
 31
0.0
  0
LINE
  5
F60
  8
TITLE
 10
158.2970021765795
 20
34.290664364088187
 30
0.0
 11
159.1494342399422
 21
35.143096427454772
 31
0.0
  0
LINE
  5
F61
  8
TITLE
 10
162.68162286472389
 20
38.762569924883309
 30
0.0
 11
163.7743411912025
 21
39.855288251358182
 31
0.0
  0
LINE
  5
F62
  8
TITLE
 10
162.76890773737091
 20
38.762569924883309
 30
0.0
 11
163.8616260638498
 21
39.855288251358182
 31
0.0
  0
LINE
  5
F63
  8
TITLE
 10
162.85619261001801
 20
38.762569924883309
 30
0.0
 11
163.87753821284389
 21
39.78391552770556
 31
0.0
  0
LINE
  5
F64
  8
TITLE
 10
162.943477482665
 20
38.762569924883309
 30
0.0
 11
163.87753821284389
 21
39.69663065505857
 31
0.0
  0
LINE
  5
F65
  8
TITLE
 10
163.03076235531231
 20
38.762569924883309
 30
0.0
 11
163.87753821284389
 21
39.60934578241141
 31
0.0
  0
LINE
  5
F66
  8
TITLE
 10
163.7290413364824
 20
38.762569924883309
 30
0.0
 11
164.8217596629612
 21
39.855288251358182
 31
0.0
  0
LINE
  5
F67
  8
TITLE
 10
163.11804722795961
 20
38.762569924883309
 30
0.0
 11
163.87753821284389
 21
39.522060909763852
 31
0.0
  0
LINE
  5
F68
  8
TITLE
 10
163.2053321006068
 20
38.762569924883309
 30
0.0
 11
163.87753821284389
 21
39.4347760371205
 31
0.0
  0
LINE
  5
F69
  8
TITLE
 10
163.2926169732466
 20
38.762569924883309
 30
0.0
 11
163.94476215703179
 21
39.414715108664687
 31
0.0
  0
LINE
  5
F6A
  8
TITLE
 10
163.37990184589401
 20
38.762569924883309
 30
0.0
 11
164.03204702967889
 21
39.414715108664687
 31
0.0
  0
LINE
  5
F6B
  8
TITLE
 10
163.4671867185408
 20
38.762569924883309
 30
0.0
 11
164.11933190232591
 21
39.414715108664687
 31
0.0
  0
LINE
  5
F6C
  8
TITLE
 10
163.55447159118791
 20
38.762569924883309
 30
0.0
 11
164.2066167749729
 21
39.414715108664687
 31
0.0
  0
LINE
  5
F6D
  8
TITLE
 10
163.64175646383529
 20
38.762569924883309
 30
0.0
 11
164.7344747903139
 21
39.855288251358182
 31
0.0
  0
LINE
  5
F6E
  8
TITLE
 10
163.61062940817999
 20
37.771309270119687
 30
0.0
 11
164.49936932442321
 21
38.660049186359288
 31
0.0
  0
LINE
  5
F6F
  8
TITLE
 10
163.69791428082669
 20
37.771309270119687
 30
0.0
 11
164.47751313027439
 21
38.550908119567488
 31
0.0
  0
LINE
  5
F70
  8
TITLE
 10
163.7851991534742
 20
37.771309270119687
 30
0.0
 11
164.45565693613301
 21
38.441767052771198
 31
0.0
  0
LINE
  5
F71
  8
TITLE
 10
163.87248402612141
 20
37.771309270119687
 30
0.0
 11
164.44637181243289
 21
38.34519705643126
 31
0.0
  0
LINE
  5
F72
  8
TITLE
 10
163.9597688987684
 20
37.771309270119687
 30
0.0
 11
164.53365668507979
 21
38.34519705643126
 31
0.0
  0
LINE
  5
F73
  8
TITLE
 10
164.0470537714157
 20
37.771309270119687
 30
0.0
 11
164.62094155772721
 21
38.34519705643126
 31
0.0
  0
LINE
  5
F74
  8
TITLE
 10
164.13433864406301
 20
37.771309270119687
 30
0.0
 11
164.7082264303744
 21
38.34519705643126
 31
0.0
  0
LINE
  5
F75
  8
TITLE
 10
164.22162351670971
 20
37.771309270119687
 30
0.0
 11
164.7955113030211
 21
38.34519705643126
 31
0.0
  0
LINE
  5
F76
  8
TITLE
 10
164.30890838935721
 20
37.771309270119687
 30
0.0
 11
164.8827961756686
 21
38.34519705643126
 31
0.0
  0
LINE
  5
F77
  8
TITLE
 10
164.36673462751619
 20
39.662117833854751
 30
0.0
 11
164.5599050450196
 21
39.855288251358182
 31
0.0
  0
LINE
  5
F78
  8
TITLE
 10
164.28895989131061
 20
39.497058225001837
 30
0.0
 11
164.64718991766691
 21
39.855288251358182
 31
0.0
  0
LINE
  5
F79
  8
TITLE
 10
163.20754153537669
 20
39.63762808612114
 30
0.0
 11
163.42520170061391
 21
39.855288251358182
 31
0.0
  0
LINE
  5
F7A
  8
TITLE
 10
163.20754153537669
 20
39.550343213474143
 30
0.0
 11
163.5124865732609
 21
39.855288251358182
 31
0.0
  0
LINE
  5
F7B
  8
TITLE
 10
163.20754153537669
 20
39.463058340826713
 30
0.0
 11
163.59977144590849
 21
39.855288251358182
 31
0.0
  0
LINE
  5
F7C
  8
TITLE
 10
163.20754153537669
 20
39.81219783141178
 30
0.0
 11
163.25063195531959
 21
39.855288251358182
 31
0.0
  0
LINE
  5
F7D
  8
TITLE
 10
163.20754153537669
 20
39.724912958764961
 30
0.0
 11
163.33791682796669
 21
39.855288251358182
 31
0.0
  0
LINE
  5
F7E
  8
TITLE
 10
164.44450936371501
 20
39.827177442700673
 30
0.0
 11
164.4726201723727
 21
39.855288251358182
 31
0.0
  0
LINE
  5
F7F
  8
TITLE
 10
163.29967983550591
 20
35.627377371866373
 30
0.0
 11
163.95672069015109
 21
36.284418226511491
 31
0.0
  0
LINE
  5
F80
  8
TITLE
 10
163.3310471763819
 20
35.571459840098143
 30
0.0
 11
164.04400556279811
 21
36.284418226511491
 31
0.0
  0
LINE
  5
F81
  8
TITLE
 10
163.36358074300259
 20
35.516708534072151
 30
0.0
 11
164.13129043544541
 21
36.284418226511491
 31
0.0
  0
LINE
  5
F82
  8
TITLE
 10
163.3972585987533
 20
35.463101517168852
 30
0.0
 11
164.21857530809251
 21
36.284418226511491
 31
0.0
  0
LINE
  5
F83
  8
TITLE
 10
163.4320615326094
 20
35.410619578384669
 30
0.0
 11
164.3058601807399
 21
36.284418226511491
 31
0.0
  0
LINE
  5
F84
  8
TITLE
 10
163.4679728611996
 20
35.359246034324329
 30
0.0
 11
164.39314505338669
 21
36.284418226511491
 31
0.0
  0
LINE
  5
F85
  8
TITLE
 10
163.5049782626142
 20
35.308966563095808
 30
0.0
 11
164.48042992603399
 21
36.284418226511491
 31
0.0
  0
LINE
  5
F86
  8
TITLE
 10
163.54306563805761
 20
35.259769065887852
 30
0.0
 11
164.56771479868101
 21
36.284418226511491
 31
0.0
  0
LINE
  5
F87
  8
TITLE
 10
163.58222499792521
 20
35.211643553111941
 30
0.0
 11
164.65499967132101
 21
36.284418226511491
 31
0.0
  0
LINE
  5
F88
  8
TITLE
 10
163.622448369908
 20
35.164582052454833
 30
0.0
 11
164.7422845439682
 21
36.284418226511491
 31
0.0
  0
LINE
  5
F89
  8
TITLE
 10
164.3339391506934
 20
35.788787960585822
 30
0.0
 11
164.8295694166155
 21
36.284418226511491
 31
0.0
  0
LINE
  5
F8A
  8
TITLE
 10
163.9822080056087
 20
34.826062706977851
 30
0.0
 11
164.54817926948411
 21
35.392033970853859
 31
0.0
  0
LINE
  5
F8B
  8
TITLE
 10
164.03195971082789
 20
34.788529539550268
 30
0.0
 11
164.58906959329619
 21
35.34563942201514
 31
0.0
  0
LINE
  5
F8C
  8
TITLE
 10
164.08279933263071
 20
34.752084288709632
 30
0.0
 11
164.6323034686626
 21
35.301588424737773
 31
0.0
  0
LINE
  5
F8D
  8
TITLE
 10
164.13474009566511
 20
34.716740179100469
 30
0.0
 11
164.67787736179699
 21
35.259877445225307
 31
0.0
  0
LINE
  5
F8E
  8
TITLE
 10
164.18779751549019
 20
34.68251272627478
 30
0.0
 11
164.72580804164591
 21
35.220523252430169
 31
0.0
  0
LINE
  5
F8F
  8
TITLE
 10
164.24198955074991
 20
34.649419888890748
 30
0.0
 11
164.7761333176407
 21
35.18356365577803
 31
0.0
  0
LINE
  5
F90
  8
TITLE
 10
164.29733678512139
 20
34.617482250611388
 30
0.0
 11
164.82891374684999
 21
35.149059212343751
 31
0.0
  0
LINE
  5
F91
  8
TITLE
 10
164.3538626434962
 20
34.586723236342849
 30
0.0
 11
164.8842354959977
 21
35.117096088840498
 31
0.0
  0
LINE
  5
F92
  8
TITLE
 10
163.88592616740959
 20
34.904350614073209
 30
0.0
 11
164.47354676054971
 21
35.491971207213851
 31
0.0
  0
LINE
  5
F93
  8
TITLE
 10
163.93353315712389
 20
34.864672731136856
 30
0.0
 11
164.50965648824771
 21
35.44079606226417
 31
0.0
  0
LINE
  5
F94
  8
TITLE
 10
162.66124580890161
 20
34.290664364088187
 30
0.0
 11
163.2911561520587
 21
34.920574707245422
 31
0.0
  0
LINE
  5
F95
  8
TITLE
 10
162.7485306815486
 20
34.290664364088187
 30
0.0
 11
163.2911561520587
 21
34.833289834598723
 31
0.0
  0
LINE
  5
F96
  8
TITLE
 10
162.83581555419579
 20
34.290664364088187
 30
0.0
 11
163.2911561520587
 21
34.746004961954782
 31
0.0
  0
LINE
  5
F97
  8
TITLE
 10
162.92310042684269
 20
34.290664364088187
 30
0.0
 11
163.2911561520587
 21
34.658720089307927
 31
0.0
  0
LINE
  5
F98
  8
TITLE
 10
163.01038529949
 20
34.290664364088187
 30
0.0
 11
163.2911561520587
 21
34.57143521666049
 31
0.0
  0
LINE
  5
F99
  8
TITLE
 10
163.09767017213721
 20
34.290664364088187
 30
0.0
 11
163.2911561520587
 21
34.48415034401684
 31
0.0
  0
LINE
  5
F9A
  8
TITLE
 10
163.1849550447773
 20
34.290664364088187
 30
0.0
 11
163.2911561520587
 21
34.396865471369743
 31
0.0
  0
LINE
  5
F9B
  8
TITLE
 10
163.2722399174242
 20
34.290664364088187
 30
0.0
 11
163.2911561520587
 21
34.30958059872269
 31
0.0
  0
LINE
  5
F9C
  8
TITLE
 10
163.6637297269319
 20
35.118578536827869
 30
0.0
 11
164.3326775665715
 21
35.787526376463831
 31
0.0
  0
LINE
  5
F9D
  8
TITLE
 10
163.70606493347779
 20
35.073628870726878
 30
0.0
 11
164.35505693159601
 21
35.722620868848949
 31
0.0
  0
LINE
  5
F9E
  8
TITLE
 10
163.74945170916081
 20
35.029730773762481
 30
0.0
 11
164.38052671146241
 21
35.660805776067917
 31
0.0
  0
LINE
  5
F9F
  8
TITLE
 10
163.79388960876179
 20
34.986883800719824
 30
0.0
 11
164.4088698601193
 21
35.601864052077481
 31
0.0
  0
LINE
  5
FA0
  8
TITLE
 10
163.8393800183625
 20
34.945089337666303
 30
0.0
 11
164.43991920055001
 21
35.545628519861069
 31
0.0
  0
LINE
  5
FA1
  8
TITLE
 10
163.72798633964001
 20
36.75396285716694
 30
0.0
 11
164.24970248666369
 21
37.275679004194131
 31
0.0
  0
LINE
  5
FA2
  8
TITLE
 10
163.8152712122872
 20
36.75396285716694
 30
0.0
 11
164.33698735931119
 21
37.275679004194131
 31
0.0
  0
LINE
  5
FA3
  8
TITLE
 10
163.90255608492711
 20
36.75396285716694
 30
0.0
 11
164.42427223195801
 21
37.275679004194131
 31
0.0
  0
LINE
  5
FA4
  8
TITLE
 10
163.9898409575747
 20
36.75396285716694
 30
0.0
 11
164.51155710460529
 21
37.275679004194131
 31
0.0
  0
LINE
  5
FA5
  8
TITLE
 10
163.29156197640421
 20
36.75396285716694
 30
0.0
 11
163.81327812342801
 21
37.275679004194131
 31
0.0
  0
LINE
  5
FA6
  8
TITLE
 10
163.37884684905171
 20
36.75396285716694
 30
0.0
 11
163.90056299607531
 21
37.275679004194131
 31
0.0
  0
LINE
  5
FA7
  8
TITLE
 10
163.4661317216989
 20
36.75396285716694
 30
0.0
 11
163.98784786872221
 21
37.275679004194131
 31
0.0
  0
LINE
  5
FA8
  8
TITLE
 10
163.55341659434561
 20
36.75396285716694
 30
0.0
 11
164.07513274136949
 21
37.275679004194131
 31
0.0
  0
LINE
  5
FA9
  8
TITLE
 10
163.64070146699271
 20
36.75396285716694
 30
0.0
 11
164.1624176140167
 21
37.275679004194131
 31
0.0
  0
LINE
  5
FAA
  8
TITLE
 10
164.0771258302216
 20
36.75396285716694
 30
0.0
 11
164.59884197725239
 21
37.275679004194131
 31
0.0
  0
LINE
  5
FAB
  8
TITLE
 10
164.16441070286891
 20
36.75396285716694
 30
0.0
 11
164.68612684989219
 21
37.275679004194131
 31
0.0
  0
LINE
  5
FAC
  8
TITLE
 10
164.2516955755157
 20
36.75396285716694
 30
0.0
 11
164.77341172253949
 21
37.275679004194131
 31
0.0
  0
LINE
  5
FAD
  8
TITLE
 10
164.33898044816291
 20
36.75396285716694
 30
0.0
 11
164.86069659518671
 21
37.275679004194131
 31
0.0
  0
LINE
  5
FAE
  8
TITLE
 10
160.84864053914771
 20
38.762569924883309
 30
0.0
 11
161.50078572293279
 21
39.414715108664687
 31
0.0
  0
LINE
  5
FAF
  8
TITLE
 10
160.93592541179501
 20
38.762569924883309
 30
0.0
 11
161.58807059558021
 21
39.414715108664687
 31
0.0
  0
LINE
  5
FB0
  8
TITLE
 10
161.0232102844422
 20
38.762569924883309
 30
0.0
 11
161.67535546822711
 21
39.414715108664687
 31
0.0
  0
LINE
  5
FB1
  8
TITLE
 10
161.1104951570891
 20
38.762569924883309
 30
0.0
 11
161.76264034086731
 21
39.414715108664687
 31
0.0
  0
LINE
  5
FB2
  8
TITLE
 10
161.1776747199369
 20
38.74246461508686
 30
0.0
 11
162.29049835620791
 21
39.855288251358182
 31
0.0
  0
LINE
  5
FB3
  8
TITLE
 10
161.98334388355391
 20
38.762569924883309
 30
0.0
 11
162.63548906733141
 21
39.414715108664687
 31
0.0
  0
LINE
  5
FB4
  8
TITLE
 10
160.81751348349249
 20
37.771309270119687
 30
0.0
 11
162.48600672380269
 21
39.43980251042278
 31
0.0
  0
LINE
  5
FB5
  8
TITLE
 10
160.90479835613939
 20
37.771309270119687
 30
0.0
 11
162.54820419469161
 21
39.414715108664687
 31
0.0
  0
LINE
  5
FB6
  8
TITLE
 10
161.23592678136561
 20
38.451577185927192
 30
0.0
 11
162.48600672380269
 21
39.701657128360708
 31
0.0
  0
LINE
  5
FB7
  8
TITLE
 10
161.25048979672289
 20
38.378855328637158
 30
0.0
 11
162.48600672380269
 21
39.614372255717058
 31
0.0
  0
LINE
  5
FB8
  8
TITLE
 10
161.1922377352941
 20
38.669742757797238
 30
0.0
 11
162.37778322885529
 21
39.855288251358182
 31
0.0
  0
LINE
  5
FB9
  8
TITLE
 10
161.2068007506513
 20
38.597020900507061
 30
0.0
 11
162.4650681015026
 21
39.855288251358182
 31
0.0
  0
LINE
  5
FBA
  8
TITLE
 10
161.22136376600861
 20
38.524299043217503
 30
0.0
 11
162.48600672380269
 21
39.788942001008138
 31
0.0
  0
LINE
  5
FBB
  8
TITLE
 10
160.9920832287869
 20
37.771309270119687
 30
0.0
 11
161.9485379775077
 21
38.727764018840119
 31
0.0
  0
LINE
  5
FBC
  8
TITLE
 10
161.07936810143369
 20
37.771309270119687
 30
0.0
 11
161.96310099286481
 21
38.655042161550568
 31
0.0
  0
LINE
  5
FBD
  8
TITLE
 10
161.16665297408099
 20
37.771309270119687
 30
0.0
 11
161.97766400822181
 21
38.582320304256882
 31
0.0
  0
LINE
  5
FBE
  8
TITLE
 10
161.25393784672821
 20
37.771309270119687
 30
0.0
 11
161.99222702357861
 21
38.509598446966727
 31
0.0
  0
LINE
  5
FBF
  8
TITLE
 10
161.34122271937531
 20
37.771309270119687
 30
0.0
 11
162.00679003893609
 21
38.436876589676721
 31
0.0
  0
LINE
  5
FC0
  8
TITLE
 10
161.4285075920225
 20
37.771309270119687
 30
0.0
 11
162.0213530542859
 21
38.364154732383042
 31
0.0
  0
LINE
  5
FC1
  8
TITLE
 10
161.51579246466969
 20
37.771309270119687
 30
0.0
 11
162.08968025098119
 21
38.34519705643126
 31
0.0
  0
LINE
  5
FC2
  8
TITLE
 10
161.60307733731679
 20
37.771309270119687
 30
0.0
 11
162.17696512362821
 21
38.34519705643126
 31
0.0
  0
LINE
  5
FC3
  8
TITLE
 10
161.6903622099569
 20
37.771309270119687
 30
0.0
 11
162.26424999627551
 21
38.34519705643126
 31
0.0
  0
LINE
  5
FC4
  8
TITLE
 10
161.77764708260401
 20
37.771309270119687
 30
0.0
 11
162.35153486891491
 21
38.34519705643126
 31
0.0
  0
LINE
  5
FC5
  8
TITLE
 10
161.86493195525131
 20
37.771309270119687
 30
0.0
 11
162.4388197415629
 21
38.34519705643126
 31
0.0
  0
LINE
  5
FC6
  8
TITLE
 10
161.95221682789821
 20
37.771309270119687
 30
0.0
 11
162.5261046142098
 21
38.34519705643126
 31
0.0
  0
LINE
  5
FC7
  8
TITLE
 10
162.0395017005456
 20
37.771309270119687
 30
0.0
 11
162.6133894868567
 21
38.34519705643126
 31
0.0
  0
LINE
  5
FC8
  8
TITLE
 10
161.81601004633561
 20
39.642654559420073
 30
0.0
 11
162.02864373827379
 21
39.855288251358182
 31
0.0
  0
LINE
  5
FC9
  8
TITLE
 10
161.81601004633561
 20
39.555369686772792
 30
0.0
 11
162.115928610921
 21
39.855288251358182
 31
0.0
  0
LINE
  5
FCA
  8
TITLE
 10
161.81601004633561
 20
39.468084814125653
 30
0.0
 11
162.20321348356791
 21
39.855288251358182
 31
0.0
  0
LINE
  5
FCB
  8
TITLE
 10
161.81601004633561
 20
39.817224304714202
 30
0.0
 11
161.85407399297981
 21
39.855288251358182
 31
0.0
  0
LINE
  5
FCC
  8
TITLE
 10
161.81601004633561
 20
39.729939432067077
 30
0.0
 11
161.94135886562671
 21
39.855288251358182
 31
0.0
  0
LINE
  5
FCD
  8
TITLE
 10
160.84254424483609
 20
35.788787960585822
 30
0.0
 11
161.33817451075791
 21
36.284418226511491
 31
0.0
  0
LINE
  5
FCE
  8
TITLE
 10
160.92982911748331
 20
35.788787960585822
 30
0.0
 11
161.42545938340481
 21
36.284418226511491
 31
0.0
  0
LINE
  5
FCF
  8
TITLE
 10
161.0171139901303
 20
35.788787960585822
 30
0.0
 11
161.5127442560522
 21
36.284418226511491
 31
0.0
  0
LINE
  5
FD0
  8
TITLE
 10
161.10439886277749
 20
35.788787960585822
 30
0.0
 11
161.6000291286995
 21
36.284418226511491
 31
0.0
  0
LINE
  5
FD1
  8
TITLE
 10
161.19168373541751
 20
35.788787960585822
 30
0.0
 11
161.68731400134641
 21
36.284418226511491
 31
0.0
  0
LINE
  5
FD2
  8
TITLE
 10
161.27896860806499
 20
35.788787960585822
 30
0.0
 11
161.7745988739938
 21
36.284418226511491
 31
0.0
  0
LINE
  5
FD3
  8
TITLE
 10
161.3589777037534
 20
35.781512183627541
 30
0.0
 11
161.8618837466409
 21
36.284418226511491
 31
0.0
  0
LINE
  5
FD4
  8
TITLE
 10
161.30235564884981
 20
35.637605256076839
 30
0.0
 11
161.94916861928081
 21
36.284418226511491
 31
0.0
  0
LINE
  5
FD5
  8
TITLE
 10
161.1516103502133
 20
35.399575084792943
 30
0.0
 11
162.03645349192789
 21
36.284418226511491
 31
0.0
  0
LINE
  5
FD6
  8
TITLE
 10
161.44498062361501
 20
34.645526886440081
 30
0.0
 11
162.3507104215754
 21
35.551256684396833
 31
0.0
  0
LINE
  5
FD7
  8
TITLE
 10
161.71786840926291
 20
34.831129799436781
 30
0.0
 11
162.1651075085752
 21
35.278368898749349
 31
0.0
  0
LINE
  5
FD8
  8
TITLE
 10
160.84758554230541
 20
36.75396285716694
 30
0.0
 11
161.36930168932901
 21
37.275679004194131
 31
0.0
  0
LINE
  5
FD9
  8
TITLE
 10
160.93487041495271
 20
36.75396285716694
 30
0.0
 11
161.45658656197659
 21
37.275679004194131
 31
0.0
  0
LINE
  5
FDA
  8
TITLE
 10
161.0221552875999
 20
36.75396285716694
 30
0.0
 11
161.5438714346235
 21
37.275679004194131
 31
0.0
  0
LINE
  5
FDB
  8
TITLE
 10
161.10944016024689
 20
36.75396285716694
 30
0.0
 11
161.6311563072706
 21
37.275679004194131
 31
0.0
  0
LINE
  5
FDC
  8
TITLE
 10
161.19672503288669
 20
36.75396285716694
 30
0.0
 11
161.71844117991799
 21
37.275679004194131
 31
0.0
  0
LINE
  5
FDD
  8
TITLE
 10
161.28400990553399
 20
36.75396285716694
 30
0.0
 11
161.80572605256501
 21
37.275679004194131
 31
0.0
  0
LINE
  5
FDE
  8
TITLE
 10
161.37129477818149
 20
36.75396285716694
 30
0.0
 11
161.8930109252052
 21
37.275679004194131
 31
0.0
  0
LINE
  5
FDF
  8
TITLE
 10
161.4585796508286
 20
36.75396285716694
 30
0.0
 11
161.98029579785219
 21
37.275679004194131
 31
0.0
  0
LINE
  5
FE0
  8
TITLE
 10
161.5458645234757
 20
36.75396285716694
 30
0.0
 11
162.06758067049921
 21
37.275679004194131
 31
0.0
  0
LINE
  5
FE1
  8
TITLE
 10
161.6331493961228
 20
36.75396285716694
 30
0.0
 11
162.15486554314651
 21
37.275679004194131
 31
0.0
  0
LINE
  5
FE2
  8
TITLE
 10
161.72043426876979
 20
36.75396285716694
 30
0.0
 11
162.24215041579339
 21
37.275679004194131
 31
0.0
  0
LINE
  5
FE3
  8
TITLE
 10
161.80771914141701
 20
36.75396285716694
 30
0.0
 11
162.32943528844089
 21
37.275679004194131
 31
0.0
  0
LINE
  5
FE4
  8
TITLE
 10
162.59433799207679
 20
38.762569924883309
 30
0.0
 11
163.68705631855539
 21
39.855288251358182
 31
0.0
  0
LINE
  5
FE5
  8
TITLE
 10
162.4197682467821
 20
38.762569924883309
 30
0.0
 11
163.07191343056741
 21
39.414715108664687
 31
0.0
  0
LINE
  5
FE6
  8
TITLE
 10
162.5070531194296
 20
38.762569924883309
 30
0.0
 11
163.15919830321451
 21
39.414715108664687
 31
0.0
  0
LINE
  5
FE7
  8
TITLE
 10
162.07062875620079
 20
38.762569924883309
 30
0.0
 11
162.72277393997871
 21
39.414715108664687
 31
0.0
  0
LINE
  5
FE8
  8
TITLE
 10
162.15791362884801
 20
38.762569924883309
 30
0.0
 11
162.8100588126261
 21
39.414715108664687
 31
0.0
  0
LINE
  5
FE9
  8
TITLE
 10
162.24519850149551
 20
38.762569924883309
 30
0.0
 11
162.8973436852728
 21
39.414715108664687
 31
0.0
  0
LINE
  5
FEA
  8
TITLE
 10
162.33248337414221
 20
38.762569924883309
 30
0.0
 11
162.98462855792019
 21
39.414715108664687
 31
0.0
  0
LINE
  5
FEB
  8
TITLE
 10
160.8359669095945
 20
34.38565266300418
 30
0.0
 11
163.72599325078079
 21
37.275679004194131
 31
0.0
  0
LINE
  5
FEC
  8
TITLE
 10
162.4023921071136
 20
34.81737451612122
 30
0.0
 11
163.8694358175039
 21
36.284418226511491
 31
0.0
  0
LINE
  5
FED
  8
TITLE
 10
160.96226088844691
 20
34.424661769209543
 30
0.0
 11
163.2911561520587
 21
36.753557032821448
 31
0.0
  0
LINE
  5
FEE
  8
TITLE
 10
161.1007575288528
 20
34.475873536971832
 30
0.0
 11
163.2911561520587
 21
36.6662721601746
 31
0.0
  0
LINE
  5
FEF
  8
TITLE
 10
161.2572456288529
 20
34.545076764320868
 30
0.0
 11
163.2911561520587
 21
36.578987287530822
 31
0.0
  0
LINE
  5
FF0
  8
TITLE
 10
162.4023921071136
 20
34.991944261411859
 30
0.0
 11
163.69486607220941
 21
36.284418226511491
 31
0.0
  0
LINE
  5
FF1
  8
TITLE
 10
162.4023921071136
 20
34.904659388768252
 30
0.0
 11
163.78215094485691
 21
36.284418226511491
 31
0.0
  0
LINE
  5
FF2
  8
TITLE
 10
162.4023921071136
 20
35.602938369941903
 30
0.0
 11
163.2911561520587
 21
36.49170241488352
 31
0.0
  0
LINE
  5
FF3
  8
TITLE
 10
162.4023921071136
 20
35.515653497294601
 30
0.0
 11
163.2911561520587
 21
36.404417542236231
 31
0.0
  0
LINE
  5
FF4
  8
TITLE
 10
162.4023921071136
 20
35.42836862464776
 30
0.0
 11
163.2911561520587
 21
36.31713266959288
 31
0.0
  0
LINE
  5
FF5
  8
TITLE
 10
162.4023921071136
 20
35.34108375200033
 30
0.0
 11
163.3457265816279
 21
36.284418226511491
 31
0.0
  0
LINE
  5
FF6
  8
TITLE
 10
162.4023921071136
 20
35.253798879353027
 30
0.0
 11
163.4330114542752
 21
36.284418226511491
 31
0.0
  0
LINE
  5
FF7
  8
TITLE
 10
162.4023921071136
 20
35.16651400670618
 30
0.0
 11
163.52029632692239
 21
36.284418226511491
 31
0.0
  0
LINE
  5
FF8
  8
TITLE
 10
162.4023921071136
 20
35.079229134059162
 30
0.0
 11
163.60758119956981
 21
36.284418226511491
 31
0.0
  0
LINE
  5
FF9
  8
TITLE
 10
162.4023921071136
 20
34.730089643477868
 30
0.0
 11
163.2911561520587
 21
35.618853688419243
 31
0.0
  0
LINE
  5
FFA
  8
TITLE
 10
162.4023921071136
 20
34.642804770830722
 30
0.0
 11
163.2911561520587
 21
35.531568815772218
 31
0.0
  0
LINE
  5
FFB
  8
TITLE
 10
162.4023921071136
 20
34.555519898183292
 30
0.0
 11
163.2911561520587
 21
35.44428394312493
 31
0.0
  0
LINE
  5
FFC
  8
TITLE
 10
162.4023921071136
 20
34.468235025536011
 30
0.0
 11
163.2911561520587
 21
35.356999070481123
 31
0.0
  0
LINE
  5
FFD
  8
TITLE
 10
162.4023921071136
 20
34.380950152888751
 30
0.0
 11
163.2911561520587
 21
35.26971419783429
 31
0.0
  0
LINE
  5
FFE
  8
TITLE
 10
162.4023921071136
 20
34.293665280241711
 30
0.0
 11
163.2911561520587
 21
35.182429325186988
 31
0.0
  0
LINE
  5
FFF
  8
TITLE
 10
162.48667606360721
 20
34.290664364088187
 30
0.0
 11
163.2911561520587
 21
35.09514445254014
 31
0.0
  0
LINE
  5
1000
  8
TITLE
 10
162.5739609362542
 20
34.290664364088187
 30
0.0
 11
163.2911561520587
 21
35.007859579892703
 31
0.0
  0
LINE
  5
1001
  8
TITLE
 10
162.4023921071136
 20
37.610490440808533
 30
0.0
 11
163.13709872273989
 21
38.34519705643126
 31
0.0
  0
LINE
  5
1002
  8
TITLE
 10
162.4023921071136
 20
37.523205568161423
 30
0.0
 11
163.22438359537989
 21
38.34519705643126
 31
0.0
  0
LINE
  5
1003
  8
TITLE
 10
162.4023921071136
 20
37.435920695517723
 30
0.0
 11
163.31166846802671
 21
38.34519705643126
 31
0.0
  0
LINE
  5
1004
  8
TITLE
 10
162.4023921071136
 20
37.348635822870897
 30
0.0
 11
163.3989533406739
 21
38.34519705643126
 31
0.0
  0
LINE
  5
1005
  8
TITLE
 10
161.8950040140642
 20
36.75396285716694
 30
0.0
 11
163.48623821332109
 21
38.34519705643126
 31
0.0
  0
LINE
  5
1006
  8
TITLE
 10
161.9822888867111
 20
36.75396285716694
 30
0.0
 11
163.57352308596819
 21
38.34519705643126
 31
0.0
  0
LINE
  5
1007
  8
TITLE
 10
162.06957375935119
 20
36.75396285716694
 30
0.0
 11
163.66080795861541
 21
38.34519705643126
 31
0.0
  0
LINE
  5
1008
  8
TITLE
 10
162.1267865731927
 20
37.771309270119687
 30
0.0
 11
162.70067435950389
 21
38.34519705643126
 31
0.0
  0
LINE
  5
1009
  8
TITLE
 10
162.21407144583981
 20
37.771309270119687
 30
0.0
 11
162.7879592321512
 21
38.34519705643126
 31
0.0
  0
LINE
  5
100A
  8
TITLE
 10
162.30135631848691
 20
37.771309270119687
 30
0.0
 11
162.8752441047981
 21
38.34519705643126
 31
0.0
  0
LINE
  5
100B
  8
TITLE
 10
162.38864119113421
 20
37.771309270119687
 30
0.0
 11
162.96252897744549
 21
38.34519705643126
 31
0.0
  0
LINE
  5
100C
  8
TITLE
 10
162.4023921071136
 20
37.697775313452048
 30
0.0
 11
163.04981385009279
 21
38.34519705643126
 31
0.0
  0
LINE
  5
100D
  8
TITLE
 10
162.3314283772927
 20
36.75396285716694
 30
0.0
 11
163.2911561520587
 21
37.713690631932892
 31
0.0
  0
LINE
  5
100E
  8
TITLE
 10
162.4023921071136
 20
36.737641714344107
 30
0.0
 11
163.2911561520587
 21
37.62640575928603
 31
0.0
  0
LINE
  5
100F
  8
TITLE
 10
162.4023921071136
 20
36.650356841696798
 30
0.0
 11
163.2911561520587
 21
37.539120886638763
 31
0.0
  0
LINE
  5
1010
  8
TITLE
 10
162.4023921071136
 20
36.563071969049957
 30
0.0
 11
163.2911561520587
 21
37.451836013995113
 31
0.0
  0
LINE
  5
1011
  8
TITLE
 10
162.4023921071136
 20
36.475787096406179
 30
0.0
 11
163.2911561520587
 21
37.36455114134781
 31
0.0
  0
LINE
  5
1012
  8
TITLE
 10
162.4023921071136
 20
36.388502223759332
 30
0.0
 11
163.2911561520587
 21
37.277266268700643
 31
0.0
  0
LINE
  5
1013
  8
TITLE
 10
162.4023921071136
 20
36.301217351111887
 30
0.0
 11
163.37685376019959
 21
37.275679004194131
 31
0.0
  0
LINE
  5
1014
  8
TITLE
 10
169.87499999999989
 20
52.5
 30
0.0
 11
169.87499999999989
 21
42.5
 31
0.0
  0
LINE
  5
1015
  8
TITLE
 10
168.42128167881481
 20
38.828712016948728
 30
0.0
 11
169.43993198529921
 21
39.847362323440237
 31
0.0
  0
LINE
  5
1016
  8
TITLE
 10
168.42128167881481
 20
38.741427144301468
 30
0.0
 11
169.43993198529921
 21
39.760077450793062
 31
0.0
  0
LINE
  5
1017
  8
TITLE
 10
168.42128167881481
 20
38.04314816313115
 30
0.0
 11
169.50590479264679
 21
39.127771276966712
 31
0.0
  0
LINE
  5
1018
  8
TITLE
 10
168.50119411013731
 20
38.035775721813707
 30
0.0
 11
169.59318966529401
 21
39.127771276966712
 31
0.0
  0
LINE
  5
1019
  8
TITLE
 10
168.42128167881481
 20
38.479572526363199
 30
0.0
 11
169.43993198529921
 21
39.498222832851638
 31
0.0
  0
LINE
  5
101A
  8
TITLE
 10
168.42128167881481
 20
38.39228765371638
 30
0.0
 11
169.4398915193334
 21
39.410897494238341
 31
0.0
  0
LINE
  5
101B
  8
TITLE
 10
168.42128167881481
 20
38.305002781072723
 30
0.0
 11
169.4360937726961
 21
39.319814874953778
 31
0.0
  0
LINE
  5
101C
  8
TITLE
 10
168.42128167881481
 20
38.217717908425868
 30
0.0
 11
169.42584509583889
 21
39.222281325453253
 31
0.0
  0
LINE
  5
101D
  8
TITLE
 10
168.42128167881481
 20
38.130433035778417
 30
0.0
 11
169.4186199199994
 21
39.127771276966712
 31
0.0
  0
LINE
  5
101E
  8
TITLE
 10
168.66841769994741
 20
38.115714438969611
 30
0.0
 11
169.68047453794071
 21
39.127771276966712
 31
0.0
  0
LINE
  5
101F
  8
TITLE
 10
168.42128167881481
 20
38.65414227165418
 30
0.0
 11
169.43993198529921
 21
39.67279257814576
 31
0.0
  0
LINE
  5
1020
  8
TITLE
 10
168.42128167881481
 20
38.566857399007148
 30
0.0
 11
169.43993198529921
 21
39.585507705499069
 31
0.0
  0
LINE
  5
1021
  8
TITLE
 10
168.654293248187
 20
39.149008458971402
 30
0.0
 11
169.36057304057749
 21
39.855288251358182
 31
0.0
  0
LINE
  5
1022
  8
TITLE
 10
168.73471248846241
 20
39.578567189831688
 30
0.0
 11
169.01143354998871
 21
39.855288251358182
 31
0.0
  0
LINE
  5
1023
  8
TITLE
 10
168.73471248846241
 20
39.491282317184712
 30
0.0
 11
169.09871842263581
 21
39.855288251358182
 31
0.0
  0
LINE
  5
1024
  8
TITLE
 10
168.730410541114
 20
39.399695497189128
 30
0.0
 11
169.186003295283
 21
39.855288251358182
 31
0.0
  0
LINE
  5
1025
  8
TITLE
 10
168.7082057942404
 20
39.29020587767215
 30
0.0
 11
169.27328816792999
 21
39.855288251358182
 31
0.0
  0
LINE
  5
1026
  8
TITLE
 10
168.42128167881481
 20
34.551753257273958
 30
0.0
 11
169.71828662300541
 21
35.848758201464079
 31
0.0
  0
LINE
  5
1027
  8
TITLE
 10
168.5623416274276
 20
34.605528333243299
 30
0.0
 11
169.60698555393429
 21
35.650172259746213
 31
0.0
  0
LINE
  5
1028
  8
TITLE
 10
168.83996139452651
 20
34.795863227694852
 30
0.0
 11
169.41665065948251
 21
35.372552492647102
 31
0.0
  0
LINE
  5
1029
  8
TITLE
 10
168.66624012647139
 20
35.756845304045441
 30
0.0
 11
170.68070409254909
 21
37.771309270119687
 31
0.0
  0
LINE
  5
102A
  8
TITLE
 10
168.42128167881481
 20
35.424601983738128
 30
0.0
 11
170.7679889651962
 21
37.771309270119687
 31
0.0
  0
LINE
  5
102B
  8
TITLE
 10
168.9692027499147
 20
36.23437767277926
 30
0.0
 11
170.56305938401781
 21
37.828234306879047
 31
0.0
  0
LINE
  5
102C
  8
TITLE
 10
168.85657310276861
 20
36.034463152986291
 30
0.0
 11
170.59341921990199
 21
37.771309270119687
 31
0.0
  0
LINE
  5
102D
  8
TITLE
 10
168.4223179677702
 20
37.171335725622228
 30
0.0
 11
169.02229151226061
 21
37.771309270119687
 31
0.0
  0
LINE
  5
102E
  8
TITLE
 10
168.50960284041739
 20
37.171335725622228
 30
0.0
 11
169.1095763849076
 21
37.771309270119687
 31
0.0
  0
LINE
  5
102F
  8
TITLE
 10
168.5968877130644
 20
37.171335725622228
 30
0.0
 11
169.19686125755479
 21
37.771309270119687
 31
0.0
  0
LINE
  5
1030
  8
TITLE
 10
168.68417258570449
 20
37.171335725622228
 30
0.0
 11
169.28414613020169
 21
37.771309270119687
 31
0.0
  0
LINE
  5
1031
  8
TITLE
 10
168.77145745835159
 20
37.171335725622228
 30
0.0
 11
169.37143100284891
 21
37.771309270119687
 31
0.0
  0
LINE
  5
1032
  8
TITLE
 10
168.85874233099869
 20
37.171335725622228
 30
0.0
 11
169.45871587549621
 21
37.771309270119687
 31
0.0
  0
LINE
  5
1033
  8
TITLE
 10
168.946027203646
 20
37.171335725622228
 30
0.0
 11
169.54600074814351
 21
37.771309270119687
 31
0.0
  0
LINE
  5
1034
  8
TITLE
 10
168.42128167881481
 20
34.988177620502391
 30
0.0
 11
171.20441332842481
 21
37.771309270119687
 31
0.0
  0
LINE
  5
1035
  8
TITLE
 10
168.42128167881481
 20
34.81360787521178
 30
0.0
 11
171.37898307371901
 21
37.771309270119687
 31
0.0
  0
LINE
  5
1036
  8
TITLE
 10
168.42128167881481
 20
34.726323002564797
 30
0.0
 11
171.4662679463662
 21
37.771309270119687
 31
0.0
  0
LINE
  5
1037
  8
TITLE
 10
168.42128167881481
 20
34.639038129921261
 30
0.0
 11
171.55355281901359
 21
37.771309270119687
 31
0.0
  0
LINE
  5
1038
  8
TITLE
 10
168.42128167881481
 20
34.900892747859082
 30
0.0
 11
171.29169820107231
 21
37.771309270119687
 31
0.0
  0
LINE
  5
1039
  8
TITLE
 10
168.42128167881481
 20
35.162747365796861
 30
0.0
 11
171.02984358313071
 21
37.771309270119687
 31
0.0
  0
LINE
  5
103A
  8
TITLE
 10
168.42128167881481
 20
35.075462493149722
 30
0.0
 11
171.11712845577759
 21
37.771309270119687
 31
0.0
  0
LINE
  5
103B
  8
TITLE
 10
168.42128167881481
 20
35.337317111091281
 30
0.0
 11
170.85527383783619
 21
37.771309270119687
 31
0.0
  0
LINE
  5
103C
  8
TITLE
 10
168.42128167881481
 20
35.25003223844385
 30
0.0
 11
170.9425587104835
 21
37.771309270119687
 31
0.0
  0
LINE
  5
103D
  8
TITLE
 10
166.88024637822889
 20
38.946089296648182
 30
0.0
 11
167.7160621819707
 21
39.781905100389743
 31
0.0
  0
LINE
  5
103E
  8
TITLE
 10
166.8211183242386
 20
38.188682261491067
 30
0.0
 11
167.7160621819707
 21
39.083626119219588
 31
0.0
  0
LINE
  5
103F
  8
TITLE
 10
167.78125192335
 20
38.188682261487429
 30
0.0
 11
168.1862085132
 21
38.593638851333708
 31
0.0
  0
LINE
  5
1040
  8
TITLE
 10
167.86853679599719
 20
38.188682261487429
 30
0.0
 11
168.1862085132
 21
38.506353978686427
 31
0.0
  0
LINE
  5
1041
  8
TITLE
 10
167.95582166864449
 20
38.188682261487429
 30
0.0
 11
168.1862085132
 21
38.41906910604304
 31
0.0
  0
LINE
  5
1042
  8
TITLE
 10
168.13039141393881
 20
38.188682261491067
 30
0.0
 11
168.1862085132
 21
38.244499360749231
 31
0.0
  0
LINE
  5
1043
  8
TITLE
 10
168.04310654129179
 20
38.188682261487429
 30
0.0
 11
168.1862085132
 21
38.33178423339578
 31
0.0
  0
LINE
  5
1044
  8
TITLE
 10
166.88024637822889
 20
37.811385952246241
 30
0.0
 11
167.93577362943819
 21
38.866913203454772
 31
0.0
  0
LINE
  5
1045
  8
TITLE
 10
166.88024637822889
 20
37.724101079599109
 30
0.0
 11
168.02305850208569
 21
38.866913203454772
 31
0.0
  0
LINE
  5
1046
  8
TITLE
 10
166.88024637822889
 20
37.985955697536909
 30
0.0
 11
167.76120388414401
 21
38.866913203454772
 31
0.0
  0
LINE
  5
1047
  8
TITLE
 10
166.88024637822889
 20
37.898670824889749
 30
0.0
 11
167.84848875679091
 21
38.866913203454772
 31
0.0
  0
LINE
  5
1048
  8
TITLE
 10
166.88024637822889
 20
38.073240570183742
 30
0.0
 11
167.7160621819707
 21
38.909056373925303
 31
0.0
  0
LINE
  5
1049
  8
TITLE
 10
166.88024637822889
 20
38.160525442827208
 30
0.0
 11
167.7160621819707
 21
38.996341246572747
 31
0.0
  0
LINE
  5
104A
  8
TITLE
 10
166.88024637822889
 20
39.120659041938779
 30
0.0
 11
167.61487558764861
 21
39.855288251358182
 31
0.0
  0
LINE
  5
104B
  8
TITLE
 10
166.88024637822889
 20
39.03337416929196
 30
0.0
 11
167.70216046028861
 21
39.855288251358182
 31
0.0
  0
LINE
  5
104C
  8
TITLE
 10
166.88024637822889
 20
39.557083405174701
 30
0.0
 11
167.17845122441301
 21
39.855288251358182
 31
0.0
  0
LINE
  5
104D
  8
TITLE
 10
166.88024637822889
 20
39.469798532527541
 30
0.0
 11
167.26573609706011
 21
39.855288251358182
 31
0.0
  0
LINE
  5
104E
  8
TITLE
 10
166.88024637822889
 20
39.382513659880232
 30
0.0
 11
167.35302096970719
 21
39.855288251358182
 31
0.0
  0
LINE
  5
104F
  8
TITLE
 10
166.88024637822889
 20
39.295228787233498
 30
0.0
 11
167.44030584235409
 21
39.855288251358182
 31
0.0
  0
LINE
  5
1050
  8
TITLE
 10
166.88024637822889
 20
39.207943914586103
 30
0.0
 11
167.52759071500159
 21
39.855288251358182
 31
0.0
  0
LINE
  5
1051
  8
TITLE
 10
166.88024637822889
 20
39.644368277821812
 30
0.0
 11
167.09116635176571
 21
39.855288251358182
 31
0.0
  0
LINE
  5
1052
  8
TITLE
 10
166.88024637822889
 20
39.818938023112757
 30
0.0
 11
166.9165966064715
 21
39.855288251358182
 31
0.0
  0
LINE
  5
1053
  8
TITLE
 10
166.88024637822889
 20
39.731653150465718
 30
0.0
 11
167.0038814791186
 21
39.855288251358182
 31
0.0
  0
LINE
  5
1054
  8
TITLE
 10
168.73471248846241
 20
39.665852062478848
 30
0.0
 11
168.92414867734161
 21
39.855288251358182
 31
0.0
  0
LINE
  5
1055
  8
TITLE
 10
168.73471248846241
 20
39.840421807769623
 30
0.0
 11
168.7495789320472
 21
39.855288251358182
 31
0.0
  0
LINE
  5
1056
  8
TITLE
 10
168.73471248846241
 20
39.753136935122782
 30
0.0
 11
168.83686380469439
 21
39.855288251358182
 31
0.0
  0
LINE
  5
1057
  8
TITLE
 10
164.95102955353519
 20
38.762569924883309
 30
0.0
 11
165.6031747373132
 21
39.414715108664687
 31
0.0
  0
LINE
  5
1058
  8
TITLE
 10
165.03831442618261
 20
38.762569924883309
 30
0.0
 11
165.67874446463281
 21
39.40299996332979
 31
0.0
  0
LINE
  5
1059
  8
TITLE
 10
165.12559929882269
 20
38.762569924883309
 30
0.0
 11
165.67874446463281
 21
39.315715090686012
 31
0.0
  0
LINE
  5
105A
  8
TITLE
 10
165.2128841714696
 20
38.762569924883309
 30
0.0
 11
165.67874446463281
 21
39.228430218039172
 31
0.0
  0
LINE
  5
105B
  8
TITLE
 10
165.3001690441169
 20
38.762569924883309
 30
0.0
 11
165.67874446463281
 21
39.141145345395358
 31
0.0
  0
LINE
  5
105C
  8
TITLE
 10
165.38745391676389
 20
38.762569924883309
 30
0.0
 11
165.67874446463281
 21
39.053860472748262
 31
0.0
  0
LINE
  5
105D
  8
TITLE
 10
165.5620236620581
 20
38.762569924883309
 30
0.0
 11
165.67874446463281
 21
38.879290727453792
 31
0.0
  0
LINE
  5
105E
  8
TITLE
 10
165.64930853470551
 20
38.762569924883309
 30
0.0
 11
165.67874446463281
 21
38.792005854806959
 31
0.0
  0
LINE
  5
105F
  8
TITLE
 10
166.14890766670791
 20
38.825744693652837
 30
0.0
 11
166.19007617650959
 21
38.866913203454772
 31
0.0
  0
LINE
  5
1060
  8
TITLE
 10
166.14890766670791
 20
38.738459821005847
 30
0.0
 11
166.27736104915689
 21
38.866913203454772
 31
0.0
  0
LINE
  5
1061
  8
TITLE
 10
165.47473878941111
 20
38.762569924883309
 30
0.0
 11
165.67874446463281
 21
38.966575600101081
 31
0.0
  0
LINE
  5
1062
  8
TITLE
 10
165.00718737052711
 20
37.771309270119687
 30
0.0
 11
165.50099165564399
 21
38.265113555233143
 31
0.0
  0
LINE
  5
1063
  8
TITLE
 10
165.09447224317461
 20
37.771309270119687
 30
0.0
 11
165.50099165564399
 21
38.177828682585712
 31
0.0
  0
LINE
  5
1064
  8
TITLE
 10
164.91990249788
 20
37.771309270119687
 30
0.0
 11
165.4937902841917
 21
38.34519705643126
 31
0.0
  0
LINE
  5
1065
  8
TITLE
 10
165.18175711582131
 20
37.771309270119687
 30
0.0
 11
165.50099165564399
 21
38.090543809941892
 31
0.0
  0
LINE
  5
1066
  8
TITLE
 10
165.26904198846901
 20
37.771309270119687
 30
0.0
 11
165.50099165564399
 21
38.003258937294618
 31
0.0
  0
LINE
  5
1067
  8
TITLE
 10
165.3563268611089
 20
37.771309270119687
 30
0.0
 11
165.50099165564399
 21
37.915974064647742
 31
0.0
  0
LINE
  5
1068
  8
TITLE
 10
165.44361173375569
 20
37.771309270119687
 30
0.0
 11
165.50099165564399
 21
37.828689192000468
 31
0.0
  0
LINE
  5
1069
  8
TITLE
 10
166.14890766670791
 20
38.476605203068061
 30
0.0
 11
166.53921566709801
 21
38.866913203454772
 31
0.0
  0
LINE
  5
106A
  8
TITLE
 10
166.14890766670791
 20
38.389320330420759
 30
0.0
 11
166.626500539738
 21
38.866913203454772
 31
0.0
  0
LINE
  5
106B
  8
TITLE
 10
166.14890766670791
 20
38.302035457777301
 30
0.0
 11
166.71378541238519
 21
38.866913203454772
 31
0.0
  0
LINE
  5
106C
  8
TITLE
 10
166.14890766670791
 20
38.563890075711441
 30
0.0
 11
166.45193079445099
 21
38.866913203454772
 31
0.0
  0
LINE
  5
106D
  8
TITLE
 10
166.14890766670791
 20
38.651174948358559
 30
0.0
 11
166.3646459218036
 21
38.866913203454772
 31
0.0
  0
LINE
  5
106E
  8
TITLE
 10
166.21012421571581
 20
38.188682261491067
 30
0.0
 11
167.7160621819707
 21
39.694620227746263
 31
0.0
  0
LINE
  5
106F
  8
TITLE
 10
166.29740908836271
 20
38.188682261491067
 30
0.0
 11
167.7160621819707
 21
39.607335355098833
 31
0.0
  0
LINE
  5
1070
  8
TITLE
 10
166.38469396100999
 20
38.188682261487429
 30
0.0
 11
167.7160621819707
 21
39.520050482451673
 31
0.0
  0
LINE
  5
1071
  8
TITLE
 10
166.471978833657
 20
38.188682261487429
 30
0.0
 11
167.7160621819707
 21
39.432765609804363
 31
0.0
  0
LINE
  5
1072
  8
TITLE
 10
166.55926370629729
 20
38.188682261487429
 30
0.0
 11
167.7160621819707
 21
39.34548073715753
 31
0.0
  0
LINE
  5
1073
  8
TITLE
 10
166.64654857894459
 20
38.188682261487429
 30
0.0
 11
167.7160621819707
 21
39.25819586451022
 31
0.0
  0
LINE
  5
1074
  8
TITLE
 10
166.73383345159169
 20
38.188682261487429
 30
0.0
 11
167.7160621819707
 21
39.170910991863217
 31
0.0
  0
LINE
  5
1075
  8
TITLE
 10
166.14890766670791
 20
38.214750585130112
 30
0.0
 11
166.80107028503261
 21
38.866913203454772
 31
0.0
  0
LINE
  5
1076
  8
TITLE
 10
166.88024637822889
 20
35.716549008728791
 30
0.0
 11
167.7160621819707
 21
36.552364812469762
 31
0.0
  0
LINE
  5
1077
  8
TITLE
 10
166.88024637822889
 20
35.629264136081481
 30
0.0
 11
167.7160621819707
 21
36.465079939822793
 31
0.0
  0
LINE
  5
1078
  8
TITLE
 10
166.88024637822889
 20
35.541979263434662
 30
0.0
 11
167.7160621819707
 21
36.377795067175612
 31
0.0
  0
LINE
  5
1079
  8
TITLE
 10
166.88024637822889
 20
35.454694390787218
 30
0.0
 11
167.7160621819707
 21
36.29051019453216
 31
0.0
  0
LINE
  5
107A
  8
TITLE
 10
166.88024637822889
 20
35.367409518143873
 30
0.0
 11
167.7160621819707
 21
36.203225321884858
 31
0.0
  0
LINE
  5
107B
  8
TITLE
 10
166.88024637822889
 20
35.280124645496443
 30
0.0
 11
167.7160621819707
 21
36.115940449241783
 31
0.0
  0
LINE
  5
107C
  8
TITLE
 10
166.88024637822889
 20
35.192839772849283
 30
0.0
 11
167.7160621819707
 21
36.028655576594218
 31
0.0
  0
LINE
  5
107D
  8
TITLE
 10
166.88024637822889
 20
35.978403626670229
 30
0.0
 11
167.7160621819707
 21
36.8142194304112
 31
0.0
  0
LINE
  5
107E
  8
TITLE
 10
166.88024637822889
 20
35.891118754023239
 30
0.0
 11
167.7160621819707
 21
36.726934557764231
 31
0.0
  0
LINE
  5
107F
  8
TITLE
 10
166.88024637822889
 20
35.803833881376079
 30
0.0
 11
167.7160621819707
 21
36.63964968511705
 31
0.0
  0
LINE
  5
1080
  8
TITLE
 10
166.88024637822889
 20
34.843700282264237
 30
0.0
 11
167.7160621819707
 21
35.679516086005798
 31
0.0
  0
LINE
  5
1081
  8
TITLE
 10
166.88024637822889
 20
34.756415409617077
 30
0.0
 11
167.7160621819707
 21
35.592231213358382
 31
0.0
  0
LINE
  5
1082
  8
TITLE
 10
166.88024637822889
 20
34.669130536970101
 30
0.0
 11
167.7160621819707
 21
35.504946340711228
 31
0.0
  0
LINE
  5
1083
  8
TITLE
 10
166.88024637822889
 20
34.581845664322799
 30
0.0
 11
167.7160621819707
 21
35.417661468067692
 31
0.0
  0
LINE
  5
1084
  8
TITLE
 10
166.88024637822889
 20
34.494560791675639
 30
0.0
 11
167.7160621819707
 21
35.33037659542083
 31
0.0
  0
LINE
  5
1085
  8
TITLE
 10
166.88024637822889
 20
34.407275919032159
 30
0.0
 11
167.7160621819707
 21
35.243091722773727
 31
0.0
  0
LINE
  5
1086
  8
TITLE
 10
166.88024637822889
 20
34.319991046384871
 30
0.0
 11
167.7160621819707
 21
35.155806850130197
 31
0.0
  0
LINE
  5
1087
  8
TITLE
 10
166.93820456857591
 20
34.290664364088187
 30
0.0
 11
167.7160621819707
 21
35.068521977482902
 31
0.0
  0
LINE
  5
1088
  8
TITLE
 10
167.02548944122341
 20
34.290664364088187
 30
0.0
 11
167.7160621819707
 21
34.9812371048356
 31
0.0
  0
LINE
  5
1089
  8
TITLE
 10
167.1127743138702
 20
34.290664364088187
 30
0.0
 11
167.7160621819707
 21
34.893952232188369
 31
0.0
  0
LINE
  5
108A
  8
TITLE
 10
167.20005918651739
 20
34.290664364088187
 30
0.0
 11
167.7160621819707
 21
34.806667359541478
 31
0.0
  0
LINE
  5
108B
  8
TITLE
 10
167.28734405916501
 20
34.290664364088187
 30
0.0
 11
167.7160621819707
 21
34.719382486894027
 31
0.0
  0
LINE
  5
108C
  8
TITLE
 10
167.37462893181171
 20
34.290664364088187
 30
0.0
 11
167.7160621819707
 21
34.63209761424681
 31
0.0
  0
LINE
  5
108D
  8
TITLE
 10
167.46191380445899
 20
34.290664364088187
 30
0.0
 11
167.7160621819707
 21
34.544812741599912
 31
0.0
  0
LINE
  5
108E
  8
TITLE
 10
167.54919867710629
 20
34.290664364088187
 30
0.0
 11
167.7160621819707
 21
34.45752786895612
 31
0.0
  0
LINE
  5
108F
  8
TITLE
 10
167.63648354975319
 20
34.290664364088187
 30
0.0
 11
167.7160621819707
 21
34.3702429963094
 31
0.0
  0
LINE
  5
1090
  8
TITLE
 10
166.88024637822889
 20
35.10555490020581
 30
0.0
 11
167.7160621819707
 21
35.941370703947172
 31
0.0
  0
LINE
  5
1091
  8
TITLE
 10
166.88024637822889
 20
35.018270027558628
 30
0.0
 11
167.7160621819707
 21
35.85408583129994
 31
0.0
  0
LINE
  5
1092
  8
TITLE
 10
166.88024637822889
 20
34.930985154911809
 30
0.0
 11
167.7160621819707
 21
35.766800958652659
 31
0.0
  0
LINE
  5
1093
  8
TITLE
 10
167.7520785339612
 20
36.850235782398528
 30
0.0
 11
168.1862085132
 21
37.28436576164097
 31
0.0
  0
LINE
  5
1094
  8
TITLE
 10
167.80073655151401
 20
36.811608927311198
 30
0.0
 11
168.1862085132
 21
37.197080888993852
 31
0.0
  0
LINE
  5
1095
  8
TITLE
 10
167.85035882454761
 20
36.773946327693892
 30
0.0
 11
168.1862085132
 21
37.109796016346849
 31
0.0
  0
LINE
  5
1096
  8
TITLE
 10
166.88024637822889
 20
36.152973371960869
 30
0.0
 11
168.1862085132
 21
37.458935506931908
 31
0.0
  0
LINE
  5
1097
  8
TITLE
 10
166.88024637822889
 20
36.065688499317389
 30
0.0
 11
168.1862085132
 21
37.371650634284492
 31
0.0
  0
LINE
  5
1098
  8
TITLE
 10
167.90095402853569
 20
36.737256659035097
 30
0.0
 11
168.1862085132
 21
37.022511143699717
 31
0.0
  0
LINE
  5
1099
  8
TITLE
 10
167.95253238190679
 20
36.701550139762901
 30
0.0
 11
168.1862085132
 21
36.935226271052287
 31
0.0
  0
LINE
  5
109A
  8
TITLE
 10
168.00510572374489
 20
36.666838608949767
 30
0.0
 11
168.1862085132
 21
36.84794139840514
 31
0.0
  0
LINE
  5
109B
  8
TITLE
 10
168.05868760605091
 20
36.633135618608691
 30
0.0
 11
168.1862085132
 21
36.760656525758279
 31
0.0
  0
LINE
  5
109C
  8
TITLE
 10
168.11329340231919
 20
36.600456542236842
 30
0.0
 11
168.1862085132
 21
36.673371653110848
 31
0.0
  0
LINE
  5
109D
  8
TITLE
 10
168.16894043453581
 20
36.568818701806208
 30
0.0
 11
168.1862085132
 21
36.586086780467333
 31
0.0
  0
LINE
  5
109E
  8
TITLE
 10
164.94493325921621
 20
35.788787960585822
 30
0.0
 11
165.44056352514571
 21
36.284418226511491
 31
0.0
  0
LINE
  5
109F
  8
TITLE
 10
165.0322181318636
 20
35.788787960585822
 30
0.0
 11
165.52784839778539
 21
36.284418226511491
 31
0.0
  0
LINE
  5
10A0
  8
TITLE
 10
165.1195030045107
 20
35.788787960585822
 30
0.0
 11
165.61513327043249
 21
36.284418226511491
 31
0.0
  0
LINE
  5
10A1
  8
TITLE
 10
165.20678787715781
 20
35.788787960585822
 30
0.0
 11
165.67874446463281
 21
36.260744548060757
 31
0.0
  0
LINE
  5
10A2
  8
TITLE
 10
165.29407274980491
 20
35.788787960585822
 30
0.0
 11
165.67874446463281
 21
36.173459675413781
 31
0.0
  0
LINE
  5
10A3
  8
TITLE
 10
165.38135762245221
 20
35.788787960585822
 30
0.0
 11
165.67874446463281
 21
36.086174802766493
 31
0.0
  0
LINE
  5
10A4
  8
TITLE
 10
165.4686424950992
 20
35.788787960585822
 30
0.0
 11
165.67874446463281
 21
35.998889930119191
 31
0.0
  0
LINE
  5
10A5
  8
TITLE
 10
164.921333926991
 20
34.368630666013232
 30
0.0
 11
165.53283111992289
 21
34.980127858948741
 31
0.0
  0
LINE
  5
10A6
  8
TITLE
 10
164.99182322103519
 20
34.35183508741747
 30
0.0
 11
165.62011599256971
 21
34.980127858948741
 31
0.0
  0
LINE
  5
10A7
  8
TITLE
 10
165.06405999876131
 20
34.336786992492449
 30
0.0
 11
165.67874446463281
 21
34.951471458360643
 31
0.0
  0
LINE
  5
10A8
  8
TITLE
 10
165.13814615752321
 20
34.32358827861087
 30
0.0
 11
165.67874446463281
 21
34.864186585713213
 31
0.0
  0
LINE
  5
10A9
  8
TITLE
 10
165.21419909690059
 20
34.312356345341712
 30
0.0
 11
165.67874446463281
 21
34.776901713070018
 31
0.0
  0
LINE
  5
10AA
  8
TITLE
 10
165.29235500095959
 20
34.303227376756702
 30
0.0
 11
165.67874446463281
 21
34.689616840422723
 31
0.0
  0
LINE
  5
10AB
  8
TITLE
 10
165.37277310049609
 20
34.296360603642697
 30
0.0
 11
165.67874446463281
 21
34.602331967779193
 31
0.0
  0
LINE
  5
10AC
  8
TITLE
 10
165.45564129791759
 20
34.29194392841675
 30
0.0
 11
165.67874446463281
 21
34.515047095132218
 31
0.0
  0
LINE
  5
10AD
  8
TITLE
 10
165.54164660623599
 20
34.290664364088187
 30
0.0
 11
165.67874446463281
 21
34.427762222485228
 31
0.0
  0
LINE
  5
10AE
  8
TITLE
 10
165.6289314788832
 20
34.290664364088187
 30
0.0
 11
165.67874446463281
 21
34.340477349837798
 31
0.0
  0
LINE
  5
10AF
  8
TITLE
 10
165.55592736774659
 20
35.788787960585822
 30
0.0
 11
165.67874446463281
 21
35.911605057472229
 31
0.0
  0
LINE
  5
10B0
  8
TITLE
 10
165.64321224039381
 20
35.788787960585822
 30
0.0
 11
165.67874446463281
 21
35.824320184824927
 31
0.0
  0
LINE
  5
10B1
  8
TITLE
 10
164.94997455668579
 20
36.75396285716694
 30
0.0
 11
165.471690703717
 21
37.275679004194131
 31
0.0
  0
LINE
  5
10B2
  8
TITLE
 10
165.03725942933301
 20
36.75396285716694
 30
0.0
 11
165.50099165564399
 21
37.217695083474112
 31
0.0
  0
LINE
  5
10B3
  8
TITLE
 10
165.12454430198031
 20
36.75396285716694
 30
0.0
 11
165.50099165564399
 21
37.130410210830192
 31
0.0
  0
LINE
  5
10B4
  8
TITLE
 10
165.21182917462761
 20
36.75396285716694
 30
0.0
 11
165.50099165564399
 21
37.043125338183224
 31
0.0
  0
LINE
  5
10B5
  8
TITLE
 10
165.2991140472746
 20
36.75396285716694
 30
0.0
 11
165.50099165564399
 21
36.955840465536063
 31
0.0
  0
LINE
  5
10B6
  8
TITLE
 10
165.38639891992159
 20
36.75396285716694
 30
0.0
 11
165.50099165564399
 21
36.868555592888761
 31
0.0
  0
LINE
  5
10B7
  8
TITLE
 10
165.47368379256889
 20
36.75396285716694
 30
0.0
 11
165.50099165564399
 21
36.781270720241913
 31
0.0
  0
LINE
  5
10B8
  8
TITLE
 10
166.14890766670791
 20
36.643622877492049
 30
0.0
 11
166.24534904758769
 21
36.740064258368719
 31
0.0
  0
LINE
  5
10B9
  8
TITLE
 10
166.14890766670791
 20
35.770774151027581
 30
0.0
 11
167.98040322839461
 21
37.602269712715099
 31
0.0
  0
LINE
  5
10BA
  8
TITLE
 10
166.14890766670791
 20
35.683489278380762
 30
0.0
 11
168.03230855200201
 21
37.566890163671232
 31
0.0
  0
LINE
  5
10BB
  8
TITLE
 10
166.31078574890671
 20
35.758082487936207
 30
0.0
 11
168.08797630903371
 21
37.535273048055728
 31
0.0
  0
LINE
  5
10BC
  8
TITLE
 10
166.55378948934509
 20
35.913801355720238
 30
0.0
 11
168.1476744427795
 21
37.507686309158323
 31
0.0
  0
LINE
  5
10BD
  8
TITLE
 10
166.14890766670791
 20
35.945343896318413
 30
0.0
 11
167.88727696339231
 21
37.683713193003229
 31
0.0
  0
LINE
  5
10BE
  8
TITLE
 10
166.14890766670791
 20
35.85805902367126
 30
0.0
 11
167.93208994968251
 21
37.641241306653399
 31
0.0
  0
LINE
  5
10BF
  8
TITLE
 10
166.6484898449196
 20
37.143205055700278
 30
0.0
 11
168.1862085132
 21
38.680923723981152
 31
0.0
  0
LINE
  5
10C0
  8
TITLE
 10
166.14890766670791
 20
36.556338004845031
 30
0.0
 11
167.7160621819707
 21
38.123492520108272
 31
0.0
  0
LINE
  5
10C1
  8
TITLE
 10
166.14890766670791
 20
36.469053132201239
 30
0.0
 11
167.7160621819707
 21
38.036207647460849
 31
0.0
  0
LINE
  5
10C2
  8
TITLE
 10
166.14890766670791
 20
36.381768259553979
 30
0.0
 11
167.71742509289189
 21
37.950285685731529
 31
0.0
  0
LINE
  5
10C3
  8
TITLE
 10
166.14890766670791
 20
36.294483386906961
 30
0.0
 11
167.74361771013321
 21
37.889193430325591
 31
0.0
  0
LINE
  5
10C4
  8
TITLE
 10
166.14890766670791
 20
36.207198514259858
 30
0.0
 11
167.7739543609519
 21
37.83224520850419
 31
0.0
  0
LINE
  5
10C5
  8
TITLE
 10
166.14890766670791
 20
36.119913641612811
 30
0.0
 11
167.8081289049378
 21
37.779134879839162
 31
0.0
  0
LINE
  5
10C6
  8
TITLE
 10
166.14890766670791
 20
36.032628768965722
 30
0.0
 11
167.84594176974591
 21
37.72966287200795
 31
0.0
  0
LINE
  5
10C7
  8
TITLE
 10
168.42128167881481
 20
37.432154054604801
 30
0.0
 11
168.76043689432601
 21
37.771309270119687
 31
0.0
  0
LINE
  5
10C8
  8
TITLE
 10
168.42128167881481
 20
37.344869181961258
 30
0.0
 11
168.84772176697311
 21
37.771309270119687
 31
0.0
  0
LINE
  5
10C9
  8
TITLE
 10
168.42128167881481
 20
37.257584309314161
 30
0.0
 11
168.93500663962061
 21
37.771309270119687
 31
0.0
  0
LINE
  5
10CA
  8
TITLE
 10
168.42128167881481
 20
37.519438927252082
 30
0.0
 11
168.6731520216789
 21
37.771309270119687
 31
0.0
  0
LINE
  5
10CB
  8
TITLE
 10
168.42128167881481
 20
37.694008672542743
 30
0.0
 11
168.49858227638461
 21
37.771309270119687
 31
0.0
  0
LINE
  5
10CC
  8
TITLE
 10
168.42128167881481
 20
37.606723799899527
 30
0.0
 11
168.58586714903171
 21
37.771309270119687
 31
0.0
  0
LINE
  5
10CD
  8
TITLE
 10
166.8712511458296
 20
37.62782097455586
 30
0.0
 11
168.11034337473251
 21
38.866913203454772
 31
0.0
  0
LINE
  5
10CE
  8
TITLE
 10
166.8317516961751
 20
37.501036652250349
 30
0.0
 11
168.1862085132
 21
38.855493469275302
 31
0.0
  0
LINE
  5
10CF
  8
TITLE
 10
166.76888234873891
 20
37.350882432170813
 30
0.0
 11
168.1862085132
 21
38.76820859662827
 31
0.0
  0
LINE
  5
10D0
  8
TITLE
 10
172.29475386004361
 20
38.948934674385441
 30
0.0
 11
172.47359021679659
 21
39.127771031131147
 31
0.0
  0
LINE
  5
10D1
  8
TITLE
 10
172.29475386004361
 20
38.861649801738253
 30
0.0
 11
172.56087508943659
 21
39.127771031131147
 31
0.0
  0
LINE
  5
10D2
  8
TITLE
 10
172.29475386004361
 20
38.774364929091291
 30
0.0
 11
172.64815996208389
 21
39.127771031131147
 31
0.0
  0
LINE
  5
10D3
  8
TITLE
 10
172.29475386004361
 20
38.425225438502707
 30
0.0
 11
172.99729945267231
 21
39.127771031131147
 31
0.0
  0
LINE
  5
10D4
  8
TITLE
 10
172.38026762517001
 20
38.423454330981968
 30
0.0
 11
173.08458432531941
 21
39.127771031131147
 31
0.0
  0
LINE
  5
10D5
  8
TITLE
 10
170.9395690772057
 20
38.553883490655153
 30
0.0
 11
171.51345686351681
 21
39.127771276966712
 31
0.0
  0
LINE
  5
10D6
  8
TITLE
 10
170.85228420455829
 20
38.553883490655153
 30
0.0
 11
171.4261719908697
 21
39.127771276966712
 31
0.0
  0
LINE
  5
10D7
  8
TITLE
 10
171.288708567794
 20
38.553883490655153
 30
0.0
 11
171.84290230430381
 21
39.108077227168877
 31
0.0
  0
LINE
  5
10D8
  8
TITLE
 10
171.02685394985249
 20
38.553883490655153
 30
0.0
 11
171.6007417361638
 21
39.127771276966712
 31
0.0
  0
LINE
  5
10D9
  8
TITLE
 10
171.1141388224998
 20
38.553883490655153
 30
0.0
 11
171.6880266088109
 21
39.127771276966712
 31
0.0
  0
LINE
  5
10DA
  8
TITLE
 10
171.20142369514679
 20
38.553883490655153
 30
0.0
 11
171.7753114814582
 21
39.127771276966712
 31
0.0
  0
LINE
  5
10DB
  8
TITLE
 10
172.29475386004361
 20
38.599795183796829
 30
0.0
 11
172.8227297073779
 21
39.127771031131147
 31
0.0
  0
LINE
  5
10DC
  8
TITLE
 10
172.29475386004361
 20
38.512510311149732
 30
0.0
 11
172.91001458002501
 21
39.127771031131147
 31
0.0
  0
LINE
  5
10DD
  8
TITLE
 10
172.29475386004361
 20
38.687080056444273
 30
0.0
 11
172.73544483473091
 21
39.127771031131147
 31
0.0
  0
LINE
  5
10DE
  8
TITLE
 10
171.72513293102239
 20
38.553883490655153
 30
0.0
 11
171.84290230430381
 21
38.671652863940118
 31
0.0
  0
LINE
  5
10DF
  8
TITLE
 10
171.81241780366969
 20
38.553883490655153
 30
0.0
 11
171.84290230430381
 21
38.584367991292879
 31
0.0
  0
LINE
  5
10E0
  8
TITLE
 10
171.55056318572829
 20
38.553883490655153
 30
0.0
 11
171.84290230430381
 21
38.846222609234253
 31
0.0
  0
LINE
  5
10E1
  8
TITLE
 10
171.6378480583754
 20
38.553883490655153
 30
0.0
 11
171.84290230430381
 21
38.758937736587001
 31
0.0
  0
LINE
  5
10E2
  8
TITLE
 10
171.37599344044091
 20
38.553883490655153
 30
0.0
 11
171.84290230430381
 21
39.020792354525362
 31
0.0
  0
LINE
  5
10E3
  8
TITLE
 10
171.46327831308091
 20
38.553883490655153
 30
0.0
 11
171.84290230430381
 21
38.933507481878067
 31
0.0
  0
LINE
  5
10E4
  8
TITLE
 10
172.29475386004361
 20
39.123504419676458
 30
0.0
 11
172.29902047150219
 21
39.127771031131147
 31
0.0
  0
LINE
  5
10E5
  8
TITLE
 10
172.29475386004361
 20
39.036219547032999
 30
0.0
 11
172.3863053441496
 21
39.127771031131147
 31
0.0
  0
LINE
  5
10E6
  8
TITLE
 10
170.86261134974089
 20
35.421955220565913
 30
0.0
 11
171.4656565218045
 21
36.025000392629067
 31
0.0
  0
LINE
  5
10E7
  8
TITLE
 10
170.90008524639589
 20
35.372144244569803
 30
0.0
 11
171.4993828035727
 21
35.971441801750068
 31
0.0
  0
LINE
  5
10E8
  8
TITLE
 10
170.93844192058091
 20
35.323216046111227
 30
0.0
 11
171.53400542069971
 21
35.91877954623024
 31
0.0
  0
LINE
  5
10E9
  8
TITLE
 10
170.97767502278239
 20
35.275164275665887
 30
0.0
 11
171.56951355658151
 21
35.867002809471757
 31
0.0
  0
LINE
  5
10EA
  8
TITLE
 10
171.2312581249497
 20
35.005038141950102
 30
0.0
 11
171.80069827838571
 21
35.57447829538917
 31
0.0
  0
LINE
  5
10EB
  8
TITLE
 10
171.27653760769459
 20
34.963032752054467
 30
0.0
 11
171.8421973870102
 21
35.528692531370211
 31
0.0
  0
LINE
  5
10EC
  8
TITLE
 10
171.41756898201169
 20
34.842209508430713
 30
0.0
 11
171.84290230430381
 21
35.267542830726057
 31
0.0
  0
LINE
  5
10ED
  8
TITLE
 10
171.32268044736821
 20
34.921890719081169
 30
0.0
 11
171.84290230430381
 21
35.442112576020477
 31
0.0
  0
LINE
  5
10EE
  8
TITLE
 10
171.36968958048749
 20
34.881614979553433
 30
0.0
 11
171.84290230430381
 21
35.354827703373189
 31
0.0
  0
LINE
  5
10EF
  8
TITLE
 10
171.01777930280289
 20
35.227983683042439
 30
0.0
 11
171.6058976053564
 21
35.816101985592439
 31
0.0
  0
LINE
  5
10F0
  8
TITLE
 10
171.05875057807589
 20
35.18167008566472
 30
0.0
 11
171.64314911252211
 21
35.766068620114702
 31
0.0
  0
LINE
  5
10F1
  8
TITLE
 10
171.10058570864501
 20
35.1362203435868
 30
0.0
 11
171.68126072388401
 21
35.716895358825766
 31
0.0
  0
LINE
  5
10F2
  8
TITLE
 10
171.14328257862149
 20
35.091632340923709
 30
0.0
 11
171.72022614195561
 21
35.668575904249913
 31
0.0
  0
LINE
  5
10F3
  8
TITLE
 10
171.1868400837532
 20
35.047904973407753
 30
0.0
 11
171.76004008932949
 21
35.621104978976859
 31
0.0
  0
LINE
  5
10F4
  8
TITLE
 10
172.29475386004361
 20
34.759260787354151
 30
0.0
 11
172.68730457385689
 21
35.151811501164246
 31
0.0
  0
LINE
  5
10F5
  8
TITLE
 10
172.29475386004361
 20
34.67197591470719
 30
0.0
 11
172.77988720518059
 21
35.157109259844063
 31
0.0
  0
LINE
  5
10F6
  8
TITLE
 10
172.29475386004361
 20
34.58469104206003
 30
0.0
 11
172.87310449274869
 21
35.16304167476153
 31
0.0
  0
LINE
  5
10F7
  8
TITLE
 10
172.29475386004361
 20
34.49740616941655
 30
0.0
 11
172.96697047316371
 21
35.169622782536791
 31
0.0
  0
LINE
  5
10F8
  8
TITLE
 10
172.29475386004361
 20
34.410121296769248
 30
0.0
 11
173.06149979207501
 21
35.17686722879391
 31
0.0
  0
LINE
  5
10F9
  8
TITLE
 10
172.29475386004361
 20
34.84654565999783
 30
0.0
 11
172.59534313633139
 21
35.147134936285887
 31
0.0
  0
LINE
  5
10FA
  8
TITLE
 10
171.466323689072
 20
34.803679342843701
 30
0.0
 11
171.84290230430381
 21
35.180257958082692
 31
0.0
  0
LINE
  5
10FB
  8
TITLE
 10
171.51595983130909
 20
34.766030612433262
 30
0.0
 11
171.84290230430381
 21
35.092973085435368
 31
0.0
  0
LINE
  5
10FC
  8
TITLE
 10
171.5664846683537
 20
34.729270576834438
 30
0.0
 11
171.84290230430381
 21
35.005688212788272
 31
0.0
  0
LINE
  5
10FD
  8
TITLE
 10
171.670235394348
 20
34.658451557534477
 30
0.0
 11
171.84290230430381
 21
34.831118467494122
 31
0.0
  0
LINE
  5
10FE
  8
TITLE
 10
171.7234819009966
 20
34.624413191532973
 30
0.0
 11
171.84290230430381
 21
34.743833594846834
 31
0.0
  0
LINE
  5
10FF
  8
TITLE
 10
171.8327788769507
 20
34.559140422195803
 30
0.0
 11
171.84290230430381
 21
34.569263849552428
 31
0.0
  0
LINE
  5
1100
  8
TITLE
 10
171.7776584731487
 20
34.591304891044459
 30
0.0
 11
171.84290230430381
 21
34.656548722199531
 31
0.0
  0
LINE
  5
1101
  8
TITLE
 10
171.61790663494361
 20
34.693407670773951
 30
0.0
 11
171.84290230430381
 21
34.918403340141111
 31
0.0
  0
LINE
  5
1102
  8
TITLE
 10
172.29475386004361
 20
35.108400277939268
 30
0.0
 11
172.323059312613
 21
35.13670573050932
 31
0.0
  0
LINE
  5
1103
  8
TITLE
 10
172.29475386004361
 20
35.021115405292221
 30
0.0
 11
172.4132326723518
 21
35.139594217600582
 31
0.0
  0
LINE
  5
1104
  8
TITLE
 10
172.29475386004361
 20
34.933830532644983
 30
0.0
 11
172.50398997204601
 21
35.143066644650858
 31
0.0
  0
LINE
  5
1105
  8
TITLE
 10
171.302718765105
 20
37.171335725622228
 30
0.0
 11
171.84290230430381
 21
37.711519264828389
 31
0.0
  0
LINE
  5
1106
  8
TITLE
 10
171.390003637745
 20
37.171335725622228
 30
0.0
 11
171.84290230430381
 21
37.624234392181577
 31
0.0
  0
LINE
  5
1107
  8
TITLE
 10
172.4514693816252
 20
37.534522488326047
 30
0.0
 11
172.63608440120851
 21
37.719137507916329
 31
0.0
  0
LINE
  5
1108
  8
TITLE
 10
172.4514693816252
 20
37.44723761567878
 30
0.0
 11
172.72336927385589
 21
37.719137507916329
 31
0.0
  0
LINE
  5
1109
  8
TITLE
 10
172.4514693816252
 20
37.359952743031499
 30
0.0
 11
172.8106541465028
 21
37.719137507916329
 31
0.0
  0
LINE
  5
110A
  8
TITLE
 10
172.4514693816252
 20
37.272667870387863
 30
0.0
 11
172.89793901914999
 21
37.719137507916329
 31
0.0
  0
LINE
  5
110B
  8
TITLE
 10
172.4514693816252
 20
37.185382997741158
 30
0.0
 11
172.9852238917972
 21
37.719137507916329
 31
0.0
  0
LINE
  5
110C
  8
TITLE
 10
172.4514693816252
 20
37.098098125093721
 30
0.0
 11
173.07250876444451
 21
37.719137507916329
 31
0.0
  0
LINE
  5
110D
  8
TITLE
 10
171.47728851039199
 20
37.171335725622228
 30
0.0
 11
171.84290230430381
 21
37.536949519534289
 31
0.0
  0
LINE
  5
110E
  8
TITLE
 10
171.56457338303909
 20
37.171335725622228
 30
0.0
 11
171.84290230430381
 21
37.449664646886959
 31
0.0
  0
LINE
  5
110F
  8
TITLE
 10
171.65185825568619
 20
37.171335725622228
 30
0.0
 11
171.84290230430381
 21
37.362379774240139
 31
0.0
  0
LINE
  5
1110
  8
TITLE
 10
171.82642800098071
 20
37.171335725622228
 30
0.0
 11
171.84290230430381
 21
37.187810028949343
 31
0.0
  0
LINE
  5
1111
  8
TITLE
 10
171.73914312833341
 20
37.171335725622228
 30
0.0
 11
171.84290230430381
 21
37.275094901592837
 31
0.0
  0
LINE
  5
1112
  8
TITLE
 10
172.4514693816252
 20
37.709092233620211
 30
0.0
 11
172.46151465592141
 21
37.719137507916329
 31
0.0
  0
LINE
  5
1113
  8
TITLE
 10
172.4514693816252
 20
37.621807360973207
 30
0.0
 11
172.54879952856871
 21
37.719137507916329
 31
0.0
  0
LINE
  5
1114
  8
TITLE
 10
171.2154338924577
 20
37.171335725622228
 30
0.0
 11
171.81540743694771
 21
37.771309270119687
 31
0.0
  0
LINE
  5
1115
  8
TITLE
 10
171.04086414716349
 20
37.171335725622228
 30
0.0
 11
171.64083769166061
 21
37.771309270119687
 31
0.0
  0
LINE
  5
1116
  8
TITLE
 10
171.12814901981039
 20
37.171335725622228
 30
0.0
 11
171.72812256430771
 21
37.771309270119687
 31
0.0
  0
LINE
  5
1117
  8
TITLE
 10
169.7533630284633
 20
38.065956423079342
 30
0.0
 11
170.8151778823468
 21
39.127771276966712
 31
0.0
  0
LINE
  5
1118
  8
TITLE
 10
169.7533630284633
 20
38.5023807863152
 30
0.0
 11
170.56305938401781
 21
39.31207714186985
 31
0.0
  0
LINE
  5
1119
  8
TITLE
 10
169.7533630284633
 20
38.415095913668239
 30
0.0
 11
170.56305938401781
 21
39.224792269222696
 31
0.0
  0
LINE
  5
111A
  8
TITLE
 10
169.7533630284633
 20
38.327811041021249
 30
0.0
 11
170.56305938401781
 21
39.137507396575728
 31
0.0
  0
LINE
  5
111B
  8
TITLE
 10
169.7533630284633
 20
38.240526168374089
 30
0.0
 11
170.64060813705271
 21
39.127771276966712
 31
0.0
  0
LINE
  5
111C
  8
TITLE
 10
169.7533630284633
 20
38.153241295726929
 30
0.0
 11
170.7278930096999
 21
39.127771276966712
 31
0.0
  0
LINE
  5
111D
  8
TITLE
 10
169.19387162427671
 20
38.553883490655153
 30
0.0
 11
170.49527638497599
 21
39.855288251358182
 31
0.0
  0
LINE
  5
111E
  8
TITLE
 10
169.28115649692401
 20
38.553883490655153
 30
0.0
 11
170.56305938401781
 21
39.835786377745862
 31
0.0
  0
LINE
  5
111F
  8
TITLE
 10
169.36844136957089
 20
38.553883490655153
 30
0.0
 11
170.56305938401781
 21
39.74850150510207
 31
0.0
  0
LINE
  5
1120
  8
TITLE
 10
169.45572624221791
 20
38.553883490655153
 30
0.0
 11
170.56305938401781
 21
39.661216632454781
 31
0.0
  0
LINE
  5
1121
  8
TITLE
 10
169.54301111486521
 20
38.553883490655153
 30
0.0
 11
170.56305938401781
 21
39.57393175980792
 31
0.0
  0
LINE
  5
1122
  8
TITLE
 10
169.63029598750521
 20
38.553883490655153
 30
0.0
 11
170.56305938401781
 21
39.486646887164142
 31
0.0
  0
LINE
  5
1123
  8
TITLE
 10
169.71758086015259
 20
38.553883490655153
 30
0.0
 11
170.56305938401781
 21
39.399362014516853
 31
0.0
  0
LINE
  5
1124
  8
TITLE
 10
169.7533630284633
 20
39.637084130721249
 30
0.0
 11
169.97156714910031
 21
39.855288251358182
 31
0.0
  0
LINE
  5
1125
  8
TITLE
 10
169.7533630284633
 20
39.549799258074067
 30
0.0
 11
170.05885202174761
 21
39.855288251358182
 31
0.0
  0
LINE
  5
1126
  8
TITLE
 10
169.7533630284633
 20
39.462514385426957
 30
0.0
 11
170.14613689439469
 21
39.855288251358182
 31
0.0
  0
LINE
  5
1127
  8
TITLE
 10
169.7533630284633
 20
39.375229512779804
 30
0.0
 11
170.23342176704151
 21
39.855288251358182
 31
0.0
  0
LINE
  5
1128
  8
TITLE
 10
169.7533630284633
 20
39.28794464013297
 30
0.0
 11
170.32070663968901
 21
39.855288251358182
 31
0.0
  0
LINE
  5
1129
  8
TITLE
 10
169.7533630284633
 20
39.200659767485661
 30
0.0
 11
170.4079915123362
 21
39.855288251358182
 31
0.0
  0
LINE
  5
112A
  8
TITLE
 10
169.7533630284633
 20
39.811653876012002
 30
0.0
 11
169.7969974038059
 21
39.855288251358182
 31
0.0
  0
LINE
  5
112B
  8
TITLE
 10
169.7533630284633
 20
39.724369003365169
 30
0.0
 11
169.88428227645321
 21
39.855288251358182
 31
0.0
  0
LINE
  5
112C
  8
TITLE
 10
169.7533630284633
 20
34.836416135163759
 30
0.0
 11
170.56305938401781
 21
35.64611249071811
 31
0.0
  0
LINE
  5
112D
  8
TITLE
 10
169.7533630284633
 20
34.749131262516499
 30
0.0
 11
170.56305938401781
 21
35.558827618070808
 31
0.0
  0
LINE
  5
112E
  8
TITLE
 10
169.7533630284633
 20
34.661846389869211
 30
0.0
 11
170.56305938401781
 21
35.47154274542369
 31
0.0
  0
LINE
  5
112F
  8
TITLE
 10
169.7533630284633
 20
34.574561517222193
 30
0.0
 11
170.56305938401781
 21
35.38425787277653
 31
0.0
  0
LINE
  5
1130
  8
TITLE
 10
169.7533630284633
 20
34.487276644574948
 30
0.0
 11
170.56305938401781
 21
35.296973000129242
 31
0.0
  0
LINE
  5
1131
  8
TITLE
 10
169.7533630284633
 20
34.399991771931681
 30
0.0
 11
170.56305938401781
 21
35.20968812748562
 31
0.0
  0
LINE
  5
1132
  8
TITLE
 10
169.7533630284633
 20
34.312706899284272
 30
0.0
 11
170.56305938401781
 21
35.12240325483873
 31
0.0
  0
LINE
  5
1133
  8
TITLE
 10
169.8186053659108
 20
34.290664364088187
 30
0.0
 11
170.56305938401781
 21
35.035118382191492
 31
0.0
  0
LINE
  5
1134
  8
TITLE
 10
169.9058902385579
 20
34.290664364088187
 30
0.0
 11
170.56305938401781
 21
34.947833509548097
 31
0.0
  0
LINE
  5
1135
  8
TITLE
 10
169.7533630284633
 20
34.923701007811047
 30
0.0
 11
170.56305938401781
 21
35.733397363365128
 31
0.0
  0
LINE
  5
1136
  8
TITLE
 10
169.99317511120489
 20
34.290664364088187
 30
0.0
 11
170.56305938401781
 21
34.860548636901122
 31
0.0
  0
LINE
  5
1137
  8
TITLE
 10
170.08045998385199
 20
34.290664364088187
 30
0.0
 11
170.56305938401781
 21
34.773263764253826
 31
0.0
  0
LINE
  5
1138
  8
TITLE
 10
170.1677448564993
 20
34.290664364088187
 30
0.0
 11
170.56305938401781
 21
34.685978891606979
 31
0.0
  0
LINE
  5
1139
  8
TITLE
 10
170.2550297291466
 20
34.290664364088187
 30
0.0
 11
170.56305938401781
 21
34.598694018959691
 31
0.0
  0
LINE
  5
113A
  8
TITLE
 10
170.3423146017937
 20
34.290664364088187
 30
0.0
 11
170.56305938401781
 21
34.511409146311813
 31
0.0
  0
LINE
  5
113B
  8
TITLE
 10
170.42959947444081
 20
34.290664364088187
 30
0.0
 11
170.56305938401781
 21
34.424124273664958
 31
0.0
  0
LINE
  5
113C
  8
TITLE
 10
170.51688434708061
 20
34.290664364088187
 30
0.0
 11
170.56305938401781
 21
34.336839401017833
 31
0.0
  0
LINE
  5
113D
  8
TITLE
 10
169.7533630284633
 20
35.098270753101417
 30
0.0
 11
170.56305938401781
 21
35.907967108659818
 31
0.0
  0
LINE
  5
113E
  8
TITLE
 10
169.7533630284633
 20
35.010985880458058
 30
0.0
 11
170.56305938401781
 21
35.820682236012232
 31
0.0
  0
LINE
  5
113F
  8
TITLE
 10
169.20788182158759
 20
37.171335725622228
 30
0.0
 11
170.56305938401781
 21
38.526513288052698
 31
0.0
  0
LINE
  5
1140
  8
TITLE
 10
169.23370010085071
 20
36.935299386951101
 30
0.0
 11
170.56305938401781
 21
38.264658670111132
 31
0.0
  0
LINE
  5
1141
  8
TITLE
 10
169.20145970692491
 20
36.815774120378251
 30
0.0
 11
170.56305938401781
 21
38.177373797464163
 31
0.0
  0
LINE
  5
1142
  8
TITLE
 10
169.2807114586272
 20
37.156880490022218
 30
0.0
 11
170.56305938401781
 21
38.439228415405523
 31
0.0
  0
LINE
  5
1143
  8
TITLE
 10
169.25978908588871
 20
37.048673244629761
 30
0.0
 11
170.56305938401781
 21
38.351943542758278
 31
0.0
  0
LINE
  5
1144
  8
TITLE
 10
169.16168728064491
 20
36.688716821451088
 30
0.0
 11
170.56305938401781
 21
38.090088924816847
 31
0.0
  0
LINE
  5
1145
  8
TITLE
 10
169.11233770584971
 20
36.552082374001671
 30
0.0
 11
170.56305938401781
 21
38.002804052169843
 31
0.0
  0
LINE
  5
1146
  8
TITLE
 10
169.05013835564199
 20
36.402598151153981
 30
0.0
 11
170.56305938401781
 21
37.915519179526491
 31
0.0
  0
LINE
  5
1147
  8
TITLE
 10
169.0333120762933
 20
37.171335725622228
 30
0.0
 11
169.63328562079039
 21
37.771309270119687
 31
0.0
  0
LINE
  5
1148
  8
TITLE
 10
169.1205969489402
 20
37.171335725622228
 30
0.0
 11
169.72057049343769
 21
37.771309270119687
 31
0.0
  0
LINE
  5
1149
  8
TITLE
 10
169.7533630284633
 20
37.978671550435891
 30
0.0
 11
170.90246275499391
 21
39.127771276966712
 31
0.0
  0
LINE
  5
114A
  8
TITLE
 10
169.7533630284633
 20
37.891386677788731
 30
0.0
 11
170.9897476276409
 21
39.127771276966712
 31
0.0
  0
LINE
  5
114B
  8
TITLE
 10
169.7533630284633
 20
37.804101805145208
 30
0.0
 11
171.07703250028089
 21
39.127771276966712
 31
0.0
  0
LINE
  5
114C
  8
TITLE
 10
170.76499933191121
 20
38.553883490655153
 30
0.0
 11
171.3388871182228
 21
39.127771276966712
 31
0.0
  0
LINE
  5
114D
  8
TITLE
 10
170.59042958661689
 20
38.553883490655153
 30
0.0
 11
171.1643173729282
 21
39.127771276966712
 31
0.0
  0
LINE
  5
114E
  8
TITLE
 10
170.677714459264
 20
38.553883490655153
 30
0.0
 11
171.2516022455755
 21
39.127771276966712
 31
0.0
  0
LINE
  5
114F
  8
TITLE
 10
169.7533630284633
 20
35.883834606922221
 30
0.0
 11
171.03432978502099
 21
37.164801363480251
 31
0.0
  0
LINE
  5
1150
  8
TITLE
 10
169.7533630284633
 20
35.796549734275061
 30
0.0
 11
171.04796205820909
 21
37.09114876402078
 31
0.0
  0
LINE
  5
1151
  8
TITLE
 10
169.7533630284633
 20
35.709264861627929
 30
0.0
 11
171.0630551711011
 21
37.018957004265729
 31
0.0
  0
LINE
  5
1152
  8
TITLE
 10
169.7533630284633
 20
35.621979988980797
 30
0.0
 11
171.07954485204331
 21
36.948161812560897
 31
0.0
  0
LINE
  5
1153
  8
TITLE
 10
169.7533630284633
 20
35.534695116333481
 30
0.0
 11
171.09737342765891
 21
36.878705515537042
 31
0.0
  0
LINE
  5
1154
  8
TITLE
 10
169.7533630284633
 20
35.447410243686519
 30
0.0
 11
171.1164889783667
 21
36.810536193593457
 31
0.0
  0
LINE
  5
1155
  8
TITLE
 10
169.7533630284633
 20
35.360125371039217
 30
0.0
 11
171.13684463262871
 21
36.743606975211748
 31
0.0
  0
LINE
  5
1156
  8
TITLE
 10
169.7533630284633
 20
35.272840498395837
 30
0.0
 11
171.15839797335909
 21
36.677875443295221
 31
0.0
  0
LINE
  5
1157
  8
TITLE
 10
170.6568119217585
 20
35.739865028458752
 30
0.0
 11
171.2828997317352
 21
36.365952838435653
 31
0.0
  0
LINE
  5
1158
  8
TITLE
 10
170.6887883011897
 20
35.684556535249911
 30
0.0
 11
171.31094301496429
 21
36.306711249017567
 31
0.0
  0
LINE
  5
1159
  8
TITLE
 10
170.7217114092399
 20
35.630194770646227
 30
0.0
 11
171.3399775892897
 21
36.248460950695751
 31
0.0
  0
LINE
  5
115A
  8
TITLE
 10
170.75556718291671
 20
35.576765671683113
 30
0.0
 11
171.36998352719289
 21
36.191182015958667
 31
0.0
  0
LINE
  5
115B
  8
TITLE
 10
170.79034302516379
 20
35.524256641282747
 30
0.0
 11
171.40094270567721
 21
36.134856321796121
 31
0.0
  0
LINE
  5
115C
  8
TITLE
 10
170.8260277184107
 20
35.472656461883183
 30
0.0
 11
171.4328386712312
 21
36.079467414699202
 31
0.0
  0
LINE
  5
115D
  8
TITLE
 10
169.7533630284633
 20
35.185555625748592
 30
0.0
 11
171.1811105354906
 21
36.613303132779862
 31
0.0
  0
LINE
  5
115E
  8
TITLE
 10
170.56672796720741
 20
35.911635691849568
 30
0.0
 11
171.20494737851661
 21
36.549855103162031
 31
0.0
  0
LINE
  5
115F
  8
TITLE
 10
170.5957635415437
 20
35.853386393538429
 30
0.0
 11
171.2298767209262
 21
36.487499572921251
 31
0.0
  0
LINE
  5
1160
  8
TITLE
 10
170.62579789924689
 20
35.796135878594413
 30
0.0
 11
171.25586962614409
 21
36.426207605491669
 31
0.0
  0
LINE
  5
1162
  8
TITLE
 10
189.1384768918746
 20
37.724689068395413
 30
0.0
 11
189.98260711391691
 21
38.568819290437858
 31
0.0
  0
LINE
  5
1163
  8
TITLE
 10
189.400331509816
 20
37.724689068395413
 30
0.0
 11
189.98260711391691
 21
38.306964672500058
 31
0.0
  0
LINE
  5
1164
  8
TITLE
 10
189.48761638246319
 20
37.724689068395413
 30
0.0
 11
189.98260711391691
 21
38.219679799852742
 31
0.0
  0
LINE
  5
1165
  8
TITLE
 10
189.22576176452171
 20
37.724689068395413
 30
0.0
 11
189.98260711391691
 21
38.481534417791011
 31
0.0
  0
LINE
  5
1166
  8
TITLE
 10
189.3130466371689
 20
37.724689068395413
 30
0.0
 11
189.98260711391691
 21
38.394249545147211
 31
0.0
  0
LINE
  5
1167
  8
TITLE
 10
188.67213785755251
 20
34.290664364088187
 30
0.0
 11
189.52437755531889
 21
35.142904061858488
 31
0.0
  0
LINE
  5
1168
  8
TITLE
 10
188.7594227301924
 20
34.290664364088187
 30
0.0
 11
189.61166242796651
 21
35.142904061858488
 31
0.0
  0
LINE
  5
1169
  8
TITLE
 10
188.8467076028399
 20
34.290664364088187
 30
0.0
 11
189.6989473006137
 21
35.142904061858488
 31
0.0
  0
LINE
  5
116A
  8
TITLE
 10
188.9339924754866
 20
34.290664364088187
 30
0.0
 11
189.78623217325369
 21
35.142904061858488
 31
0.0
  0
LINE
  5
116B
  8
TITLE
 10
189.02127734813371
 20
34.290664364088187
 30
0.0
 11
189.8735170459006
 21
35.142904061858488
 31
0.0
  0
LINE
  5
116C
  8
TITLE
 10
189.10856222078101
 20
34.290664364088187
 30
0.0
 11
189.9608019185479
 21
35.142904061858488
 31
0.0
  0
LINE
  5
116D
  8
TITLE
 10
189.1958470934282
 20
34.290664364088187
 30
0.0
 11
190.04808679119469
 21
35.142904061858488
 31
0.0
  0
LINE
  5
116E
  8
TITLE
 10
189.2831319660751
 20
34.290664364088187
 30
0.0
 11
190.13537166384199
 21
35.142904061858488
 31
0.0
  0
LINE
  5
116F
  8
TITLE
 10
189.37041683872269
 20
34.290664364088187
 30
0.0
 11
190.22265653648961
 21
35.142904061858488
 31
0.0
  0
LINE
  5
1170
  8
TITLE
 10
189.45770171136991
 20
34.290664364088187
 30
0.0
 11
190.23358695249371
 21
35.066549605211783
 31
0.0
  0
LINE
  5
1171
  8
TITLE
 10
188.2508451536188
 20
37.27348169337175
 30
0.0
 11
189.55429222641291
 21
38.576928766166247
 31
0.0
  0
LINE
  5
1172
  8
TITLE
 10
188.2508451536188
 20
37.186196820724788
 30
0.0
 11
189.64157709905999
 21
38.576928766166247
 31
0.0
  0
LINE
  5
1173
  8
TITLE
 10
188.2508451536188
 20
37.098911948077621
 30
0.0
 11
189.728861971707
 21
38.576928766166247
 31
0.0
  0
LINE
  5
1174
  8
TITLE
 10
188.2508451536188
 20
37.011627075430781
 30
0.0
 11
189.81614684435419
 21
38.576928766166247
 31
0.0
  0
LINE
  5
1175
  8
TITLE
 10
188.2508451536188
 20
36.92434220278335
 30
0.0
 11
189.90343171699419
 21
38.576928766166247
 31
0.0
  0
LINE
  5
1178
  8
TITLE
 10
180.673038484198
 20
38.773301779179747
 30
0.0
 11
181.73249884012321
 21
39.832762135112461
 31
0.0
  0
LINE
  5
1179
  8
TITLE
 10
179.30763632220351
 20
37.844323980424569
 30
0.0
 11
181.31860059313709
 21
39.855288251358182
 31
0.0
  0
LINE
  5
117A
  8
TITLE
 10
179.9825343084442
 20
38.344652221363852
 30
0.0
 11
181.49317033843141
 21
39.855288251358182
 31
0.0
  0
LINE
  5
117B
  8
TITLE
 10
180.1749566122632
 20
38.449789652542691
 30
0.0
 11
181.58045521107849
 21
39.855288251358182
 31
0.0
  0
LINE
  5
117C
  8
TITLE
 10
179.80890453483059
 20
38.258307320404469
 30
0.0
 11
181.40588546578419
 21
39.855288251358182
 31
0.0
  0
LINE
  5
117D
  8
TITLE
 10
180.3964208179305
 20
38.583968985559679
 30
0.0
 11
181.6677400837257
 21
39.855288251354821
 31
0.0
  0
LINE
  5
117E
  8
TITLE
 10
181.29070441303111
 20
39.129113090078789
 30
0.0
 11
181.86563779457521
 21
39.704046471619421
 31
0.0
  0
LINE
  5
117F
  8
TITLE
 10
181.200176244288
 20
39.213154666626679
 30
0.0
 11
181.77620622039771
 21
39.789184642736259
 31
0.0
  0
LINE
  5
1180
  8
TITLE
 10
181.24518826391741
 20
39.170881813608482
 30
0.0
 11
181.82058569697671
 21
39.746279246667839
 31
0.0
  0
LINE
  5
1181
  8
TITLE
 10
181.25292368260159
 20
34.290664364088187
 30
0.0
 11
182.9338411811554
 21
35.971581862649522
 31
0.0
  0
LINE
  5
1182
  8
TITLE
 10
181.16563880995469
 20
34.290664364088187
 30
0.0
 11
182.8465563085087
 21
35.971581862649522
 31
0.0
  0
LINE
  5
1183
  8
TITLE
 10
180.6419295740719
 20
34.290664364088187
 30
0.0
 11
181.35831220650871
 21
35.007046996521851
 31
0.0
  0
LINE
  5
1184
  8
TITLE
 10
180.72921444671891
 20
34.290664364088187
 30
0.0
 11
181.44559707914911
 21
35.007046996521851
 31
0.0
  0
LINE
  5
1185
  8
TITLE
 10
180.8164993193659
 20
34.290664364088187
 30
0.0
 11
181.53288195179601
 21
35.007046996521851
 31
0.0
  0
LINE
  5
1186
  8
TITLE
 10
180.90378419201301
 20
34.290664364088187
 30
0.0
 11
181.6242289278311
 21
35.011109099906221
 31
0.0
  0
LINE
  5
1187
  8
TITLE
 10
180.99106906466031
 20
34.290664364088187
 30
0.0
 11
181.7314813860807
 21
35.031076685508481
 31
0.0
  0
LINE
  5
1188
  8
TITLE
 10
181.07835393730741
 20
34.290664364088187
 30
0.0
 11
181.86956489406771
 21
35.081875320848212
 31
0.0
  0
LINE
  5
1189
  8
TITLE
 10
180.62811698430539
 20
36.284403845184912
 30
0.0
 11
181.33196672157891
 21
36.98825358246178
 31
0.0
  0
LINE
  5
118A
  8
TITLE
 10
180.71540185694539
 20
36.284403845184912
 30
0.0
 11
181.41925159422581
 21
36.98825358246178
 31
0.0
  0
LINE
  5
118B
  8
TITLE
 10
180.80268672959281
 20
36.284403845184912
 30
0.0
 11
181.506536466873
 21
36.98825358246178
 31
0.0
  0
LINE
  5
118C
  8
TITLE
 10
180.88997160224
 20
36.284403845184912
 30
0.0
 11
181.5938213395132
 21
36.98825358246178
 31
0.0
  0
LINE
  5
118D
  8
TITLE
 10
180.97725647488701
 20
36.284403845184912
 30
0.0
 11
181.6811062121603
 21
36.98825358246178
 31
0.0
  0
LINE
  5
118E
  8
TITLE
 10
181.06454134753369
 20
36.284403845184912
 30
0.0
 11
181.7683910848076
 21
36.98825358246178
 31
0.0
  0
LINE
  5
118F
  8
TITLE
 10
181.15182622018119
 20
36.284403845184912
 30
0.0
 11
181.8556759574542
 21
36.98825358246178
 31
0.0
  0
LINE
  5
1190
  8
TITLE
 10
181.23911109282861
 20
36.284403845184912
 30
0.0
 11
181.94296083010161
 21
36.98825358246178
 31
0.0
  0
LINE
  5
1191
  8
TITLE
 10
180.5531431129485
 20
37.431418190884472
 30
0.0
 11
181.33519837659139
 21
38.21347345452439
 31
0.0
  0
LINE
  5
1192
  8
TITLE
 10
180.64042798559601
 20
37.431418190884472
 30
0.0
 11
181.42248324923199
 21
38.21347345452439
 31
0.0
  0
LINE
  5
1193
  8
TITLE
 10
180.7277128582424
 20
37.431418190884472
 30
0.0
 11
181.50976812187869
 21
38.21347345452439
 31
0.0
  0
LINE
  5
1194
  8
TITLE
 10
180.8149977308899
 20
37.431418190884472
 30
0.0
 11
181.597052994526
 21
38.21347345452439
 31
0.0
  0
LINE
  5
1195
  8
TITLE
 10
180.902282603537
 20
37.431418190884472
 30
0.0
 11
181.68433786717321
 21
38.21347345452439
 31
0.0
  0
LINE
  5
1196
  8
TITLE
 10
180.98956747618411
 20
37.431418190884472
 30
0.0
 11
181.7716227398202
 21
38.21347345452439
 31
0.0
  0
LINE
  5
1197
  8
TITLE
 10
181.07685234883121
 20
37.431418190884472
 30
0.0
 11
181.85890761246739
 21
38.21347345452439
 31
0.0
  0
LINE
  5
1198
  8
TITLE
 10
181.16413722147121
 20
37.431418190884472
 30
0.0
 11
181.94619248511449
 21
38.21347345452439
 31
0.0
  0
LINE
  5
1199
  8
TITLE
 10
181.2514220941186
 20
37.431418190884472
 30
0.0
 11
182.033477357762
 21
38.21347345452439
 31
0.0
  0
LINE
  5
119A
  8
TITLE
 10
176.5699415121972
 20
38.423454330981968
 30
0.0
 11
177.27425821234669
 21
39.127771031131147
 31
0.0
  0
LINE
  5
119B
  8
TITLE
 10
176.65722638484451
 20
38.423454330981968
 30
0.0
 11
177.36154308499411
 21
39.127771031131147
 31
0.0
  0
LINE
  5
119C
  8
TITLE
 10
176.74451125749169
 20
38.423454330981968
 30
0.0
 11
177.44882795764121
 21
39.127771031131147
 31
0.0
  0
LINE
  5
119D
  8
TITLE
 10
176.83179613013891
 20
38.423454330981968
 30
0.0
 11
177.5361128302884
 21
39.127771031131147
 31
0.0
  0
LINE
  5
119E
  8
TITLE
 10
176.9190810027859
 20
38.423454330981968
 30
0.0
 11
177.6233977029357
 21
39.127771031131147
 31
0.0
  0
LINE
  5
119F
  8
TITLE
 10
177.00636587543309
 20
38.423454330981968
 30
0.0
 11
177.71068257558289
 21
39.127771031131147
 31
0.0
  0
LINE
  5
11A0
  8
TITLE
 10
177.09365074808039
 20
38.423454330981968
 30
0.0
 11
177.79796744822971
 21
39.127771031131147
 31
0.0
  0
LINE
  5
11A1
  8
TITLE
 10
177.18093562072741
 20
38.423454330981968
 30
0.0
 11
177.85815195723299
 21
39.100670667491393
 31
0.0
  0
LINE
  5
11A2
  8
TITLE
 10
176.97009795764569
 20
39.609174630247779
 30
0.0
 11
177.21621157875671
 21
39.855288251358182
 31
0.0
  0
LINE
  5
11A3
  8
TITLE
 10
176.97009795764569
 20
39.52188975760032
 30
0.0
 11
177.3034964514037
 21
39.855288251358182
 31
0.0
  0
LINE
  5
11A4
  8
TITLE
 10
176.97009795764569
 20
39.434604884953167
 30
0.0
 11
177.39078132405081
 21
39.855288251358182
 31
0.0
  0
LINE
  5
11A5
  8
TITLE
 10
177.03749293108109
 20
39.414714985748759
 30
0.0
 11
177.47806619669819
 21
39.855288251358182
 31
0.0
  0
LINE
  5
11A6
  8
TITLE
 10
177.1247778037287
 20
39.414714985748759
 30
0.0
 11
177.56535106934521
 21
39.855288251358182
 31
0.0
  0
LINE
  5
11A7
  8
TITLE
 10
177.21206267637561
 20
39.414714985748759
 30
0.0
 11
177.6526359419924
 21
39.855288251358182
 31
0.0
  0
LINE
  5
11A8
  8
TITLE
 10
176.6723455774939
 20
35.20903323570748
 30
0.0
 11
177.23559962488119
 21
35.772287283102202
 31
0.0
  0
LINE
  5
11A9
  8
TITLE
 10
176.713361570909
 20
35.162764356482967
 30
0.0
 11
177.2782361309047
 21
35.727638916471392
 31
0.0
  0
LINE
  5
11AA
  8
TITLE
 10
176.7550746515665
 20
35.117192564493479
 30
0.0
 11
177.32192031843991
 21
35.684038231366742
 31
0.0
  0
LINE
  5
11AB
  8
TITLE
 10
176.79748334857891
 20
35.072316388858781
 30
0.0
 11
177.36665225971191
 21
35.641485299991643
 31
0.0
  0
LINE
  5
11AC
  8
TITLE
 10
176.84058672354061
 20
35.028134891173138
 30
0.0
 11
177.41243384133969
 21
35.599982008968823
 31
0.0
  0
LINE
  5
11AD
  8
TITLE
 10
176.88438436696379
 20
34.98464766194958
 30
0.0
 11
177.45926878076119
 21
35.559532075746873
 31
0.0
  0
LINE
  5
11AE
  8
TITLE
 10
176.92887639672051
 20
34.941854819059252
 30
0.0
 11
177.5071626586967
 21
35.520141081034872
 31
0.0
  0
LINE
  5
11AF
  8
TITLE
 10
177.0665279164601
 20
34.817651720860638
 30
0.0
 11
177.6572828396898
 21
35.408406644090178
 31
0.0
  0
LINE
  5
11B0
  8
TITLE
 10
177.11380927535271
 20
34.777648207110062
 30
0.0
 11
177.70950765132821
 21
35.373346583081769
 31
0.0
  0
LINE
  5
11B1
  8
TITLE
 10
177.16179360682119
 20
34.738347665930817
 30
0.0
 11
177.762849632746
 21
35.339403691852233
 31
0.0
  0
LINE
  5
11B2
  8
TITLE
 10
177.21048427373961
 20
34.699753460202217
 30
0.0
 11
177.8173272602678
 21
35.306596446726658
 31
0.0
  0
LINE
  5
11B3
  8
TITLE
 10
176.97406345847369
 20
34.899757008168422
 30
0.0
 11
177.5561229683729
 21
35.481816518064193
 31
0.0
  0
LINE
  5
11B4
  8
TITLE
 10
177.01994672816119
 20
34.858355405212208
 30
0.0
 11
177.60615918254689
 21
35.444567859590812
 31
0.0
  0
LINE
  5
11B5
  8
TITLE
 10
175.71637448553989
 20
37.831741922261898
 30
0.0
 11
177.012403594413
 21
39.127771031131147
 31
0.0
  0
LINE
  5
11B6
  8
TITLE
 10
175.71637448553989
 20
37.744457049618248
 30
0.0
 11
177.0996884670528
 21
39.127771031131147
 31
0.0
  0
LINE
  5
11B7
  8
TITLE
 10
175.71637448553989
 20
38.093596540199698
 30
0.0
 11
176.7505489764709
 21
39.127771031131147
 31
0.0
  0
LINE
  5
11B8
  8
TITLE
 10
175.71637448553989
 20
38.006311667556162
 30
0.0
 11
176.8378338491182
 21
39.127771031131147
 31
0.0
  0
LINE
  5
11B9
  8
TITLE
 10
175.71637448553989
 20
37.919026794908874
 30
0.0
 11
176.9251187217657
 21
39.127771031131147
 31
0.0
  0
LINE
  5
11BA
  8
TITLE
 10
175.08609867721
 20
38.423454330981968
 30
0.0
 11
176.51793259758659
 21
39.855288251358182
 31
0.0
  0
LINE
  5
11BB
  8
TITLE
 10
175.17338354985719
 20
38.423454330981968
 30
0.0
 11
176.55219005577169
 21
39.802260836899691
 31
0.0
  0
LINE
  5
11BC
  8
TITLE
 10
175.26066842250441
 20
38.423454330981968
 30
0.0
 11
176.55219005577169
 21
39.714975964252858
 31
0.0
  0
LINE
  5
11BD
  8
TITLE
 10
175.34795329515151
 20
38.423454330981968
 30
0.0
 11
176.55219005577169
 21
39.627691091609051
 31
0.0
  0
LINE
  5
11BE
  8
TITLE
 10
175.43523816779191
 20
38.423454330981968
 30
0.0
 11
176.55219005577169
 21
39.540406218961891
 31
0.0
  0
LINE
  5
11BF
  8
TITLE
 10
175.52252304043861
 20
38.423454330981968
 30
0.0
 11
176.55219005577169
 21
39.453121346314788
 31
0.0
  0
LINE
  5
11C0
  8
TITLE
 10
175.60980791308589
 20
38.423454330981968
 30
0.0
 11
176.55219005577169
 21
39.365836473667493
 31
0.0
  0
LINE
  5
11C1
  8
TITLE
 10
175.6970927857331
 20
38.423454330981968
 30
0.0
 11
176.55219005577169
 21
39.27855160102078
 31
0.0
  0
LINE
  5
11C2
  8
TITLE
 10
175.71637448553989
 20
38.355451158140937
 30
0.0
 11
176.55219005577169
 21
39.191266728373208
 31
0.0
  0
LINE
  5
11C3
  8
TITLE
 10
175.71637448553989
 20
38.26816628549382
 30
0.0
 11
176.57597923117669
 21
39.127771031131147
 31
0.0
  0
LINE
  5
11C4
  8
TITLE
 10
175.71637448553989
 20
38.180881412846801
 30
0.0
 11
176.66326410382399
 21
39.127771031131147
 31
0.0
  0
LINE
  5
11C5
  8
TITLE
 10
174.9988138045631
 20
38.423454330981968
 30
0.0
 11
175.7031305047127
 21
39.127771031131147
 31
0.0
  0
LINE
  5
11C6
  8
TITLE
 10
176.97009795764569
 20
39.783744375538276
 30
0.0
 11
177.04164183346199
 21
39.855288251358182
 31
0.0
  0
LINE
  5
11C7
  8
TITLE
 10
176.97009795764569
 20
39.696459502891102
 30
0.0
 11
177.12892670610961
 21
39.855288251358182
 31
0.0
  0
LINE
  5
11C8
  8
TITLE
 10
175.71637448553989
 20
39.141015011958253
 30
0.0
 11
176.4306477249396
 21
39.855288251358182
 31
0.0
  0
LINE
  5
11C9
  8
TITLE
 10
175.71637448553989
 20
39.402869629899691
 30
0.0
 11
176.1687931069979
 21
39.855288251358182
 31
0.0
  0
LINE
  5
11CA
  8
TITLE
 10
175.71637448553989
 20
39.315584757252388
 30
0.0
 11
176.2560779796452
 21
39.855288251358182
 31
0.0
  0
LINE
  5
11CB
  8
TITLE
 10
175.71637448553989
 20
39.228299884605548
 30
0.0
 11
176.3433628522927
 21
39.855288251358182
 31
0.0
  0
LINE
  5
11CC
  8
TITLE
 10
175.71637448553989
 20
39.664724247837761
 30
0.0
 11
175.90693848905639
 21
39.855288251358182
 31
0.0
  0
LINE
  5
11CD
  8
TITLE
 10
175.71637448553989
 20
39.577439375193819
 30
0.0
 11
175.99422336170369
 21
39.855288251358182
 31
0.0
  0
LINE
  5
11CE
  8
TITLE
 10
175.71637448553989
 20
39.490154502546837
 30
0.0
 11
176.08150823435091
 21
39.855288251358182
 31
0.0
  0
LINE
  5
11CF
  8
TITLE
 10
175.71637448553989
 20
39.839293993131889
 30
0.0
 11
175.7323687437692
 21
39.855288251358182
 31
0.0
  0
LINE
  5
11D0
  8
TITLE
 10
175.71637448553989
 20
39.752009120484779
 30
0.0
 11
175.8196536164169
 21
39.855288251358182
 31
0.0
  0
LINE
  5
11D1
  8
TITLE
 10
173.51497096957559
 20
38.423454330981968
 30
0.0
 11
174.21928766972511
 21
39.127771031131147
 31
0.0
  0
LINE
  5
11D2
  8
TITLE
 10
173.60225584221541
 20
38.423454330981968
 30
0.0
 11
174.30657254237261
 21
39.127771031131147
 31
0.0
  0
LINE
  5
11D3
  8
TITLE
 10
173.6895407148626
 20
38.423454330981968
 30
0.0
 11
174.39385741501241
 21
39.127771031131147
 31
0.0
  0
LINE
  5
11D4
  8
TITLE
 10
173.7768255875099
 20
38.423454330981968
 30
0.0
 11
174.48114228765991
 21
39.127771031131147
 31
0.0
  0
LINE
  5
11D5
  8
TITLE
 10
173.86411046015689
 20
38.423454330981968
 30
0.0
 11
174.56842716030661
 21
39.127771031131147
 31
0.0
  0
LINE
  5
11D6
  8
TITLE
 10
173.9513953328042
 20
38.423454330981968
 30
0.0
 11
174.65571203295389
 21
39.127771031131147
 31
0.0
  0
LINE
  5
11D7
  8
TITLE
 10
174.03868020545141
 20
38.423454330981968
 30
0.0
 11
174.74299690560099
 21
39.127771031131147
 31
0.0
  0
LINE
  5
11D8
  8
TITLE
 10
174.1259650780984
 20
38.423454330981968
 30
0.0
 11
174.83028177824821
 21
39.127771031131147
 31
0.0
  0
LINE
  5
11D9
  8
TITLE
 10
173.34040122428149
 20
38.423454330981968
 30
0.0
 11
174.04471792443101
 21
39.127771031131147
 31
0.0
  0
LINE
  5
11DA
  8
TITLE
 10
173.4276860969286
 20
38.423454330981968
 30
0.0
 11
174.1320027970782
 21
39.127771031131147
 31
0.0
  0
LINE
  5
11DB
  8
TITLE
 10
173.165831478987
 20
38.423454330981968
 30
0.0
 11
173.87014817913689
 21
39.127771031131147
 31
0.0
  0
LINE
  5
11DC
  8
TITLE
 10
173.25311635163419
 20
38.423454330981968
 30
0.0
 11
173.95743305178371
 21
39.127771031131147
 31
0.0
  0
LINE
  5
11DD
  8
TITLE
 10
174.21324995074571
 20
38.423454330981968
 30
0.0
 11
174.9175666508952
 21
39.127771031131147
 31
0.0
  0
LINE
  5
11DE
  8
TITLE
 10
174.30053482339281
 20
38.423454330981968
 30
0.0
 11
175.00485152354261
 21
39.127771031131147
 31
0.0
  0
LINE
  5
11DF
  8
TITLE
 10
174.38781969604011
 20
38.423454330981968
 30
0.0
 11
175.09213639618989
 21
39.127771031131147
 31
0.0
  0
LINE
  5
11E0
  8
TITLE
 10
174.47510456867991
 20
38.423454330981968
 30
0.0
 11
175.17942126883671
 21
39.127771031131147
 31
0.0
  0
LINE
  5
11E1
  8
TITLE
 10
174.5623894413269
 20
38.423454330981968
 30
0.0
 11
175.26670614148401
 21
39.127771031131147
 31
0.0
  0
LINE
  5
11E2
  8
TITLE
 10
174.6496743139742
 20
38.423454330981968
 30
0.0
 11
175.35399101412381
 21
39.127771031131147
 31
0.0
  0
LINE
  5
11E3
  8
TITLE
 10
174.7369591866215
 20
38.423454330981968
 30
0.0
 11
175.44127588677091
 21
39.127771031131147
 31
0.0
  0
LINE
  5
11E4
  8
TITLE
 10
174.82424405926841
 20
38.423454330981968
 30
0.0
 11
175.52856075941821
 21
39.127771031131147
 31
0.0
  0
LINE
  5
11E5
  8
TITLE
 10
174.91152893191571
 20
38.423454330981968
 30
0.0
 11
175.61584563206571
 21
39.127771031131147
 31
0.0
  0
LINE
  5
11E6
  8
TITLE
 10
176.44103978077061
 20
35.501436674867321
 30
0.0
 11
177.00200967509201
 21
36.062406569188781
 31
0.0
  0
LINE
  5
11E7
  8
TITLE
 10
176.47781156242971
 20
35.450923583876033
 30
0.0
 11
177.03825805769691
 21
36.011370079147191
 31
0.0
  0
LINE
  5
11E8
  8
TITLE
 10
176.51530090558049
 20
35.401128054383321
 30
0.0
 11
177.07559288524399
 21
35.961420034046768
 31
0.0
  0
LINE
  5
11E9
  8
TITLE
 10
176.5535029498248
 20
35.35204522598017
 30
0.0
 11
177.11400278758671
 21
35.9125450637423
 31
0.0
  0
LINE
  5
11EA
  8
TITLE
 10
176.59241343422821
 20
35.30367083774388
 30
0.0
 11
177.1534784526774
 21
35.864735856185618
 31
0.0
  0
LINE
  5
11EB
  8
TITLE
 10
176.63202868031681
 20
35.256001211177818
 30
0.0
 11
177.19401254197129
 21
35.817985072836031
 31
0.0
  0
LINE
  5
11EC
  8
TITLE
 10
176.17349727554
 20
35.932173150807131
 30
0.0
 11
176.7532860596267
 21
36.511961934897158
 31
0.0
  0
LINE
  5
11ED
  8
TITLE
 10
176.20427370751011
 20
35.875664710130252
 30
0.0
 11
176.780139364945
 21
36.451530367565169
 31
0.0
  0
LINE
  5
11EE
  8
TITLE
 10
176.23583119751549
 20
35.819937327488347
 30
0.0
 11
176.80826264368341
 21
36.392368773656223
 31
0.0
  0
LINE
  5
11EF
  8
TITLE
 10
176.2681591056986
 20
35.76498036302803
 30
0.0
 11
176.83762182390149
 21
36.334443081230731
 31
0.0
  0
LINE
  5
11F0
  8
TITLE
 10
176.30124764501889
 20
35.710784029703987
 30
0.0
 11
176.8681866166535
 21
36.277723001335858
 31
0.0
  0
LINE
  5
11F1
  8
TITLE
 10
176.3350878352872
 20
35.657339347325617
 30
0.0
 11
176.8999301521427
 21
36.222181664181171
 31
0.0
  0
LINE
  5
11F2
  8
TITLE
 10
176.36967146210719
 20
35.604638101494828
 30
0.0
 11
176.93282867236229
 21
36.167795311753451
 31
0.0
  0
LINE
  5
11F3
  8
TITLE
 10
176.4049910402054
 20
35.5526728069499
 30
0.0
 11
176.96686127123689
 21
36.11454303798125
 31
0.0
  0
LINE
  5
11F4
  8
TITLE
 10
175.2436583081813
 20
34.740479565507151
 30
0.0
 11
175.71637448553989
 21
35.213195742868884
 31
0.0
  0
LINE
  5
11F5
  8
TITLE
 10
175.36901187173649
 20
34.778548256414993
 30
0.0
 11
175.71637448553989
 21
35.125910870221453
 31
0.0
  0
LINE
  5
11F6
  8
TITLE
 10
175.49681557712751
 20
34.819067089162722
 30
0.0
 11
175.71637448553989
 21
35.038625997577782
 31
0.0
  0
LINE
  5
11F7
  8
TITLE
 10
175.6272506006689
 20
34.862217240052992
 30
0.0
 11
175.71637448553989
 21
34.951341124930792
 31
0.0
  0
LINE
  5
11F8
  8
TITLE
 10
175.80039169334091
 20
36.955625530948481
 30
0.0
 11
176.55127000115471
 21
37.706503838769301
 31
0.0
  0
LINE
  5
11F9
  8
TITLE
 10
175.81623128597849
 20
36.884180250945249
 30
0.0
 11
176.54644819940989
 21
37.614397164377039
 31
0.0
  0
LINE
  5
11FA
  8
TITLE
 10
175.83320787739029
 20
36.813871969706561
 30
0.0
 11
176.54492930089091
 21
37.525593393203792
 31
0.0
  0
LINE
  5
11FB
  8
TITLE
 10
175.8512832503678
 20
36.74466247004068
 30
0.0
 11
176.5463763816901
 21
37.43975560136316
 31
0.0
  0
LINE
  5
11FC
  8
TITLE
 10
175.87042235499661
 20
36.676516702022496
 30
0.0
 11
176.55051492869421
 21
37.356609275716487
 31
0.0
  0
LINE
  5
11FD
  8
TITLE
 10
175.28370609498859
 20
36.962649168479018
 30
0.0
 11
175.4290626570606
 21
37.108005730550701
 31
0.0
  0
LINE
  5
11FE
  8
TITLE
 10
175.89059298556359
 20
36.60940245994226
 30
0.0
 11
176.557117878643
 21
37.27592735302219
 31
0.0
  0
LINE
  5
11FF
  8
TITLE
 10
175.9117655004747
 20
36.543290102213248
 30
0.0
 11
176.56599500459211
 21
37.197519606330779
 31
0.0
  0
LINE
  5
1200
  8
TITLE
 10
175.93391257849049
 20
36.478152307574987
 30
0.0
 11
176.57698519728751
 21
37.121224926371838
 31
0.0
  0
LINE
  5
1201
  8
TITLE
 10
175.95700900562639
 20
36.413963862063468
 30
0.0
 11
176.5899507304789
 21
37.046905586915571
 31
0.0
  0
LINE
  5
1202
  8
TITLE
 10
176.11433472331561
 20
36.04758034387693
 30
0.0
 11
176.70354724378291
 21
36.636792864344642
 31
0.0
  0
LINE
  5
1203
  8
TITLE
 10
176.14351344561669
 20
35.989474193531237
 30
0.0
 11
176.72774101430321
 21
36.573701762217581
 31
0.0
  0
LINE
  5
1204
  8
TITLE
 10
175.98103148839209
 20
36.35070147218579
 30
0.0
 11
176.60477292025971
 21
36.974442904049397
 31
0.0
  0
LINE
  5
1205
  8
TITLE
 10
176.00595848942939
 20
36.288343600572148
 30
0.0
 11
176.62134878534971
 21
36.903733896492497
 31
0.0
  0
LINE
  5
1206
  8
TITLE
 10
176.0317700824769
 20
36.226870320979863
 30
0.0
 11
176.63958844032189
 21
36.834688678824953
 31
0.0
  0
LINE
  5
1207
  8
TITLE
 10
176.05844782411069
 20
36.166263189962791
 30
0.0
 11
176.6594130347172
 21
36.76722840056901
 31
0.0
  0
LINE
  5
1208
  8
TITLE
 10
176.08597463990179
 20
36.106505133110218
 30
0.0
 11
176.68075310505611
 21
36.701283598265192
 31
0.0
  0
LINE
  5
1209
  8
TITLE
 10
175.37099096763589
 20
36.962649168479018
 30
0.0
 11
175.4290626570606
 21
37.020720857903257
 31
0.0
  0
LINE
  5
120A
  8
TITLE
 10
174.9996779682304
 20
34.671068970850513
 30
0.0
 11
175.71637448553989
 21
35.387765488159502
 31
0.0
  0
LINE
  5
120B
  8
TITLE
 10
175.12059456887269
 20
34.704700698852889
 30
0.0
 11
175.71637448553989
 21
35.300480615512242
 31
0.0
  0
LINE
  5
120C
  8
TITLE
 10
175.02185147704719
 20
36.962649168479018
 30
0.0
 11
175.4290626570606
 21
37.369860348492132
 31
0.0
  0
LINE
  5
120D
  8
TITLE
 10
175.10913634969441
 20
36.962649168479018
 30
0.0
 11
175.4290626570606
 21
37.282575475844709
 31
0.0
  0
LINE
  5
120E
  8
TITLE
 10
175.19642122234191
 20
36.962649168479018
 30
0.0
 11
175.4290626570606
 21
37.195290603197833
 31
0.0
  0
LINE
  5
120F
  8
TITLE
 10
173.6007159950141
 20
35.803368304383639
 30
0.0
 11
174.3581739212139
 21
36.560826230582933
 31
0.0
  0
LINE
  5
1210
  8
TITLE
 10
173.6007159950141
 20
35.716083431740131
 30
0.0
 11
174.3581739212139
 21
36.473541357935652
 31
0.0
  0
LINE
  5
1211
  8
TITLE
 10
173.6007159950141
 20
35.6287985590929
 30
0.0
 11
174.3581739212139
 21
36.386256485288783
 31
0.0
  0
LINE
  5
1212
  8
TITLE
 10
173.6007159950141
 20
35.541513686445867
 30
0.0
 11
174.3581739212139
 21
36.298971612645261
 31
0.0
  0
LINE
  5
1213
  8
TITLE
 10
173.6007159950141
 20
35.454228813798558
 30
0.0
 11
174.3581739212139
 21
36.211686739998157
 31
0.0
  0
LINE
  5
1214
  8
TITLE
 10
173.6007159950141
 20
35.366943941151447
 30
0.0
 11
174.3581739212139
 21
36.124401867350713
 31
0.0
  0
LINE
  5
1215
  8
TITLE
 10
173.6007159950141
 20
35.279659068504159
 30
0.0
 11
174.3581739212139
 21
36.03711699470341
 31
0.0
  0
LINE
  5
1216
  8
TITLE
 10
173.6007159950141
 20
35.977938049677661
 30
0.0
 11
174.3581739212139
 21
36.735395975873708
 31
0.0
  0
LINE
  5
1217
  8
TITLE
 10
173.6007159950141
 20
35.890653177030799
 30
0.0
 11
174.3581739212139
 21
36.648111103226448
 31
0.0
  0
LINE
  5
1218
  8
TITLE
 10
173.2813160296779
 20
34.349264994645097
 30
0.0
 11
174.3581739212139
 21
35.426122886180849
 31
0.0
  0
LINE
  5
1219
  8
TITLE
 10
173.37935675094769
 20
34.360020843260607
 30
0.0
 11
174.3587945770258
 21
35.339458669346257
 31
0.0
  0
LINE
  5
121A
  8
TITLE
 10
173.47842478709259
 20
34.371804006765501
 30
0.0
 11
174.46460263840669
 21
35.357981858079171
 31
0.0
  0
LINE
  5
121B
  8
TITLE
 10
173.5785566571256
 20
34.384651004147798
 30
0.0
 11
174.5714021776102
 21
35.377496524635831
 31
0.0
  0
LINE
  5
121C
  8
TITLE
 10
173.67979138452759
 20
34.39860085890615
 30
0.0
 11
174.67922584174619
 21
35.398035316125082
 31
0.0
  0
LINE
  5
121D
  8
TITLE
 10
173.78217074520541
 20
34.413695346936919
 30
0.0
 11
174.7881082927469
 21
35.419632894478468
 31
0.0
  0
LINE
  5
121E
  8
TITLE
 10
173.88573954792801
 20
34.429979277012038
 30
0.0
 11
174.8980863865938
 21
35.442326115677893
 31
0.0
  0
LINE
  5
121F
  8
TITLE
 10
173.18426838901661
 20
34.33950222662375
 30
0.0
 11
174.3581739212139
 21
35.513407758824393
 31
0.0
  0
LINE
  5
1220
  8
TITLE
 10
173.2761540241186
 20
36.962649168479018
 30
0.0
 11
174.03264236355591
 21
37.719137507916329
 31
0.0
  0
LINE
  5
1221
  8
TITLE
 10
173.3634388967659
 20
36.962649168479018
 30
0.0
 11
174.1199272362033
 21
37.719137507916329
 31
0.0
  0
LINE
  5
1222
  8
TITLE
 10
173.45072376941269
 20
36.962649168479018
 30
0.0
 11
174.20721210885
 21
37.719137507916329
 31
0.0
  0
LINE
  5
1223
  8
TITLE
 10
173.53800864205999
 20
36.962649168479018
 30
0.0
 11
174.2944969814975
 21
37.719137507916329
 31
0.0
  0
LINE
  5
1224
  8
TITLE
 10
173.6007159950141
 20
36.938071648785872
 30
0.0
 11
174.38178185414421
 21
37.719137507916329
 31
0.0
  0
LINE
  5
1225
  8
TITLE
 10
173.6007159950141
 20
36.8507867761424
 30
0.0
 11
174.4690667267846
 21
37.719137507916329
 31
0.0
  0
LINE
  5
1226
  8
TITLE
 10
173.6007159950141
 20
36.763501903495239
 30
0.0
 11
174.55635159943159
 21
37.719137507916329
 31
0.0
  0
LINE
  5
1227
  8
TITLE
 10
173.6007159950141
 20
36.676217030848257
 30
0.0
 11
174.64363647207901
 21
37.719137507916329
 31
0.0
  0
LINE
  5
1228
  8
TITLE
 10
173.18886915147101
 20
36.962649168479018
 30
0.0
 11
173.94535749090849
 21
37.719137507916329
 31
0.0
  0
LINE
  5
1229
  8
TITLE
 10
173.6007159950141
 20
36.588932158204457
 30
0.0
 11
174.73092134472591
 21
37.719137507916329
 31
0.0
  0
LINE
  5
122A
  8
TITLE
 10
173.6007159950141
 20
36.501647285557141
 30
0.0
 11
174.8182062173729
 21
37.719137507916329
 31
0.0
  0
LINE
  5
122B
  8
TITLE
 10
173.6007159950141
 20
36.414362412909867
 30
0.0
 11
174.90549109002021
 21
37.719137507916329
 31
0.0
  0
LINE
  5
122C
  8
TITLE
 10
173.6007159950141
 20
36.152507794968763
 30
0.0
 11
174.3581739212139
 21
36.909965721168163
 31
0.0
  0
LINE
  5
122D
  8
TITLE
 10
173.6007159950141
 20
36.06522292232146
 30
0.0
 11
174.3581739212139
 21
36.822680848520861
 31
0.0
  0
LINE
  5
122E
  8
TITLE
 10
174.0966418348346
 20
34.46631181863156
 30
0.0
 11
175.12148912362221
 21
35.491159107419278
 31
0.0
  0
LINE
  5
122F
  8
TITLE
 10
174.2040831984547
 20
34.486468309601221
 30
0.0
 11
175.2350003774466
 21
35.517385488596346
 31
0.0
  0
LINE
  5
1230
  8
TITLE
 10
173.9905459528982
 20
34.447500809342458
 30
0.0
 11
175.00919937371589
 21
35.466154230157159
 31
0.0
  0
LINE
  5
1231
  8
TITLE
 10
174.4108573685242
 20
36.962649168479018
 30
0.0
 11
175.1673457079616
 21
37.719137507916329
 31
0.0
  0
LINE
  5
1232
  8
TITLE
 10
173.6007159950141
 20
36.239792667615873
 30
0.0
 11
175.08006083531441
 21
37.719137507916329
 31
0.0
  0
LINE
  5
1233
  8
TITLE
 10
173.6007159950141
 20
36.327077540263161
 30
0.0
 11
174.99277596266751
 21
37.719137507916329
 31
0.0
  0
LINE
  5
1234
  8
TITLE
 10
174.31293065595881
 20
34.50803089445796
 30
0.0
 11
175.34978103284101
 21
35.544881271343662
 31
0.0
  0
LINE
  5
1235
  8
TITLE
 10
174.42324997823971
 20
34.531065344095282
 30
0.0
 11
175.4658824663727
 21
35.573697832228092
 31
0.0
  0
LINE
  5
1236
  8
TITLE
 10
174.53511273419721
 20
34.555643227405589
 30
0.0
 11
175.5833598996667
 21
35.603890392875087
 31
0.0
  0
LINE
  5
1237
  8
TITLE
 10
174.64859703605501
 20
34.581842656620047
 30
0.0
 11
175.7022728168298
 21
35.635518437391362
 31
0.0
  0
LINE
  5
1238
  8
TITLE
 10
174.7637884130807
 20
34.609749160995008
 30
0.0
 11
175.71637448553989
 21
35.562335233453837
 31
0.0
  0
LINE
  5
1239
  8
TITLE
 10
174.8807808417514
 20
34.639456717018518
 30
0.0
 11
175.71637448553989
 21
35.47505036080652
 31
0.0
  0
LINE
  5
123A
  8
TITLE
 10
174.49814224117131
 20
36.962649168479018
 30
0.0
 11
175.25463058060899
 21
37.719137507916329
 31
0.0
  0
LINE
  5
123B
  8
TITLE
 10
174.58542711381881
 20
36.962649168479018
 30
0.0
 11
175.34191545324899
 21
37.719137507916329
 31
0.0
  0
LINE
  5
123C
  8
TITLE
 10
174.67271198646549
 20
36.962649168479018
 30
0.0
 11
175.4290626570606
 21
37.71899983907312
 31
0.0
  0
LINE
  5
123D
  8
TITLE
 10
174.75999685910551
 20
36.962649168479018
 30
0.0
 11
175.4290626570606
 21
37.631714966429733
 31
0.0
  0
LINE
  5
123E
  8
TITLE
 10
174.8472817317529
 20
36.962649168479018
 30
0.0
 11
175.4290626570606
 21
37.544430093782893
 31
0.0
  0
LINE
  5
123F
  8
TITLE
 10
174.9345666044
 20
36.962649168479018
 30
0.0
 11
175.4290626570606
 21
37.45714522113547
 31
0.0
  0
LINE
  5
1240
  8
TITLE
 10
175.71748810799551
 20
37.658285799423197
 30
0.0
 11
177.1869733396999
 21
39.127771031131147
 31
0.0
  0
LINE
  5
1241
  8
TITLE
 10
175.73187928229379
 20
37.410822355783921
 30
0.0
 11
176.55219005577169
 21
38.231133129262048
 31
0.0
  0
LINE
  5
1242
  8
TITLE
 10
175.73986084330841
 20
37.331519044151548
 30
0.0
 11
176.55219005577169
 21
38.143848256614753
 31
0.0
  0
LINE
  5
1243
  8
TITLE
 10
175.72060340775141
 20
37.574116226535871
 30
0.0
 11
176.55219005577169
 21
38.405702874556169
 31
0.0
  0
LINE
  5
1244
  8
TITLE
 10
175.72543203368059
 20
37.49165997981811
 30
0.0
 11
176.55219005577169
 21
38.318418001909052
 31
0.0
  0
LINE
  5
1245
  8
TITLE
 10
175.78573085827881
 20
37.028249568540801
 30
0.0
 11
176.55219005577169
 21
37.794708766033317
 31
0.0
  0
LINE
  5
1246
  8
TITLE
 10
175.74930129885661
 20
37.253674627056171
 30
0.0
 11
176.55219005577169
 21
38.056563383970797
 31
0.0
  0
LINE
  5
1247
  8
TITLE
 10
175.76013289342751
 20
37.177221348979828
 30
0.0
 11
176.55219005577169
 21
37.969278511323722
 31
0.0
  0
LINE
  5
1248
  8
TITLE
 10
175.77229451706489
 20
37.10209809997005
 30
0.0
 11
176.55219005577169
 21
37.881993638676818
 31
0.0
  0
LINE
  5
1249
  8
TITLE
 10
179.09375510899969
 20
37.97958225780242
 30
0.0
 11
180.96946110255561
 21
39.855288251358182
 31
0.0
  0
LINE
  5
124A
  8
TITLE
 10
179.2227114978985
 20
38.021253774057868
 30
0.0
 11
181.056745975203
 21
39.855288251358182
 31
0.0
  0
LINE
  5
124B
  8
TITLE
 10
179.30763632220351
 20
38.018893725715202
 30
0.0
 11
181.14403084784971
 21
39.855288251358182
 31
0.0
  0
LINE
  5
124C
  8
TITLE
 10
179.30763632220351
 20
37.93160885307185
 30
0.0
 11
181.2313157204897
 21
39.855288251358182
 31
0.0
  0
LINE
  5
124D
  8
TITLE
 10
179.30763632220351
 20
37.757039107777388
 30
0.0
 11
179.76407066895021
 21
38.21347345452439
 31
0.0
  0
LINE
  5
124E
  8
TITLE
 10
179.42597096264529
 20
35.605967059410823
 30
0.0
 11
180.80825748569589
 21
36.98825358246178
 31
0.0
  0
LINE
  5
124F
  8
TITLE
 10
179.54787736159599
 20
35.902443203652382
 30
0.0
 11
180.6336877404089
 21
36.98825358246178
 31
0.0
  0
LINE
  5
1250
  8
TITLE
 10
179.50456043923489
 20
35.771841408644292
 30
0.0
 11
180.72097261304859
 21
36.98825358246178
 31
0.0
  0
LINE
  5
1251
  8
TITLE
 10
179.07080186643719
 20
34.290664364088187
 30
0.0
 11
180.28969369215801
 21
35.509556189809132
 31
0.0
  0
LINE
  5
1252
  8
TITLE
 10
179.15808673908469
 20
34.290664364088187
 30
0.0
 11
180.20073237026321
 21
35.333309995270469
 31
0.0
  0
LINE
  5
1253
  8
TITLE
 10
179.24537161173151
 20
34.290664364088187
 30
0.0
 11
180.03758041283541
 21
35.082873165192339
 31
0.0
  0
LINE
  5
1254
  8
TITLE
 10
179.3326564843789
 20
34.290664364088187
 30
0.0
 11
180.04903911680859
 21
35.007046996521851
 31
0.0
  0
LINE
  5
1255
  8
TITLE
 10
179.41994135702589
 20
34.290664364088187
 30
0.0
 11
180.13632398945569
 21
35.007046996521851
 31
0.0
  0
LINE
  5
1256
  8
TITLE
 10
179.50722622967271
 20
34.290664364088187
 30
0.0
 11
180.2236088621033
 21
35.007046996521851
 31
0.0
  0
LINE
  5
1257
  8
TITLE
 10
179.0569892766639
 20
36.284403845184912
 30
0.0
 11
179.76083901393699
 21
36.98825358246178
 31
0.0
  0
LINE
  5
1258
  8
TITLE
 10
179.144274149311
 20
36.284403845184912
 30
0.0
 11
179.84812388658469
 21
36.98825358246178
 31
0.0
  0
LINE
  5
1259
  8
TITLE
 10
179.2315590219583
 20
36.284403845184912
 30
0.0
 11
179.93540875923151
 21
36.98825358246178
 31
0.0
  0
LINE
  5
125A
  8
TITLE
 10
179.31884389460541
 20
36.284403845184912
 30
0.0
 11
180.02269363187881
 21
36.98825358246178
 31
0.0
  0
LINE
  5
125B
  8
TITLE
 10
179.4061287672526
 20
36.284403845184912
 30
0.0
 11
180.10997850452571
 21
36.98825358246178
 31
0.0
  0
LINE
  5
125C
  8
TITLE
 10
179.49341363989959
 20
36.284403845184912
 30
0.0
 11
180.1972633771727
 21
36.98825358246178
 31
0.0
  0
LINE
  5
125D
  8
TITLE
 10
179.59451110231299
 20
34.290664364088187
 30
0.0
 11
180.3108937347501
 21
35.007046996521851
 31
0.0
  0
LINE
  5
125E
  8
TITLE
 10
179.68179597496001
 20
34.290664364088187
 30
0.0
 11
180.3981786073974
 21
35.007046996521851
 31
0.0
  0
LINE
  5
125F
  8
TITLE
 10
179.76908084760711
 20
34.290664364088187
 30
0.0
 11
180.48546348004459
 21
35.007046996521851
 31
0.0
  0
LINE
  5
1260
  8
TITLE
 10
179.85636572025459
 20
34.290664364088187
 30
0.0
 11
180.57274835268461
 21
35.007046996521851
 31
0.0
  0
LINE
  5
1261
  8
TITLE
 10
179.9436505929018
 20
34.290664364088187
 30
0.0
 11
180.66003322533169
 21
35.007046996521851
 31
0.0
  0
LINE
  5
1262
  8
TITLE
 10
180.03093546554891
 20
34.290664364088187
 30
0.0
 11
180.74731809797871
 21
35.007046996521851
 31
0.0
  0
LINE
  5
1263
  8
TITLE
 10
180.1182203381959
 20
34.290664364088187
 30
0.0
 11
180.83460297062601
 21
35.007046996521851
 31
0.0
  0
LINE
  5
1264
  8
TITLE
 10
180.205505210843
 20
34.290664364088187
 30
0.0
 11
180.9218878432728
 21
35.007046996521851
 31
0.0
  0
LINE
  5
1265
  8
TITLE
 10
180.2927900834901
 20
34.290664364088187
 30
0.0
 11
181.00917271592019
 21
35.007046996521851
 31
0.0
  0
LINE
  5
1266
  8
TITLE
 10
180.38007495613761
 20
34.290664364088187
 30
0.0
 11
181.09645758856749
 21
35.007046996521851
 31
0.0
  0
LINE
  5
1267
  8
TITLE
 10
180.46735982878451
 20
34.290664364088187
 30
0.0
 11
181.18374246121459
 21
35.007046996521851
 31
0.0
  0
LINE
  5
1268
  8
TITLE
 10
180.55464470142471
 20
34.290664364088187
 30
0.0
 11
181.27102733386141
 21
35.007046996521851
 31
0.0
  0
LINE
  5
1269
  8
TITLE
 10
179.58069851254689
 20
36.284403845184912
 30
0.0
 11
180.2845482498202
 21
36.98825358246178
 31
0.0
  0
LINE
  5
126A
  8
TITLE
 10
179.59417520985909
 20
36.21059566984988
 30
0.0
 11
180.37183312246719
 21
36.98825358246178
 31
0.0
  0
LINE
  5
126B
  8
TITLE
 10
179.58800011549121
 20
36.117135702838738
 30
0.0
 11
180.4591179951145
 21
36.98825358246178
 31
0.0
  0
LINE
  5
126C
  8
TITLE
 10
179.57360172820731
 20
36.015452442911212
 30
0.0
 11
180.54640286776171
 21
36.98825358246178
 31
0.0
  0
LINE
  5
126D
  8
TITLE
 10
180.5408321116584
 20
36.284403845184912
 30
0.0
 11
181.24468184893161
 21
36.98825358246178
 31
0.0
  0
LINE
  5
126E
  8
TITLE
 10
179.30763632220351
 20
37.669754235130142
 30
0.0
 11
179.851355541597
 21
38.21347345452439
 31
0.0
  0
LINE
  5
126F
  8
TITLE
 10
179.30763632220351
 20
37.582469362483117
 30
0.0
 11
179.9386404142445
 21
38.21347345452439
 31
0.0
  0
LINE
  5
1270
  8
TITLE
 10
179.30763632220351
 20
37.495184489835822
 30
0.0
 11
180.02592528689169
 21
38.21347345452439
 31
0.0
  0
LINE
  5
1271
  8
TITLE
 10
179.33115489589539
 20
37.431418190884472
 30
0.0
 11
180.1132101595386
 21
38.21347345452439
 31
0.0
  0
LINE
  5
1272
  8
TITLE
 10
179.4184397685427
 20
37.431418190884472
 30
0.0
 11
180.20049503218601
 21
38.21347345452439
 31
0.0
  0
LINE
  5
1273
  8
TITLE
 10
179.50572464119
 20
37.431418190884472
 30
0.0
 11
180.287779904833
 21
38.21347345452439
 31
0.0
  0
LINE
  5
1274
  8
TITLE
 10
179.59300951383671
 20
37.431418190884472
 30
0.0
 11
180.37506477747991
 21
38.21347345452439
 31
0.0
  0
LINE
  5
1275
  8
TITLE
 10
179.68029438648421
 20
37.431418190884472
 30
0.0
 11
180.46234965012741
 21
38.21347345452439
 31
0.0
  0
LINE
  5
1276
  8
TITLE
 10
179.76757925913131
 20
37.431418190884472
 30
0.0
 11
180.54963452276721
 21
38.21347345452439
 31
0.0
  0
LINE
  5
1277
  8
TITLE
 10
179.85486413177799
 20
37.431418190884472
 30
0.0
 11
180.6369193954144
 21
38.21347345452439
 31
0.0
  0
LINE
  5
1278
  8
TITLE
 10
179.9421490044254
 20
37.431418190884472
 30
0.0
 11
180.7242042680617
 21
38.21347345452439
 31
0.0
  0
LINE
  5
1279
  8
TITLE
 10
180.02943387707239
 20
37.431418190884472
 30
0.0
 11
180.811489140709
 21
38.21347345452439
 31
0.0
  0
LINE
  5
127A
  8
TITLE
 10
180.11671874971961
 20
37.431418190884472
 30
0.0
 11
180.89877401335599
 21
38.21347345452439
 31
0.0
  0
LINE
  5
127B
  8
TITLE
 10
180.204003622367
 20
37.431418190884472
 30
0.0
 11
180.98605888600301
 21
38.21347345452439
 31
0.0
  0
LINE
  5
127C
  8
TITLE
 10
180.291288495007
 20
37.431418190884472
 30
0.0
 11
181.0733437586502
 21
38.21347345452439
 31
0.0
  0
LINE
  5
127D
  8
TITLE
 10
180.37857336765401
 20
37.431418190884472
 30
0.0
 11
181.16062863129761
 21
38.21347345452439
 31
0.0
  0
LINE
  5
127E
  8
TITLE
 10
180.4658582403012
 20
37.431418190884472
 30
0.0
 11
181.2479135039446
 21
38.21347345452439
 31
0.0
  0
LINE
  5
127F
  8
TITLE
 10
177.61735998395591
 20
38.423454330981968
 30
0.0
 11
177.85815195723299
 21
38.664246304259201
 31
0.0
  0
LINE
  5
1280
  8
TITLE
 10
177.70464485660301
 20
38.423454330981968
 30
0.0
 11
177.85815195723299
 21
38.576961431611892
 31
0.0
  0
LINE
  5
1281
  8
TITLE
 10
177.79192972925031
 20
38.423454330981968
 30
0.0
 11
177.85815195723299
 21
38.48967655896476
 31
0.0
  0
LINE
  5
1282
  8
TITLE
 10
178.42017100028261
 20
38.615271238781872
 30
0.0
 11
178.50581772535301
 21
38.700917963855773
 31
0.0
  0
LINE
  5
1283
  8
TITLE
 10
178.42017100028261
 20
38.527986366134897
 30
0.0
 11
178.6134336205873
 21
38.721248986442859
 31
0.0
  0
LINE
  5
1284
  8
TITLE
 10
178.42017100028261
 20
38.440701493491559
 30
0.0
 11
178.7250497232873
 21
38.745580216496208
 31
0.0
  0
LINE
  5
1285
  8
TITLE
 10
178.42017100028261
 20
38.353416620844122
 30
0.0
 11
178.8412384816192
 21
38.774484102180779
 31
0.0
  0
LINE
  5
1286
  8
TITLE
 10
177.4427902386615
 20
38.423454330981968
 30
0.0
 11
177.85815195723299
 21
38.83881604955301
 31
0.0
  0
LINE
  5
1287
  8
TITLE
 10
177.53007511130869
 20
38.423454330981968
 30
0.0
 11
177.85815195723299
 21
38.75153117690617
 31
0.0
  0
LINE
  5
1288
  8
TITLE
 10
178.42017100028261
 20
38.266131748196813
 30
0.0
 11
178.96273860190209
 21
38.808699349816479
 31
0.0
  0
LINE
  5
1289
  8
TITLE
 10
177.26822049336761
 20
38.423454330981968
 30
0.0
 11
177.85815195723299
 21
39.013385794843828
 31
0.0
  0
LINE
  5
128A
  8
TITLE
 10
177.35550536601471
 20
38.423454330981968
 30
0.0
 11
177.85815195723299
 21
38.92610092220032
 31
0.0
  0
LINE
  5
128B
  8
TITLE
 10
177.2993475490228
 20
39.414714985748759
 30
0.0
 11
177.73992081463979
 21
39.855288251358182
 31
0.0
  0
LINE
  5
128C
  8
TITLE
 10
177.3866324216697
 20
39.414714985748759
 30
0.0
 11
177.82720568727959
 21
39.855288251358182
 31
0.0
  0
LINE
  5
128D
  8
TITLE
 10
177.473917294317
 20
39.414714985748759
 30
0.0
 11
177.85815195723299
 21
39.798949648664717
 31
0.0
  0
LINE
  5
128E
  8
TITLE
 10
177.56120216696411
 20
39.414714985748759
 30
0.0
 11
177.85815195723299
 21
39.711664776017471
 31
0.0
  0
LINE
  5
128F
  8
TITLE
 10
177.64848703961161
 20
39.414714985748759
 30
0.0
 11
177.85815195723299
 21
39.62437990337078
 31
0.0
  0
LINE
  5
1290
  8
TITLE
 10
177.7357719122586
 20
39.414714985748759
 30
0.0
 11
177.85815195723299
 21
39.537095030723151
 31
0.0
  0
LINE
  5
1291
  8
TITLE
 10
177.82305678490559
 20
39.414714985748759
 30
0.0
 11
177.85815195723299
 21
39.449810158075891
 31
0.0
  0
LINE
  5
1292
  8
TITLE
 10
177.2598852130871
 20
34.661869526898698
 30
0.0
 11
177.85815195723299
 21
35.260136271048736
 31
0.0
  0
LINE
  5
1293
  8
TITLE
 10
177.3100009515627
 20
34.624700392730773
 30
0.0
 11
177.85815195723299
 21
35.172851398401313
 31
0.0
  0
LINE
  5
1294
  8
TITLE
 10
177.3608366238405
 20
34.588251192358307
 30
0.0
 11
177.85815195723299
 21
35.085566525753848
 31
0.0
  0
LINE
  5
1295
  8
TITLE
 10
177.41239799349569
 20
34.552527689373122
 30
0.0
 11
177.85815195723299
 21
34.998281653107142
 31
0.0
  0
LINE
  5
1296
  8
TITLE
 10
178.7072920514297
 20
34.887288148192063
 30
0.0
 11
178.9244753400975
 21
35.104471436859633
 31
0.0
  0
LINE
  5
1297
  8
TITLE
 10
177.68133934730491
 20
34.385044679946759
 30
0.0
 11
177.85815195723299
 21
34.561857289874951
 31
0.0
  0
LINE
  5
1298
  8
TITLE
 10
177.73741459981201
 20
34.353835059810081
 30
0.0
 11
177.85815195723299
 21
34.474572417227662
 31
0.0
  0
LINE
  5
1299
  8
TITLE
 10
177.7942759570472
 20
34.323411544398141
 30
0.0
 11
177.85815195723299
 21
34.387287544584439
 31
0.0
  0
LINE
  5
129A
  8
TITLE
 10
177.85193538549291
 20
34.293786100193273
 30
0.0
 11
177.85815195723299
 21
34.300002671937023
 31
0.0
  0
LINE
  5
129B
  8
TITLE
 10
177.4646914769919
 20
34.517536300218687
 30
0.0
 11
177.85815195723299
 21
34.910996780459868
 31
0.0
  0
LINE
  5
129C
  8
TITLE
 10
177.5177241707367
 20
34.483284121316693
 30
0.0
 11
177.85815195723299
 21
34.823711907812879
 31
0.0
  0
LINE
  5
129D
  8
TITLE
 10
177.5715038817595
 20
34.449778959692068
 30
0.0
 11
177.85815195723299
 21
34.736427035165583
 31
0.0
  0
LINE
  5
129E
  8
TITLE
 10
177.62603916207991
 20
34.417029367365217
 30
0.0
 11
177.85815195723299
 21
34.649142162521798
 31
0.0
  0
LINE
  5
129F
  8
TITLE
 10
178.7072920514297
 20
34.974573020839188
 30
0.0
 11
178.7586009908606
 21
35.02588196027375
 31
0.0
  0
LINE
  5
12A0
  8
TITLE
 10
178.42017100028261
 20
36.433149422620772
 30
0.0
 11
178.97527516012019
 21
36.98825358246178
 31
0.0
  0
LINE
  5
12A1
  8
TITLE
 10
178.42017100028261
 20
36.695004040559041
 30
0.0
 11
178.7134205421859
 21
36.98825358246178
 31
0.0
  0
LINE
  5
12A2
  8
TITLE
 10
178.42017100028261
 20
36.607719167915093
 30
0.0
 11
178.80070541483269
 21
36.98825358246178
 31
0.0
  0
LINE
  5
12A3
  8
TITLE
 10
178.42017100028261
 20
36.520434295268082
 30
0.0
 11
178.8879902874728
 21
36.98825358246178
 31
0.0
  0
LINE
  5
12A4
  8
TITLE
 10
178.42017100028261
 20
36.956858658496841
 30
0.0
 11
178.45156592424411
 21
36.98825358246178
 31
0.0
  0
LINE
  5
12A5
  8
TITLE
 10
178.42017100028261
 20
36.869573785849539
 30
0.0
 11
178.5388507968911
 21
36.98825358246178
 31
0.0
  0
LINE
  5
12A6
  8
TITLE
 10
178.42017100028261
 20
36.782288913206159
 30
0.0
 11
178.6261356695386
 21
36.98825358246178
 31
0.0
  0
LINE
  5
12A7
  8
TITLE
 10
178.42017100028261
 20
37.916992257608101
 30
0.0
 11
179.52877310758771
 21
39.025594364917069
 31
0.0
  0
LINE
  5
12A8
  8
TITLE
 10
178.42017100028261
 20
37.829707384960813
 30
0.0
 11
179.70443841008861
 21
39.113974794770058
 31
0.0
  0
LINE
  5
12A9
  8
TITLE
 10
178.51270112563279
 20
37.834952637663832
 30
0.0
 11
179.9086611793789
 21
39.230912691410254
 31
0.0
  0
LINE
  5
12AA
  8
TITLE
 10
178.62195175007179
 20
37.856918389459338
 30
0.0
 11
180.17143789622639
 21
39.406404535614143
 31
0.0
  0
LINE
  5
12AB
  8
TITLE
 10
178.73431182130969
 20
37.88199358805015
 30
0.0
 11
180.70760648461399
 21
39.855288251358182
 31
0.0
  0
LINE
  5
12AC
  8
TITLE
 10
178.85011463170639
 20
37.910511525806967
 30
0.0
 11
180.79489135726129
 21
39.855288251358182
 31
0.0
  0
LINE
  5
12AD
  8
TITLE
 10
178.96976362207971
 20
37.94287564353337
 30
0.0
 11
180.88217622990851
 21
39.855288251358182
 31
0.0
  0
LINE
  5
12AE
  8
TITLE
 10
178.7072920514297
 20
34.800003275544903
 30
0.0
 11
180.89554235834291
 21
36.98825358246178
 31
0.0
  0
LINE
  5
12AF
  8
TITLE
 10
178.7072920514297
 20
34.71271840289775
 30
0.0
 11
180.98282723099021
 21
36.98825358246178
 31
0.0
  0
LINE
  5
12B0
  8
TITLE
 10
178.7072920514297
 20
34.625433530250923
 30
0.0
 11
181.07011210363751
 21
36.98825358246178
 31
0.0
  0
LINE
  5
12B1
  8
TITLE
 10
178.7072920514297
 20
34.538148657607117
 30
0.0
 11
181.1573969762847
 21
36.98825358246178
 31
0.0
  0
LINE
  5
12B2
  8
TITLE
 10
178.7072920514297
 20
34.450863784960262
 30
0.0
 11
180.4790912648522
 21
36.222662998378851
 31
0.0
  0
LINE
  5
12B3
  8
TITLE
 10
178.7072920514297
 20
34.363578912316491
 30
0.0
 11
180.46740220302519
 21
36.123689063912039
 31
0.0
  0
LINE
  5
12B4
  8
TITLE
 10
178.72166237584841
 20
34.290664364088187
 30
0.0
 11
180.45021234783189
 21
36.019214336071776
 31
0.0
  0
LINE
  5
12B5
  8
TITLE
 10
178.80894724849591
 20
34.290664364088187
 30
0.0
 11
180.42631676081049
 21
35.908033876402811
 31
0.0
  0
LINE
  5
12B6
  8
TITLE
 10
178.8962321211431
 20
34.290664364088187
 30
0.0
 11
180.3939215569572
 21
35.788353799902438
 31
0.0
  0
LINE
  5
12B7
  8
TITLE
 10
178.98351699379
 20
34.290664364088187
 30
0.0
 11
180.35013511005889
 21
35.657282480356677
 31
0.0
  0
LINE
  5
12B8
  8
TITLE
 10
178.88241953136961
 20
36.284403845184912
 30
0.0
 11
179.58626926864989
 21
36.98825358246178
 31
0.0
  0
LINE
  5
12B9
  8
TITLE
 10
178.96970440401699
 20
36.284403845184912
 30
0.0
 11
179.67355414129719
 21
36.98825358246178
 31
0.0
  0
LINE
  5
12BA
  8
TITLE
 10
178.79513465872961
 20
36.284403845184912
 30
0.0
 11
179.4989843960027
 21
36.98825358246178
 31
0.0
  0
LINE
  5
12BB
  8
TITLE
 10
178.42017100028261
 20
36.345864549973953
 30
0.0
 11
179.0625600327669
 21
36.98825358246178
 31
0.0
  0
LINE
  5
12BC
  8
TITLE
 10
178.445995168141
 20
36.284403845184912
 30
0.0
 11
179.14984490541411
 21
36.98825358246178
 31
0.0
  0
LINE
  5
12BD
  8
TITLE
 10
178.5332800407883
 20
36.284403845184912
 30
0.0
 11
179.2371297780617
 21
36.98825358246178
 31
0.0
  0
LINE
  5
12BE
  8
TITLE
 10
178.6205649134354
 20
36.284403845184912
 30
0.0
 11
179.3244146507088
 21
36.98825358246178
 31
0.0
  0
LINE
  5
12BF
  8
TITLE
 10
178.7078497860827
 20
36.284403845184912
 30
0.0
 11
179.41169952335571
 21
36.98825358246178
 31
0.0
  0
LINE
  5
12C0
  8
TITLE
 10
178.42017100028261
 20
38.178846875549652
 30
0.0
 11
179.09053220582399
 21
38.849208081094432
 31
0.0
  0
LINE
  5
12C1
  8
TITLE
 10
178.42017100028261
 20
38.091562002902819
 30
0.0
 11
179.22597544339459
 21
38.897366446014829
 31
0.0
  0
LINE
  5
12C2
  8
TITLE
 10
178.42017100028261
 20
38.004277130255844
 30
0.0
 11
179.37103639458601
 21
38.955142524558937
 31
0.0
  0
LINE
  5
12C3
  8
TITLE
 10
184.93086735857389
 20
38.317747530649129
 30
0.0
 11
186.41517726554389
 21
39.802057437618693
 31
0.0
  0
LINE
  5
12C4
  8
TITLE
 10
185.01815223122131
 20
38.317747530649129
 30
0.0
 11
186.41517726554389
 21
39.714772564971383
 31
0.0
  0
LINE
  5
12C5
  8
TITLE
 10
185.10543710386111
 20
38.317747530649129
 30
0.0
 11
186.41517726554389
 21
39.627487692324692
 31
0.0
  0
LINE
  5
12C6
  8
TITLE
 10
185.19272197650821
 20
38.317747530649129
 30
0.0
 11
186.41517726554389
 21
39.540202819677241
 31
0.0
  0
LINE
  5
12C7
  8
TITLE
 10
185.2800068491554
 20
38.317747530649129
 30
0.0
 11
186.41517726554389
 21
39.452917947030272
 31
0.0
  0
LINE
  5
12C8
  8
TITLE
 10
185.3672917218027
 20
38.317747530649129
 30
0.0
 11
186.41517726554389
 21
39.365633074382998
 31
0.0
  0
LINE
  5
12C9
  8
TITLE
 10
184.75629761327991
 20
38.317747530649129
 30
0.0
 11
185.4165327229926
 21
38.977982640358562
 31
0.0
  0
LINE
  5
12CA
  8
TITLE
 10
184.84358248592679
 20
38.317747530649129
 30
0.0
 11
185.50381759563251
 21
38.977982640358562
 31
0.0
  0
LINE
  5
12CB
  8
TITLE
 10
185.3434612796855
 20
35.937225527073188
 30
0.0
 11
186.98934019813649
 21
37.5831044455241
 31
0.0
  0
LINE
  5
12CC
  8
TITLE
 10
184.53583911532459
 20
35.827882343885619
 30
0.0
 11
187.2366957539009
 21
38.528738982458492
 31
0.0
  0
LINE
  5
12CD
  8
TITLE
 10
184.7065052689405
 20
35.736693879563859
 30
0.0
 11
187.18987184564571
 21
38.220060456265699
 31
0.0
  0
LINE
  5
12CE
  8
TITLE
 10
184.81859340874351
 20
35.761497146719648
 30
0.0
 11
187.16506857848981
 21
38.107972316465947
 31
0.0
  0
LINE
  5
12CF
  8
TITLE
 10
184.93666218680011
 20
35.792281052128828
 30
0.0
 11
187.13428467308071
 21
37.989903538410012
 31
0.0
  0
LINE
  5
12D0
  8
TITLE
 10
185.0620236673679
 20
35.830357660049373
 30
0.0
 11
187.09620806515289
 21
37.864542057835081
 31
0.0
  0
LINE
  5
12D1
  8
TITLE
 10
185.1966062580787
 20
35.877655378113452
 30
0.0
 11
187.0489103470959
 21
37.729959467130733
 31
0.0
  0
LINE
  5
12D2
  8
TITLE
 10
184.53583911532459
 20
35.740597471242133
 30
0.0
 11
187.22506325416381
 21
38.429821610074441
 31
0.0
  0
LINE
  5
12D3
  8
TITLE
 10
184.59945646041271
 20
35.716929943683112
 30
0.0
 11
187.20963578152589
 21
38.32710926478979
 31
0.0
  0
LINE
  5
12D4
  8
TITLE
 10
184.53583911532459
 20
38.970137759158291
 30
0.0
 11
184.54368399652881
 21
38.977982640358562
 31
0.0
  0
LINE
  5
12D5
  8
TITLE
 10
184.53583911532459
 20
38.882852886510818
 30
0.0
 11
184.63096886916861
 21
38.977982640358562
 31
0.0
  0
LINE
  5
12D6
  8
TITLE
 10
184.53583911532459
 20
38.795568013863857
 30
0.0
 11
184.7182537418156
 21
38.977982640358562
 31
0.0
  0
LINE
  5
12D7
  8
TITLE
 10
183.15732368283571
 20
38.02804668990477
 30
0.0
 11
183.84005054913661
 21
38.710773556205709
 31
0.0
  0
LINE
  5
12D8
  8
TITLE
 10
183.2227347411162
 20
38.006172875538802
 30
0.0
 11
183.91406439253021
 21
38.697502526952491
 31
0.0
  0
LINE
  5
12D9
  8
TITLE
 10
183.28885476830891
 20
37.98500803008416
 30
0.0
 11
183.9798796460164
 21
38.676032907791708
 31
0.0
  0
LINE
  5
12DA
  8
TITLE
 10
183.35569811517101
 20
37.964566504295377
 30
0.0
 11
183.9798796460164
 21
38.588748035144292
 31
0.0
  0
LINE
  5
12DB
  8
TITLE
 10
183.63062360672569
 20
37.890352505265241
 30
0.0
 11
183.9798796460164
 21
38.239608544559466
 31
0.0
  0
LINE
  5
12DC
  8
TITLE
 10
183.70133171112019
 20
37.87377573701221
 30
0.0
 11
183.9798796460164
 21
38.152323671915667
 31
0.0
  0
LINE
  5
12DD
  8
TITLE
 10
183.4232800034759
 20
37.944863519952797
 30
0.0
 11
183.9798796460164
 21
38.501463162497117
 31
0.0
  0
LINE
  5
12DE
  8
TITLE
 10
183.49161659070819
 20
37.925915234538138
 30
0.0
 11
183.9798796460164
 21
38.414178289853801
 31
0.0
  0
LINE
  5
12DF
  8
TITLE
 10
183.5607250415062
 20
37.907738812692713
 30
0.0
 11
183.9798796460164
 21
38.326893417206747
 31
0.0
  0
LINE
  5
12E0
  8
TITLE
 10
183.77287005082189
 20
37.858029204074292
 30
0.0
 11
183.9798796460164
 21
38.065038799268557
 31
0.0
  0
LINE
  5
12E1
  8
TITLE
 10
183.84526070198069
 20
37.843134982585809
 30
0.0
 11
183.9798796460164
 21
37.977753926621389
 31
0.0
  0
LINE
  5
12E2
  8
TITLE
 10
183.91852724209249
 20
37.829116650050452
 30
0.0
 11
183.9798796460164
 21
37.890469053974563
 31
0.0
  0
LINE
  5
12E3
  8
TITLE
 10
184.6690127406327
 20
38.317747530649129
 30
0.0
 11
185.32924785034581
 21
38.977982640358562
 31
0.0
  0
LINE
  5
12E4
  8
TITLE
 10
184.53583911532459
 20
38.446428523282123
 30
0.0
 11
185.06739323240421
 21
38.977982640358562
 31
0.0
  0
LINE
  5
12E5
  8
TITLE
 10
184.53583911532459
 20
38.359143650635112
 30
0.0
 11
185.1546781050512
 21
38.977982640358562
 31
0.0
  0
LINE
  5
12E6
  8
TITLE
 10
184.58172786798551
 20
38.317747530649129
 30
0.0
 11
185.24196297769871
 21
38.977982640358562
 31
0.0
  0
LINE
  5
12E7
  8
TITLE
 10
184.53583911532459
 20
38.620998268573217
 30
0.0
 11
184.89282348710989
 21
38.977982640358562
 31
0.0
  0
LINE
  5
12E8
  8
TITLE
 10
184.53583911532459
 20
38.533713395926043
 30
0.0
 11
184.98010835975711
 21
38.977982640358562
 31
0.0
  0
LINE
  5
12E9
  8
TITLE
 10
184.53583911532459
 20
38.708283141220051
 30
0.0
 11
184.80553861446259
 21
38.977982640358562
 31
0.0
  0
LINE
  5
12EA
  8
TITLE
 10
181.4302861585044
 20
39.006840217613828
 30
0.0
 11
182.00484228958129
 21
39.581396348687122
 31
0.0
  0
LINE
  5
12EB
  8
TITLE
 10
181.47782837584069
 20
38.967097562296132
 30
0.0
 11
182.0525997903718
 21
39.541868976827118
 31
0.0
  0
LINE
  5
12EC
  8
TITLE
 10
181.52588053508089
 20
38.927864848896178
 30
0.0
 11
182.10103983979309
 21
39.503024153601032
 31
0.0
  0
LINE
  5
12ED
  8
TITLE
 10
181.57444443055709
 20
38.889143871721778
 30
0.0
 11
182.1501659344832
 21
39.464865375644479
 31
0.0
  0
LINE
  5
12EE
  8
TITLE
 10
181.6235220747578
 20
38.850936643278899
 30
0.0
 11
182.19998210041109
 21
39.427396668932097
 31
0.0
  0
LINE
  5
12EF
  8
TITLE
 10
181.67311570255771
 20
38.813245398431903
 30
0.0
 11
182.2504929079812
 21
39.390622603855782
 31
0.0
  0
LINE
  5
12F0
  8
TITLE
 10
181.72322777587399
 20
38.77607259910107
 30
0.0
 11
182.30170348939771
 21
39.354548312624281
 31
0.0
  0
LINE
  5
12F1
  8
TITLE
 10
181.77386098891881
 20
38.73942093949811
 30
0.0
 11
182.35361955848381
 21
39.319179509063432
 31
0.0
  0
LINE
  5
12F2
  8
TITLE
 10
182.1431634326787
 20
38.49772927473505
 30
0.0
 11
182.73739955812991
 21
39.091965400186503
 31
0.0
  0
LINE
  5
12F3
  8
TITLE
 10
182.1980928200563
 20
38.465373789466163
 30
0.0
 11
182.79524385877971
 21
39.062524828189233
 31
0.0
  0
LINE
  5
12F4
  8
TITLE
 10
182.2535792102247
 20
38.43357530699069
 30
0.0
 11
182.85387601333221
 21
39.033872110094691
 31
0.0
  0
LINE
  5
12F5
  8
TITLE
 10
181.92891801792121
 20
38.632623350563257
 30
0.0
 11
182.51366704545609
 21
39.217372378097792
 31
0.0
  0
LINE
  5
12F6
  8
TITLE
 10
181.9816675919979
 20
38.5980880519962
 30
0.0
 11
182.56847468222571
 21
39.184895142216888
 31
0.0
  0
LINE
  5
12F7
  8
TITLE
 10
182.03495548422899
 20
38.56409107157981
 30
0.0
 11
182.62402598976749
 21
39.153161577118468
 31
0.0
  0
LINE
  5
12F8
  8
TITLE
 10
182.08878592542999
 20
38.530636640134077
 30
0.0
 11
182.6803307512852
 21
39.122181465988717
 31
0.0
  0
LINE
  5
12F9
  8
TITLE
 10
181.82501827393281
 20
38.703293351865767
 30
0.0
 11
182.40624743311719
 21
39.284522511049929
 31
0.0
  0
LINE
  5
12FA
  8
TITLE
 10
181.8767028075886
 20
38.667693012874111
 30
0.0
 11
182.45959406049241
 21
39.250584265777611
 31
0.0
  0
LINE
  5
12FB
  8
TITLE
 10
182.3662451093989
 20
38.37167146086697
 30
0.0
 11
182.97355825412049
 21
38.978984605592281
 31
0.0
  0
LINE
  5
12FC
  8
TITLE
 10
182.42343652560299
 20
38.341578004427319
 30
0.0
 11
183.03463820121181
 21
38.952779680040138
 31
0.0
  0
LINE
  5
12FD
  8
TITLE
 10
182.4812087898969
 20
38.312065396074331
 30
0.0
 11
183.09656588409521
 21
38.92742249026886
 31
0.0
  0
LINE
  5
12FE
  8
TITLE
 10
182.30962804709151
 20
38.402339271206912
 30
0.0
 11
182.91330935425569
 21
39.006020578374482
 31
0.0
  0
LINE
  5
12FF
  8
TITLE
 10
181.3367254414687
 20
39.08784924586945
 30
0.0
 11
181.91136351827669
 21
39.662487322676917
 31
0.0
  0
LINE
  5
1300
  8
TITLE
 10
181.38325230324961
 20
39.047091235002632
 30
0.0
 11
181.9577643571543
 21
39.621603288911018
 31
0.0
  0
LINE
  5
1301
  8
TITLE
 10
183.09260805503001
 20
38.050615934739483
 30
0.0
 11
183.7672288749504
 21
38.725236754659882
 31
0.0
  0
LINE
  5
1302
  8
TITLE
 10
182.5985237740708
 20
38.254810634949877
 30
0.0
 11
183.22303779240559
 21
38.879324653292329
 31
0.0
  0
LINE
  5
1303
  8
TITLE
 10
182.65808147510171
 20
38.227083463337209
 30
0.0
 11
183.2876223078562
 21
38.856624296095859
 31
0.0
  0
LINE
  5
1304
  8
TITLE
 10
182.5395687796057
 20
38.283140513136061
 30
0.0
 11
183.15935928626101
 21
38.90293101979114
 31
0.0
  0
LINE
  5
1305
  8
TITLE
 10
184.53583911532459
 20
35.915167216532751
 30
0.0
 11
185.36061468119979
 21
36.739942782404853
 31
0.0
  0
LINE
  5
1306
  8
TITLE
 10
183.1731908808176
 20
34.290664364088187
 30
0.0
 11
183.6805173432416
 21
34.797990826511978
 31
0.0
  0
LINE
  5
1307
  8
TITLE
 10
183.2604757534647
 20
34.290664364088187
 30
0.0
 11
183.71290877051561
 21
34.743097381139137
 31
0.0
  0
LINE
  5
1308
  8
TITLE
 10
183.34776062611189
 20
34.290664364088187
 30
0.0
 11
183.74530019779721
 21
34.688203935773231
 31
0.0
  0
LINE
  5
1309
  8
TITLE
 10
183.435045498759
 20
34.290664364088187
 30
0.0
 11
183.7776916250713
 21
34.633310490400497
 31
0.0
  0
LINE
  5
130A
  8
TITLE
 10
183.5223303714061
 20
34.290664364088187
 30
0.0
 11
183.81008305235289
 21
34.578417045031131
 31
0.0
  0
LINE
  5
130B
  8
TITLE
 10
183.60961524405371
 20
34.290664364088187
 30
0.0
 11
183.84247447962699
 21
34.523523599661907
 31
0.0
  0
LINE
  5
130C
  8
TITLE
 10
183.69690011670059
 20
34.290664364088187
 30
0.0
 11
183.87486590690159
 21
34.468630154292612
 31
0.0
  0
LINE
  5
130D
  8
TITLE
 10
183.78418498934769
 20
34.290664364088187
 30
0.0
 11
183.9072573341829
 21
34.413736708923139
 31
0.0
  0
LINE
  5
130E
  8
TITLE
 10
183.87146986199491
 20
34.290664364088187
 30
0.0
 11
183.93964876145719
 21
34.35884326355405
 31
0.0
  0
LINE
  5
130F
  8
TITLE
 10
183.95875473464201
 20
34.290664364088187
 30
0.0
 11
183.9720401887318
 21
34.303949818184648
 31
0.0
  0
LINE
  5
1310
  8
TITLE
 10
183.6830875269269
 20
36.284403845184912
 30
0.0
 11
183.9798796460164
 21
36.581195964277612
 31
0.0
  0
LINE
  5
1311
  8
TITLE
 10
184.53583911532459
 20
36.089736961823519
 30
0.0
 11
184.97922932032989
 21
36.53312716682882
 31
0.0
  0
LINE
  5
1312
  8
TITLE
 10
184.53583911532459
 20
36.002452089179741
 30
0.0
 11
185.14253615227221
 21
36.609149126124152
 31
0.0
  0
LINE
  5
1313
  8
TITLE
 10
183.1593782910515
 20
36.284403845184912
 30
0.0
 11
183.86322802832461
 21
36.98825358246178
 31
0.0
  0
LINE
  5
1314
  8
TITLE
 10
183.2466631636988
 20
36.284403845184912
 30
0.0
 11
183.950512900972
 21
36.98825358246178
 31
0.0
  0
LINE
  5
1315
  8
TITLE
 10
183.3339480363459
 20
36.284403845184912
 30
0.0
 11
183.9798796460164
 21
36.930335454862842
 31
0.0
  0
LINE
  5
1316
  8
TITLE
 10
183.4212329089857
 20
36.284403845184912
 30
0.0
 11
183.9798796460164
 21
36.843050582215682
 31
0.0
  0
LINE
  5
1317
  8
TITLE
 10
183.5085177816328
 20
36.284403845184912
 30
0.0
 11
183.9798796460164
 21
36.755765709568713
 31
0.0
  0
LINE
  5
1318
  8
TITLE
 10
183.59580265428011
 20
36.284403845184912
 30
0.0
 11
183.9798796460164
 21
36.668480836921283
 31
0.0
  0
LINE
  5
1319
  8
TITLE
 10
183.7703723995744
 20
36.284403845184912
 30
0.0
 11
183.9798796460164
 21
36.493911091630757
 31
0.0
  0
LINE
  5
131A
  8
TITLE
 10
183.8576572722215
 20
36.284403845184912
 30
0.0
 11
183.9798796460164
 21
36.406626218983462
 31
0.0
  0
LINE
  5
131B
  8
TITLE
 10
184.53583911532459
 20
36.177021834470821
 30
0.0
 11
184.84011984590671
 21
36.481302565057042
 31
0.0
  0
LINE
  5
131C
  8
TITLE
 10
184.53583911532459
 20
36.351591579764971
 30
0.0
 11
184.60175585154821
 21
36.417508315989117
 31
0.0
  0
LINE
  5
131D
  8
TITLE
 10
184.53583911532459
 20
36.26430670711779
 30
0.0
 11
184.7157710607691
 21
36.444238652562383
 31
0.0
  0
LINE
  5
131E
  8
TITLE
 10
183.94494214486889
 20
36.284403845184912
 30
0.0
 11
183.9798796460164
 21
36.319341346340138
 31
0.0
  0
LINE
  5
131F
  8
TITLE
 10
181.34020855524869
 20
34.290664364088187
 30
0.0
 11
183.00029737042411
 21
35.950753179270883
 31
0.0
  0
LINE
  5
1320
  8
TITLE
 10
181.42749342788881
 20
34.290664364088187
 30
0.0
 11
183.0326887976982
 21
35.89585973389768
 31
0.0
  0
LINE
  5
1321
  8
TITLE
 10
181.51477830053611
 20
34.290664364088187
 30
0.0
 11
183.06508022497991
 21
35.840966288532101
 31
0.0
  0
LINE
  5
1322
  8
TITLE
 10
181.60206317318301
 20
34.290664364088187
 30
0.0
 11
183.0974716522542
 21
35.786072843159239
 31
0.0
  0
LINE
  5
1323
  8
TITLE
 10
181.6893480458302
 20
34.290664364088187
 30
0.0
 11
183.12986307953571
 21
35.731179397790129
 31
0.0
  0
LINE
  5
1324
  8
TITLE
 10
182.24782212488259
 20
35.721987169608362
 30
0.0
 11
182.49741681792719
 21
35.971581862649522
 31
0.0
  0
LINE
  5
1325
  8
TITLE
 10
182.28021355216379
 20
35.667093724239123
 30
0.0
 11
182.58470169057421
 21
35.971581862649522
 31
0.0
  0
LINE
  5
1326
  8
TITLE
 10
182.27556520902121
 20
35.575160508452733
 30
0.0
 11
182.6719865632214
 21
35.971581862649522
 31
0.0
  0
LINE
  5
1327
  8
TITLE
 10
182.2247665736887
 20
35.437077000469323
 30
0.0
 11
182.75927143586881
 21
35.971581862649522
 31
0.0
  0
LINE
  5
1328
  8
TITLE
 10
182.11825641577821
 20
35.941560951085307
 30
0.0
 11
182.14827732733841
 21
35.971581862649522
 31
0.0
  0
LINE
  5
1329
  8
TITLE
 10
182.1506478430527
 20
35.88666750571636
 30
0.0
 11
182.2355621999854
 21
35.971581862649522
 31
0.0
  0
LINE
  5
132A
  8
TITLE
 10
182.18303927033389
 20
35.831774060346859
 30
0.0
 11
182.3228470726329
 21
35.971581862649522
 31
0.0
  0
LINE
  5
132B
  8
TITLE
 10
182.2154306976083
 20
35.776880614977443
 30
0.0
 11
182.41013194528011
 21
35.971581862649522
 31
0.0
  0
LINE
  5
132C
  8
TITLE
 10
181.8501052013514
 20
36.284403845184912
 30
0.0
 11
182.55395493862471
 21
36.98825358246178
 31
0.0
  0
LINE
  5
132D
  8
TITLE
 10
181.93739007399839
 20
36.284403845184912
 30
0.0
 11
182.64123981127199
 21
36.98825358246178
 31
0.0
  0
LINE
  5
132E
  8
TITLE
 10
182.02467494664589
 20
36.284403845184912
 30
0.0
 11
182.72852468391869
 21
36.98825358246178
 31
0.0
  0
LINE
  5
132F
  8
TITLE
 10
182.11195981929279
 20
36.284403845184912
 30
0.0
 11
182.81580955656599
 21
36.98825358246178
 31
0.0
  0
LINE
  5
1330
  8
TITLE
 10
182.286529564587
 20
36.284403845184912
 30
0.0
 11
182.9903793018604
 21
36.98825358246178
 31
0.0
  0
LINE
  5
1331
  8
TITLE
 10
182.3738144372341
 20
36.284403845184912
 30
0.0
 11
183.07766417450739
 21
36.98825358246178
 31
0.0
  0
LINE
  5
1332
  8
TITLE
 10
182.1992446919399
 20
36.284403845184912
 30
0.0
 11
182.90309442921321
 21
36.98825358246178
 31
0.0
  0
LINE
  5
1333
  8
TITLE
 10
181.3263959654754
 20
36.284403845184912
 30
0.0
 11
182.03024570274869
 21
36.98825358246178
 31
0.0
  0
LINE
  5
1334
  8
TITLE
 10
181.4136808381229
 20
36.284403845184912
 30
0.0
 11
182.1175305753957
 21
36.98825358246178
 31
0.0
  0
LINE
  5
1335
  8
TITLE
 10
181.5009657107698
 20
36.284403845184912
 30
0.0
 11
182.20481544804301
 21
36.98825358246178
 31
0.0
  0
LINE
  5
1336
  8
TITLE
 10
181.5882505834098
 20
36.284403845184912
 30
0.0
 11
182.29210032069051
 21
36.98825358246178
 31
0.0
  0
LINE
  5
1337
  8
TITLE
 10
181.67553545605691
 20
36.284403845184912
 30
0.0
 11
182.3793851933377
 21
36.98825358246178
 31
0.0
  0
LINE
  5
1338
  8
TITLE
 10
181.76282032870409
 20
36.284403845184912
 30
0.0
 11
182.46667006598469
 21
36.98825358246178
 31
0.0
  0
LINE
  5
1339
  8
TITLE
 10
182.90983467440711
 20
37.431418190884472
 30
0.0
 11
183.0924145576052
 21
37.613998074085863
 31
0.0
  0
LINE
  5
133A
  8
TITLE
 10
182.82254980175969
 20
37.431418190884472
 30
0.0
 11
183.0924145576052
 21
37.701282946733158
 31
0.0
  0
LINE
  5
133B
  8
TITLE
 10
182.99711954704739
 20
37.431418190884472
 30
0.0
 11
183.0924145576052
 21
37.526713201438739
 31
0.0
  0
LINE
  5
133C
  8
TITLE
 10
183.08440441969401
 20
37.431418190884472
 30
0.0
 11
183.0924145576052
 21
37.439428328791713
 31
0.0
  0
LINE
  5
133D
  8
TITLE
 10
181.7868426202308
 20
34.300874065841661
 30
0.0
 11
183.16225450681
 21
35.676285952420791
 31
0.0
  0
LINE
  5
133E
  8
TITLE
 10
181.8989347320842
 20
34.325681305047809
 30
0.0
 11
183.19464593408421
 21
35.621392507051233
 31
0.0
  0
LINE
  5
133F
  8
TITLE
 10
182.0237603146042
 20
34.363222014924283
 30
0.0
 11
183.22703736136589
 21
35.566499061682151
 31
0.0
  0
LINE
  5
1340
  8
TITLE
 10
182.16881928277451
 20
34.420996110446751
 30
0.0
 11
183.25942878864001
 21
35.511605616312778
 31
0.0
  0
LINE
  5
1341
  8
TITLE
 10
182.35633628156251
 20
34.521228236591902
 30
0.0
 11
183.29182021591421
 21
35.456712170943227
 31
0.0
  0
LINE
  5
1342
  8
TITLE
 10
182.86325924315091
 20
34.679011707588252
 30
0.0
 11
183.4213859250259
 21
35.237138389466438
 31
0.0
  0
LINE
  5
1343
  8
TITLE
 10
182.89565067042531
 20
34.624118262218701
 30
0.0
 11
183.45377735229999
 21
35.182244944093298
 31
0.0
  0
LINE
  5
1344
  8
TITLE
 10
182.92804209769949
 20
34.569224816849811
 30
0.0
 11
183.4861687795815
 21
35.12735149872772
 31
0.0
  0
LINE
  5
1345
  8
TITLE
 10
182.96043352498091
 20
34.514331371480239
 30
0.0
 11
183.5185602068558
 21
35.072458053354808
 31
0.0
  0
LINE
  5
1346
  8
TITLE
 10
182.99282495225549
 20
34.459437926110887
 30
0.0
 11
183.55095163413719
 21
35.017564607989208
 31
0.0
  0
LINE
  5
1347
  8
TITLE
 10
183.0252163795368
 20
34.404544480741812
 30
0.0
 11
183.5833430614116
 21
34.962671162616488
 31
0.0
  0
LINE
  5
1348
  8
TITLE
 10
182.7660849613213
 20
34.843692043696237
 30
0.0
 11
183.32421164319581
 21
35.401818725574628
 31
0.0
  0
LINE
  5
1349
  8
TITLE
 10
182.79847638859559
 20
34.788798598330203
 30
0.0
 11
183.3566030704703
 21
35.3469252802048
 31
0.0
  0
LINE
  5
134A
  8
TITLE
 10
182.83086781586951
 20
34.733905152957803
 30
0.0
 11
183.38899449775161
 21
35.292031834835541
 31
0.0
  0
LINE
  5
134B
  8
TITLE
 10
183.05760780681089
 20
34.349651035372261
 30
0.0
 11
183.61573448868569
 21
34.90777771725044
 31
0.0
  0
LINE
  5
134C
  8
TITLE
 10
183.08999923408561
 20
34.294757590003037
 30
0.0
 11
183.648125915967
 21
34.852884271877429
 31
0.0
  0
LINE
  5
134D
  8
TITLE
 10
182.46109930988149
 20
36.284403845184912
 30
0.0
 11
183.16494904715461
 21
36.98825358246178
 31
0.0
  0
LINE
  5
134E
  8
TITLE
 10
182.8975236731099
 20
36.284403845184912
 30
0.0
 11
183.6013734103831
 21
36.98825358246178
 31
0.0
  0
LINE
  5
134F
  8
TITLE
 10
182.98480854575689
 20
36.284403845184912
 30
0.0
 11
183.68865828303061
 21
36.98825358246178
 31
0.0
  0
LINE
  5
1350
  8
TITLE
 10
183.07209341840431
 20
36.284403845184912
 30
0.0
 11
183.7759431556774
 21
36.98825358246178
 31
0.0
  0
LINE
  5
1351
  8
TITLE
 10
182.54838418252149
 20
36.284403845184912
 30
0.0
 11
183.25223391980171
 21
36.98825358246178
 31
0.0
  0
LINE
  5
1352
  8
TITLE
 10
182.63566905516871
 20
36.284403845184912
 30
0.0
 11
183.33951879244901
 21
36.98825358246178
 31
0.0
  0
LINE
  5
1353
  8
TITLE
 10
182.72295392781589
 20
36.284403845184912
 30
0.0
 11
183.42680366508901
 21
36.98825358246178
 31
0.0
  0
LINE
  5
1354
  8
TITLE
 10
182.81023880046291
 20
36.284403845184912
 30
0.0
 11
183.5140885377362
 21
36.98825358246178
 31
0.0
  0
LINE
  5
1355
  8
TITLE
 10
181.3387069667657
 20
37.431418190884472
 30
0.0
 11
182.12076223040941
 21
38.21347345452439
 31
0.0
  0
LINE
  5
1356
  8
TITLE
 10
181.425991839413
 20
37.431418190884472
 30
0.0
 11
182.208047103056
 21
38.21347345452439
 31
0.0
  0
LINE
  5
1357
  8
TITLE
 10
181.51327671205971
 20
37.431418190884472
 30
0.0
 11
182.295331975696
 21
38.21347345452439
 31
0.0
  0
LINE
  5
1358
  8
TITLE
 10
181.60056158470701
 20
37.431418190884472
 30
0.0
 11
182.38261684834319
 21
38.21347345452439
 31
0.0
  0
LINE
  5
1359
  8
TITLE
 10
181.68784645735431
 20
37.431418190884472
 30
0.0
 11
182.46990172099049
 21
38.21347345452439
 31
0.0
  0
LINE
  5
135A
  8
TITLE
 10
181.77513133000119
 20
37.431418190884472
 30
0.0
 11
182.5571865936376
 21
38.21347345452439
 31
0.0
  0
LINE
  5
135B
  8
TITLE
 10
181.86241620264849
 20
37.431418190884472
 30
0.0
 11
182.6444714662847
 21
38.21347345452439
 31
0.0
  0
LINE
  5
135C
  8
TITLE
 10
182.47341031117139
 20
37.431418190884472
 30
0.0
 11
183.0924145576052
 21
38.050422437314161
 31
0.0
  0
LINE
  5
135D
  8
TITLE
 10
182.56069518381881
 20
37.431418190884472
 30
0.0
 11
183.0924145576052
 21
37.963137564670809
 31
0.0
  0
LINE
  5
135E
  8
TITLE
 10
182.64798005646571
 20
37.431418190884472
 30
0.0
 11
183.0924145576052
 21
37.875852692023933
 31
0.0
  0
LINE
  5
135F
  8
TITLE
 10
182.73526492911299
 20
37.431418190884472
 30
0.0
 11
183.0924145576052
 21
37.78856781938012
 31
0.0
  0
LINE
  5
1360
  8
TITLE
 10
181.94970107529559
 20
37.431418190884472
 30
0.0
 11
183.35313539321939
 21
38.834852508812219
 31
0.0
  0
LINE
  5
1361
  8
TITLE
 10
182.03698594794301
 20
37.431418190884472
 30
0.0
 11
183.41960141655591
 21
38.814033659504851
 31
0.0
  0
LINE
  5
1362
  8
TITLE
 10
182.12427082058289
 20
37.431418190884472
 30
0.0
 11
183.48704672587161
 21
38.794194096169861
 31
0.0
  0
LINE
  5
1363
  8
TITLE
 10
182.21155569323011
 20
37.431418190884472
 30
0.0
 11
183.55549984517961
 21
38.77536234283054
 31
0.0
  0
LINE
  5
1364
  8
TITLE
 10
182.29884056587721
 20
37.431418190884472
 30
0.0
 11
183.62499169826009
 21
38.75756932326729
 31
0.0
  0
LINE
  5
1365
  8
TITLE
 10
182.3861254385242
 20
37.431418190884472
 30
0.0
 11
183.6955558648142
 21
38.740848617178301
 31
0.0
  0
LINE
  5
1366
  8
TITLE
 10
188.2508451536188
 20
39.019179146300772
 30
0.0
 11
189.08695425867671
 21
39.855288251358182
 31
0.0
  0
LINE
  5
1367
  8
TITLE
 10
188.2508451536188
 20
38.931894273653803
 30
0.0
 11
189.12927505564039
 21
39.810324175678858
 31
0.0
  0
LINE
  5
1368
  8
TITLE
 10
188.2508451536188
 20
38.844609401006778
 30
0.0
 11
189.12927505564039
 21
39.723039303031712
 31
0.0
  0
LINE
  5
1369
  8
TITLE
 10
188.2508451536188
 20
38.757324528359469
 30
0.0
 11
189.12927505564039
 21
39.635754430387777
 31
0.0
  0
LINE
  5
136A
  8
TITLE
 10
187.48006431159291
 20
37.724689068395413
 30
0.0
 11
189.12927505564039
 21
39.373899812446354
 31
0.0
  0
LINE
  5
136B
  8
TITLE
 10
187.56734918424019
 20
37.724689068395413
 30
0.0
 11
189.12927505564039
 21
39.286614939799513
 31
0.0
  0
LINE
  5
136C
  8
TITLE
 10
187.6546340568872
 20
37.724689068395413
 30
0.0
 11
189.12927505564039
 21
39.199330067152189
 31
0.0
  0
LINE
  5
136D
  8
TITLE
 10
187.74191892953451
 20
37.724689068395413
 30
0.0
 11
189.12927505564039
 21
39.112045194505207
 31
0.0
  0
LINE
  5
136E
  8
TITLE
 10
187.82920380218141
 20
37.724689068395413
 30
0.0
 11
189.12927505564039
 21
39.024760321858381
 31
0.0
  0
LINE
  5
136F
  8
TITLE
 10
188.2508451536188
 20
38.67003965571223
 30
0.0
 11
189.12927505564039
 21
39.548469557740788
 31
0.0
  0
LINE
  5
1370
  8
TITLE
 10
188.2508451536188
 20
38.582754783065191
 30
0.0
 11
189.12927505564039
 21
39.461184685093642
 31
0.0
  0
LINE
  5
1371
  8
TITLE
 10
187.42261117260369
 20
37.929090547344302
 30
0.0
 11
188.07044939141861
 21
38.576928766166247
 31
0.0
  0
LINE
  5
1372
  8
TITLE
 10
187.42261117260369
 20
37.84180567470078
 30
0.0
 11
188.15773426406551
 21
38.576928766166247
 31
0.0
  0
LINE
  5
1373
  8
TITLE
 10
187.42261117260369
 20
37.754520802053463
 30
0.0
 11
188.2450191367127
 21
38.576928766166247
 31
0.0
  0
LINE
  5
1374
  8
TITLE
 10
187.42261117260369
 20
38.016375419991277
 30
0.0
 11
187.9831645187783
 21
38.576928766166247
 31
0.0
  0
LINE
  5
1375
  8
TITLE
 10
187.42261117260369
 20
38.278230037933099
 30
0.0
 11
187.7213099008369
 21
38.576928766166247
 31
0.0
  0
LINE
  5
1376
  8
TITLE
 10
187.42261117260369
 20
38.19094516528569
 30
0.0
 11
187.80859477348409
 21
38.576928766166247
 31
0.0
  0
LINE
  5
1377
  8
TITLE
 10
187.42261117260369
 20
38.103660292638438
 30
0.0
 11
187.89587964613119
 21
38.576928766166247
 31
0.0
  0
LINE
  5
1378
  8
TITLE
 10
187.42261117260369
 20
38.452799783226851
 30
0.0
 11
187.54674015554249
 21
38.576928766166247
 31
0.0
  0
LINE
  5
1379
  8
TITLE
 10
187.42261117260369
 20
38.365514910579819
 30
0.0
 11
187.63402502819011
 21
38.576928766166247
 31
0.0
  0
LINE
  5
137A
  8
TITLE
 10
188.17834329276289
 20
37.724689068395413
 30
0.0
 11
189.12927505564039
 21
38.675620831276319
 31
0.0
  0
LINE
  5
137B
  8
TITLE
 10
187.42261117260369
 20
38.540084655874139
 30
0.0
 11
187.45945528289559
 21
38.576928766166247
 31
0.0
  0
LINE
  5
137C
  8
TITLE
 10
188.003773547469
 20
37.724689068395413
 30
0.0
 11
189.12927505564039
 21
38.850190576567293
 31
0.0
  0
LINE
  5
137D
  8
TITLE
 10
188.09105842011579
 20
37.724689068395413
 30
0.0
 11
189.12927505564039
 21
38.762905703919998
 31
0.0
  0
LINE
  5
137E
  8
TITLE
 10
187.91648867482141
 20
37.724689068395413
 30
0.0
 11
189.12927505564039
 21
38.937475449214119
 31
0.0
  0
LINE
  5
137F
  8
TITLE
 10
188.2508451536188
 20
39.106464018947747
 30
0.0
 11
188.99966938602921
 21
39.855288251358182
 31
0.0
  0
LINE
  5
1380
  8
TITLE
 10
188.2508451536188
 20
39.630173254823951
 30
0.0
 11
188.47596015015361
 21
39.855288251358182
 31
0.0
  0
LINE
  5
1381
  8
TITLE
 10
188.2508451536188
 20
39.542888382176528
 30
0.0
 11
188.56324502280091
 21
39.855288251358182
 31
0.0
  0
LINE
  5
1382
  8
TITLE
 10
188.2508451536188
 20
39.455603509529361
 30
0.0
 11
188.65052989544071
 21
39.855288251358182
 31
0.0
  0
LINE
  5
1383
  8
TITLE
 10
188.2508451536188
 20
39.368318636885867
 30
0.0
 11
188.73781476808759
 21
39.855288251358182
 31
0.0
  0
LINE
  5
1384
  8
TITLE
 10
188.2508451536188
 20
39.281033764238842
 30
0.0
 11
188.82509964073469
 21
39.855288251358182
 31
0.0
  0
LINE
  5
1385
  8
TITLE
 10
188.2508451536188
 20
39.193748891591717
 30
0.0
 11
188.91238451338199
 21
39.855288251358182
 31
0.0
  0
LINE
  5
1386
  8
TITLE
 10
188.2508451536188
 20
39.80474300011808
 30
0.0
 11
188.30139040485889
 21
39.855288251358182
 31
0.0
  0
LINE
  5
1387
  8
TITLE
 10
188.2508451536188
 20
39.717458127470792
 30
0.0
 11
188.38867527750639
 21
39.855288251358182
 31
0.0
  0
LINE
  5
1388
  8
TITLE
 10
188.2508451536188
 20
35.702353985734113
 30
0.0
 11
189.12927505564039
 21
36.58078388775904
 31
0.0
  0
LINE
  5
1389
  8
TITLE
 10
188.2508451536188
 20
35.615069113086818
 30
0.0
 11
189.12927505564039
 21
36.493499015111809
 31
0.0
  0
LINE
  5
138A
  8
TITLE
 10
188.2508451536188
 20
35.527784240439964
 30
0.0
 11
189.12927505564039
 21
36.406214142464783
 31
0.0
  0
LINE
  5
138B
  8
TITLE
 10
188.2508451536188
 20
35.440499367796178
 30
0.0
 11
189.12927505564039
 21
36.318929269817652
 31
0.0
  0
LINE
  5
138C
  8
TITLE
 10
188.2508451536188
 20
35.353214495149331
 30
0.0
 11
189.12927505564039
 21
36.231644397174144
 31
0.0
  0
LINE
  5
138D
  8
TITLE
 10
188.2508451536188
 20
35.265929622501901
 30
0.0
 11
189.12927505564039
 21
36.144359524527289
 31
0.0
  0
LINE
  5
138E
  8
TITLE
 10
188.2508451536188
 20
35.17864474985474
 30
0.0
 11
189.12927505564039
 21
36.057074651879852
 31
0.0
  0
LINE
  5
138F
  8
TITLE
 10
188.2508451536188
 20
35.96420860367175
 30
0.0
 11
189.12927505564039
 21
36.84263850570062
 31
0.0
  0
LINE
  5
1390
  8
TITLE
 10
188.2508451536188
 20
35.87692373102476
 30
0.0
 11
189.12927505564039
 21
36.755353633053502
 31
0.0
  0
LINE
  5
1391
  8
TITLE
 10
188.2508451536188
 20
35.789638858377629
 30
0.0
 11
189.12927505564039
 21
36.66806876040647
 31
0.0
  0
LINE
  5
1392
  8
TITLE
 10
187.2755798952054
 20
34.290664364088187
 30
0.0
 11
188.127819592972
 21
35.142904061858488
 31
0.0
  0
LINE
  5
1393
  8
TITLE
 10
187.36286476785219
 20
34.290664364088187
 30
0.0
 11
188.21510446561891
 21
35.142904061858488
 31
0.0
  0
LINE
  5
1394
  8
TITLE
 10
187.4501496404996
 20
34.290664364088187
 30
0.0
 11
189.12927505564039
 21
35.969789779236208
 31
0.0
  0
LINE
  5
1395
  8
TITLE
 10
187.53743451314659
 20
34.290664364088187
 30
0.0
 11
189.12927505564039
 21
35.882504906589219
 31
0.0
  0
LINE
  5
1396
  8
TITLE
 10
187.62471938579409
 20
34.290664364088187
 30
0.0
 11
189.12927505564039
 21
35.795220033941924
 31
0.0
  0
LINE
  5
1397
  8
TITLE
 10
187.71200425844091
 20
34.290664364088187
 30
0.0
 11
189.12927505564039
 21
35.707935161295069
 31
0.0
  0
LINE
  5
1398
  8
TITLE
 10
187.79928913108091
 20
34.290664364088187
 30
0.0
 11
189.12927505564039
 21
35.620650288647781
 31
0.0
  0
LINE
  5
1399
  8
TITLE
 10
187.8865740037279
 20
34.290664364088187
 30
0.0
 11
189.12927505564039
 21
35.533365416000457
 31
0.0
  0
LINE
  5
139A
  8
TITLE
 10
187.97385887637509
 20
34.290664364088187
 30
0.0
 11
189.12927505564039
 21
35.446080543353062
 31
0.0
  0
LINE
  5
139B
  8
TITLE
 10
188.06114374902219
 20
34.290664364088187
 30
0.0
 11
189.12927505564039
 21
35.358795670706201
 31
0.0
  0
LINE
  5
139C
  8
TITLE
 10
188.14842862166941
 20
34.290664364088187
 30
0.0
 11
189.12927505564039
 21
35.27151079806282
 31
0.0
  0
LINE
  5
139D
  8
TITLE
 10
188.23571349431691
 20
34.290664364088187
 30
0.0
 11
189.12927505564039
 21
35.184225925415717
 31
0.0
  0
LINE
  5
139E
  8
TITLE
 10
188.3229983669637
 20
34.290664364088187
 30
0.0
 11
189.17523806473059
 21
35.142904061858488
 31
0.0
  0
LINE
  5
139F
  8
TITLE
 10
188.4102832396112
 20
34.290664364088187
 30
0.0
 11
189.2625229373779
 21
35.142904061858488
 31
0.0
  0
LINE
  5
13A0
  8
TITLE
 10
188.49756811225819
 20
34.290664364088187
 30
0.0
 11
189.34980781002491
 21
35.142904061858488
 31
0.0
  0
LINE
  5
13A1
  8
TITLE
 10
188.58485298490521
 20
34.290664364088187
 30
0.0
 11
189.4370926826719
 21
35.142904061858488
 31
0.0
  0
LINE
  5
13A2
  8
TITLE
 10
188.2508451536188
 20
36.83705733013619
 30
0.0
 11
189.12927505564039
 21
37.715487232164953
 31
0.0
  0
LINE
  5
13A3
  8
TITLE
 10
188.2508451536188
 20
36.749772457489222
 30
0.0
 11
189.12927505564039
 21
37.628202359517907
 31
0.0
  0
LINE
  5
13A4
  8
TITLE
 10
188.2508451536188
 20
36.66248758484204
 30
0.0
 11
189.12927505564039
 21
37.540917486870804
 31
0.0
  0
LINE
  5
13A5
  8
TITLE
 10
188.2508451536188
 20
36.57520271219812
 30
0.0
 11
189.12927505564039
 21
37.453632614223203
 31
0.0
  0
LINE
  5
13A6
  8
TITLE
 10
188.2508451536188
 20
36.487917839551152
 30
0.0
 11
189.12927505564039
 21
37.366347741576348
 31
0.0
  0
LINE
  5
13A7
  8
TITLE
 10
188.2508451536188
 20
36.400632966907892
 30
0.0
 11
189.12927505564039
 21
37.27906286892906
 31
0.0
  0
LINE
  5
13A8
  8
TITLE
 10
188.2508451536188
 20
36.313348094260462
 30
0.0
 11
189.12927505564039
 21
37.191777996282219
 31
0.0
  0
LINE
  5
13A9
  8
TITLE
 10
188.2508451536188
 20
36.226063221613202
 30
0.0
 11
189.12927505564039
 21
37.10449312363842
 31
0.0
  0
LINE
  5
13AA
  8
TITLE
 10
188.2508451536188
 20
36.138778348966298
 30
0.0
 11
189.12927505564039
 21
37.017208250991303
 31
0.0
  0
LINE
  5
13AB
  8
TITLE
 10
188.2508451536188
 20
36.051493476319052
 30
0.0
 11
189.12927505564039
 21
36.92992337834778
 31
0.0
  0
LINE
  5
13AC
  8
TITLE
 10
188.2508451536188
 20
37.709906056600794
 30
0.0
 11
189.12927505564039
 21
38.588335958629223
 31
0.0
  0
LINE
  5
13AD
  8
TITLE
 10
188.2508451536188
 20
37.622621183953768
 30
0.0
 11
189.2051527358241
 21
38.576928766166247
 31
0.0
  0
LINE
  5
13AE
  8
TITLE
 10
188.2508451536188
 20
37.53533631130982
 30
0.0
 11
189.29243760847149
 21
38.576928766166247
 31
0.0
  0
LINE
  5
13AF
  8
TITLE
 10
188.2508451536188
 20
37.448051438662858
 30
0.0
 11
189.37972248111839
 21
38.576928766166247
 31
0.0
  0
LINE
  5
13B0
  8
TITLE
 10
188.2508451536188
 20
37.360766566015542
 30
0.0
 11
189.4670073537655
 21
38.576928766166247
 31
0.0
  0
LINE
  5
13B1
  8
TITLE
 10
185.4545765944498
 20
38.317747530649129
 30
0.0
 11
186.41517726554389
 21
39.27834820173581
 31
0.0
  0
LINE
  5
13B2
  8
TITLE
 10
185.54186146709699
 20
38.317747530649129
 30
0.0
 11
186.41517726554389
 21
39.191063329088848
 31
0.0
  0
LINE
  5
13B3
  8
TITLE
 10
185.62914633974421
 20
38.317747530649129
 30
0.0
 11
186.41517726554389
 21
39.103778456445028
 31
0.0
  0
LINE
  5
13B4
  8
TITLE
 10
186.2207086047232
 20
38.036461069163821
 30
0.0
 11
187.16223017592151
 21
38.977982640358562
 31
0.0
  0
LINE
  5
13B5
  8
TITLE
 10
186.19397826814969
 20
37.922445859943281
 30
0.0
 11
187.2495150485687
 21
38.977982640358562
 31
0.0
  0
LINE
  5
13B6
  8
TITLE
 10
185.71643121239131
 20
38.317747530649129
 30
0.0
 11
186.41517726554389
 21
39.01649358379774
 31
0.0
  0
LINE
  5
13B7
  8
TITLE
 10
185.8037160850385
 20
38.317747530649129
 30
0.0
 11
186.4639511947442
 21
38.977982640358562
 31
0.0
  0
LINE
  5
13B8
  8
TITLE
 10
185.8910009576858
 20
38.317747530649129
 30
0.0
 11
186.55123606739161
 21
38.977982640358562
 31
0.0
  0
LINE
  5
13B9
  8
TITLE
 10
185.9782858303258
 20
38.317747530649129
 30
0.0
 11
186.6385209400386
 21
38.977982640358562
 31
0.0
  0
LINE
  5
13BA
  8
TITLE
 10
186.06557070297271
 20
38.317747530649129
 30
0.0
 11
186.72580581268559
 21
38.977982640358562
 31
0.0
  0
LINE
  5
13BB
  8
TITLE
 10
186.15285557561981
 20
38.317747530649129
 30
0.0
 11
186.8130906853329
 21
38.977982640358562
 31
0.0
  0
LINE
  5
13BC
  8
TITLE
 10
186.24014044826691
 20
38.317747530649129
 30
0.0
 11
186.9003755579802
 21
38.977982640358562
 31
0.0
  0
LINE
  5
13BD
  8
TITLE
 10
186.25226829423059
 20
38.24259050395851
 30
0.0
 11
186.98766043062699
 21
38.977982640358562
 31
0.0
  0
LINE
  5
13BE
  8
TITLE
 10
186.239610747423
 20
38.142648084510462
 30
0.0
 11
187.07494530327421
 21
38.977982640358562
 31
0.0
  0
LINE
  5
13BF
  8
TITLE
 10
185.57991604706561
 20
39.141365964434698
 30
0.0
 11
186.2938383339889
 21
39.855288251358182
 31
0.0
  0
LINE
  5
13C0
  8
TITLE
 10
185.57991604706561
 20
39.054081091787282
 30
0.0
 11
186.38112320663609
 21
39.855288251358182
 31
0.0
  0
LINE
  5
13C1
  8
TITLE
 10
185.57991604706561
 20
39.665075200310412
 30
0.0
 11
185.77012909811299
 21
39.855288251358182
 31
0.0
  0
LINE
  5
13C2
  8
TITLE
 10
185.57991604706561
 20
39.57779032766328
 30
0.0
 11
185.85741397076049
 21
39.855288251358182
 31
0.0
  0
LINE
  5
13C3
  8
TITLE
 10
185.57991604706561
 20
39.49050545501656
 30
0.0
 11
185.9446988434002
 21
39.855288251358182
 31
0.0
  0
LINE
  5
13C4
  8
TITLE
 10
185.57991604706561
 20
39.403220582372768
 30
0.0
 11
186.0319837160479
 21
39.855288251358182
 31
0.0
  0
LINE
  5
13C5
  8
TITLE
 10
185.57991604706561
 20
39.31593570972548
 30
0.0
 11
186.11926858869469
 21
39.855288251358182
 31
0.0
  0
LINE
  5
13C6
  8
TITLE
 10
185.57991604706561
 20
39.22865083707822
 30
0.0
 11
186.20655346134191
 21
39.855288251358182
 31
0.0
  0
LINE
  5
13C7
  8
TITLE
 10
185.57991604706561
 20
39.839644945604853
 30
0.0
 11
185.5955593528189
 21
39.855288251358182
 31
0.0
  0
LINE
  5
13C8
  8
TITLE
 10
185.57991604706561
 20
39.752360072957721
 30
0.0
 11
185.68284422546611
 21
39.855288251358182
 31
0.0
  0
LINE
  5
13C9
  8
TITLE
 10
185.57991604706561
 20
35.475401313283243
 30
0.0
 11
186.41517726554389
 21
36.31066253175814
 31
0.0
  0
LINE
  5
13CA
  8
TITLE
 10
185.57991604706561
 20
35.388116440635827
 30
0.0
 11
186.41517726554389
 21
36.223377659110909
 31
0.0
  0
LINE
  5
13CB
  8
TITLE
 10
185.57991604706561
 20
35.300831567988851
 30
0.0
 11
186.41517726554389
 21
36.136092786467103
 31
0.0
  0
LINE
  5
13CC
  8
TITLE
 10
185.57991604706561
 20
35.213546695341691
 30
0.0
 11
186.41517726554389
 21
36.0488079138198
 31
0.0
  0
LINE
  5
13CD
  8
TITLE
 10
186.86947155635869
 20
35.979392968755178
 30
0.0
 11
187.2504387175245
 21
36.360360129924558
 31
0.0
  0
LINE
  5
13CE
  8
TITLE
 10
186.91869597919541
 20
35.941332518948528
 30
0.0
 11
187.2504387175245
 21
36.273075257277242
 31
0.0
  0
LINE
  5
13CF
  8
TITLE
 10
186.96792040203201
 20
35.90327206913777
 30
0.0
 11
187.2504387175245
 21
36.185790384633783
 31
0.0
  0
LINE
  5
13D0
  8
TITLE
 10
187.01714482486889
 20
35.86521161933112
 30
0.0
 11
187.2504387175245
 21
36.098505511986758
 31
0.0
  0
LINE
  5
13D1
  8
TITLE
 10
187.06636924771249
 20
35.827151169524328
 30
0.0
 11
187.2504387175245
 21
36.011220639339783
 31
0.0
  0
LINE
  5
13D2
  8
TITLE
 10
185.57991604706561
 20
35.911825676511228
 30
0.0
 11
186.7842701066798
 21
37.116179736133063
 31
0.0
  0
LINE
  5
13D3
  8
TITLE
 10
185.57991604706561
 20
35.824540803864117
 30
0.0
 11
186.82676094730849
 21
37.071385704110909
 31
0.0
  0
LINE
  5
13D4
  8
TITLE
 10
185.57991604706561
 20
35.737255931220723
 30
0.0
 11
186.869251787937
 21
37.02659167208914
 31
0.0
  0
LINE
  5
13D5
  8
TITLE
 10
185.57991604706561
 20
35.649971058573897
 30
0.0
 11
186.9117426285587
 21
36.981797640070461
 31
0.0
  0
LINE
  5
13D6
  8
TITLE
 10
185.57991604706561
 20
35.562686185926466
 30
0.0
 11
186.9542334691873
 21
36.937003608051953
 31
0.0
  0
LINE
  5
13D7
  8
TITLE
 10
185.57991604706561
 20
34.777122332109329
 30
0.0
 11
186.41517726554389
 21
35.612383550584099
 31
0.0
  0
LINE
  5
13D8
  8
TITLE
 10
185.57991604706561
 20
34.689837459462169
 30
0.0
 11
186.41517726554389
 21
35.525098677940584
 31
0.0
  0
LINE
  5
13D9
  8
TITLE
 10
185.57991604706561
 20
34.602552586818859
 30
0.0
 11
186.41517726554389
 21
35.437813805293459
 31
0.0
  0
LINE
  5
13DA
  8
TITLE
 10
185.57991604706561
 20
34.515267714171387
 30
0.0
 11
186.41517726554389
 21
35.350528932646156
 31
0.0
  0
LINE
  5
13DB
  8
TITLE
 10
185.57991604706561
 20
34.427982841524511
 30
0.0
 11
186.41517726554389
 21
35.263244060002648
 31
0.0
  0
LINE
  5
13DC
  8
TITLE
 10
185.57991604706561
 20
34.34069796887708
 30
0.0
 11
186.41517726554389
 21
35.175959187355801
 31
0.0
  0
LINE
  5
13DD
  8
TITLE
 10
185.61716731492371
 20
34.290664364088187
 30
0.0
 11
186.41517726554389
 21
35.088674314708364
 31
0.0
  0
LINE
  5
13DE
  8
TITLE
 10
185.70445218757089
 20
34.290664364088187
 30
0.0
 11
186.41517726554389
 21
35.001389442061047
 31
0.0
  0
LINE
  5
13DF
  8
TITLE
 10
185.57991604706561
 20
34.864407204756773
 30
0.0
 11
186.41517726554389
 21
35.699668423231209
 31
0.0
  0
LINE
  5
13E0
  8
TITLE
 10
185.79173706021771
 20
34.290664364088187
 30
0.0
 11
186.41517726554389
 21
34.914104569414228
 31
0.0
  0
LINE
  5
13E1
  8
TITLE
 10
185.87902193286499
 20
34.290664364088187
 30
0.0
 11
186.41517726554389
 21
34.826819696767082
 31
0.0
  0
LINE
  5
13E2
  8
TITLE
 10
185.96630680550521
 20
34.290664364088187
 30
0.0
 11
186.41517726554389
 21
34.739534824119637
 31
0.0
  0
LINE
  5
13E3
  8
TITLE
 10
186.05359167815209
 20
34.290664364088187
 30
0.0
 11
186.41517726554389
 21
34.652249951472513
 31
0.0
  0
LINE
  5
13E4
  8
TITLE
 10
186.14087655079931
 20
34.290664364088187
 30
0.0
 11
186.41517726554389
 21
34.564965078828848
 31
0.0
  0
LINE
  5
13E5
  8
TITLE
 10
186.22816142344649
 20
34.290664364088187
 30
0.0
 11
186.41517726554389
 21
34.477680206182157
 31
0.0
  0
LINE
  5
13E6
  8
TITLE
 10
186.3154462960936
 20
34.290664364088187
 30
0.0
 11
186.41517726554389
 21
34.39039533353489
 31
0.0
  0
LINE
  5
13E7
  8
TITLE
 10
186.40273116874059
 20
34.290664364088187
 30
0.0
 11
186.41517726554389
 21
34.303110460891503
 31
0.0
  0
LINE
  5
13E8
  8
TITLE
 10
185.57991604706561
 20
35.126261822694389
 30
0.0
 11
186.41517726554389
 21
35.961523041172768
 31
0.0
  0
LINE
  5
13E9
  8
TITLE
 10
185.57991604706561
 20
35.038976950047271
 30
0.0
 11
186.41517726554389
 21
35.874238168525949
 31
0.0
  0
LINE
  5
13EA
  8
TITLE
 10
185.57991604706561
 20
34.951692077399983
 30
0.0
 11
186.41517726554389
 21
35.786953295878362
 31
0.0
  0
LINE
  5
13EB
  8
TITLE
 10
187.09633710225049
 20
35.071555170244856
 30
0.0
 11
187.1676859938606
 21
35.142904061858488
 31
0.0
  0
LINE
  5
13EC
  8
TITLE
 10
187.21404251622249
 20
35.712969820099723
 30
0.0
 11
187.2504387175245
 21
35.749366021401698
 31
0.0
  0
LINE
  5
13ED
  8
TITLE
 10
187.115593670549
 20
35.789090719713762
 30
0.0
 11
187.2504387175245
 21
35.923935766696253
 31
0.0
  0
LINE
  5
13EE
  8
TITLE
 10
187.16481809338561
 20
35.75103026990692
 30
0.0
 11
187.2504387175245
 21
35.836650894049143
 31
0.0
  0
LINE
  5
13EF
  8
TITLE
 10
185.50798066159169
 20
36.014460036335393
 30
0.0
 11
186.91210568887061
 21
37.418585063610827
 31
0.0
  0
LINE
  5
13F0
  8
TITLE
 10
185.57991604706561
 20
35.999110549158637
 30
0.0
 11
186.8057226284912
 21
37.224917130584693
 31
0.0
  0
LINE
  5
13F1
  8
TITLE
 10
186.72179828784149
 20
36.093574318179783
 30
0.0
 11
187.2504387175245
 21
36.62221474786611
 31
0.0
  0
LINE
  5
13F2
  8
TITLE
 10
186.77102271067821
 20
36.055513868372842
 30
0.0
 11
187.2504387175245
 21
36.534929875218843
 31
0.0
  0
LINE
  5
13F3
  8
TITLE
 10
186.42645175081421
 20
36.32193701702802
 30
0.0
 11
186.99672430981619
 21
36.892209576033537
 31
0.0
  0
LINE
  5
13F4
  8
TITLE
 10
186.4756761736509
 20
36.283876567221199
 30
0.0
 11
187.0392151504376
 21
36.847415544011781
 31
0.0
  0
LINE
  5
13F5
  8
TITLE
 10
186.5249005964877
 20
36.245816117410868
 30
0.0
 11
187.08170599106651
 21
36.802621511989869
 31
0.0
  0
LINE
  5
13F6
  8
TITLE
 10
186.5741250193243
 20
36.207755667603813
 30
0.0
 11
187.12419683169489
 21
36.757827479971183
 31
0.0
  0
LINE
  5
13F7
  8
TITLE
 10
186.6233494421611
 20
36.16969521779717
 30
0.0
 11
187.16668767231701
 21
36.713033447952803
 31
0.0
  0
LINE
  5
13F8
  8
TITLE
 10
186.67257386500489
 20
36.131634767986419
 30
0.0
 11
187.20917851294541
 21
36.668239415930749
 31
0.0
  0
LINE
  5
13F9
  8
TITLE
 10
186.82024713351481
 20
36.017453418562241
 30
0.0
 11
187.2504387175245
 21
36.447645002571853
 31
0.0
  0
LINE
  5
13FA
  8
TITLE
 10
186.029067794588
 20
37.495680768443442
 30
0.0
 11
187.25020409255609
 21
38.716817066415132
 31
0.0
  0
LINE
  5
13FB
  8
TITLE
 10
185.8982741383075
 20
37.277602239515893
 30
0.0
 11
187.24496104807099
 21
38.624289149279832
 31
0.0
  0
LINE
  5
13FC
  8
TITLE
 10
187.1882950225579
 20
34.290664364088187
 30
0.0
 11
188.0405347203249
 21
35.142904061858488
 31
0.0
  0
LINE
  5
13FD
  8
TITLE
 10
187.09633710225049
 20
34.46056106171514
 30
0.0
 11
187.7786801023905
 21
35.142904061858488
 31
0.0
  0
LINE
  5
13FE
  8
TITLE
 10
187.09633710225049
 20
34.373276189071213
 30
0.0
 11
187.86596497503771
 21
35.142904061858488
 31
0.0
  0
LINE
  5
13FF
  8
TITLE
 10
187.10101014991091
 20
34.290664364088187
 30
0.0
 11
187.9532498476774
 21
35.142904061858488
 31
0.0
  0
LINE
  5
1400
  8
TITLE
 10
187.09633710225049
 20
34.809700552303283
 30
0.0
 11
187.42954061180171
 21
35.142904061858488
 31
0.0
  0
LINE
  5
1401
  8
TITLE
 10
187.09633710225049
 20
34.722415679656137
 30
0.0
 11
187.5168254844489
 21
35.142904061858488
 31
0.0
  0
LINE
  5
1402
  8
TITLE
 10
187.09633710225049
 20
34.635130807009162
 30
0.0
 11
187.6041103570962
 21
35.142904061858488
 31
0.0
  0
LINE
  5
1403
  8
TITLE
 10
187.09633710225049
 20
34.547845934361987
 30
0.0
 11
187.69139522974359
 21
35.142904061858488
 31
0.0
  0
LINE
  5
1404
  8
TITLE
 10
187.09633710225049
 20
34.896985424950728
 30
0.0
 11
187.34225573915501
 21
35.142904061858488
 31
0.0
  0
LINE
  5
1405
  8
TITLE
 10
187.09633710225049
 20
34.984270297597561
 30
0.0
 11
187.25497086650739
 21
35.142904061858488
 31
0.0
  0
LINE
  5
1406
  8
TITLE
 10
186.1050897538835
 20
37.658987600385899
 30
0.0
 11
187.2527078800841
 21
38.806605726586909
 31
0.0
  0
LINE
  5
1407
  8
TITLE
 10
186.15691435565901
 20
37.798097074801831
 30
0.0
 11
187.25270796529259
 21
38.89389068443522
 31
0.0
  0
LINE
  5
1408
  8
TITLE
 10
189.57490125511021
 20
37.724689068395413
 30
0.0
 11
189.98260711391691
 21
38.13239492720578
 31
0.0
  0
LINE
  5
1409
  8
TITLE
 10
189.6621861277502
 20
37.724689068395413
 30
0.0
 11
189.98260711391691
 21
38.04511005455862
 31
0.0
  0
LINE
  5
140A
  8
TITLE
 10
189.7494710003977
 20
37.724689068395413
 30
0.0
 11
189.98260711391691
 21
37.957825181911787
 31
0.0
  0
LINE
  5
140B
  8
TITLE
 10
189.8367558730445
 20
37.724689068395413
 30
0.0
 11
189.98260711391691
 21
37.870540309264221
 31
0.0
  0
LINE
  5
140C
  8
TITLE
 10
189.92404074569171
 20
37.724689068395413
 30
0.0
 11
189.98260711391691
 21
37.783255436617061
 31
0.0
  0
LINE
  5
140D
  8
TITLE
 10
189.5449865840165
 20
34.290664364088187
 30
0.0
 11
190.23358695249371
 21
34.979264732564957
 31
0.0
  0
LINE
  5
140E
  8
TITLE
 10
189.98141094724571
 20
34.290664364088187
 30
0.0
 11
190.23358695249371
 21
34.542840369336062
 31
0.0
  0
LINE
  5
140F
  8
TITLE
 10
190.06869581989261
 20
34.290664364088187
 30
0.0
 11
190.23358695249371
 21
34.455555496689229
 31
0.0
  0
LINE
  5
1410
  8
TITLE
 10
189.63227145665661
 20
34.290664364088187
 30
0.0
 11
190.23358695249371
 21
34.891979859917527
 31
0.0
  0
LINE
  5
1411
  8
TITLE
 10
189.71955632930391
 20
34.290664364088187
 30
0.0
 11
190.23358695249371
 21
34.804694987274182
 31
0.0
  0
LINE
  5
1412
  8
TITLE
 10
189.80684120195099
 20
34.290664364088187
 30
0.0
 11
190.23358695249371
 21
34.717410114626887
 31
0.0
  0
LINE
  5
1413
  8
TITLE
 10
189.89412607459809
 20
34.290664364088187
 30
0.0
 11
190.23358695249371
 21
34.63012524198335
 31
0.0
  0
LINE
  5
1414
  8
TITLE
 10
190.15598069253971
 20
34.290664364088187
 30
0.0
 11
190.23358695249371
 21
34.368270624041926
 31
0.0
  0
LINE
  5
1816
  8
MODEL
 10
124.3589743178
 20
138.95739863624999
 30
0.0
 11
124.3589743178
 21
253.49053897842381
 31
0.0
  0
LINE
  5
1817
  8
MODEL
 10
119.375
 20
138.95739863624999
 30
0.0
 11
119.375
 21
252.95739863624991
 31
0.0
  0
LINE
  5
1818
  8
MODEL
 10
114.375
 20
138.95739863624999
 30
0.0
 11
114.375
 21
253.49401306696069
 31
0.0
  0
LINE
  5
1819
  8
MODEL
 10
109.375
 20
138.95739863624999
 30
0.0
 11
109.375
 21
255.1708350397665
 31
0.0
  0
LINE
  5
181A
  8
MODEL
 10
104.3749999999999
 20
138.95739863624999
 30
0.0
 11
104.375
 21
256.61539402825218
 31
0.0
  0
LINE
  5
181B
  8
MODEL
 10
99.374999999999986
 20
138.95739863624991
 30
0.0
 11
99.375
 21
256.93616891314878
 31
0.0
  0
LINE
  5
181C
  8
MODEL
 10
94.391025682300011
 20
138.95739863624999
 30
0.0
 11
94.391025682300025
 21
256.18488454267617
 31
0.0
  0
LINE
  5
181D
  8
MODEL
 10
128.875
 20
136.95739863624999
 30
0.0
 11
128.875
 21
256.95739863624988
 31
0.0
  0
LINE
  5
181E
  8
MODEL
 10
90.875
 20
136.95739863624991
 30
0.0
 11
90.875
 21
256.95739863624988
 31
0.0
  0
LINE
  5
1821
  8
MODEL
 10
90.875
 20
136.95739863624999
 30
0.0
 11
128.875
 21
136.95739863624999
 31
0.0
  0
ARC
  5
1822
  8
MODEL
 10
99.375
 20
113.1354524876879
 30
0.0
 40
5.0
 50
230.2848627681997
 51
309.86834154999929
  0
ARC
  5
1823
  8
MODEL
 10
99.375
 20
113.1354524876879
 30
0.0
 40
5.7999999999999989
 50
230.2848627681997
 51
309.86834154999929
  0
ARC
  5
1825
  8
MODEL
 10
115.875
 20
101.5427029389879
 30
0.0
 40
25.0
 50
165.40850814540039
 51
195.32476983199879
  0
ARC
  5
1826
  8
MODEL
 10
115.875
 20
101.5427029389879
 30
0.0
 40
24.199999999999999
 50
165.40850814540039
 51
195.32476983199879
  0
LINE
  5
1827
  8
MODEL
 10
91.763918699600026
 20
94.935452487687954
 30
0.0
 11
92.535473301199985
 21
95.14688450218793
 31
0.0
  0
ARC
  5
1828
  8
MODEL
 10
94.391025682300025
 20
107.1354524876879
 30
0.0
 40
2.7999999999999989
 50
50.284862768199901
 51
165.40850814540039
  0
ARC
  5
1829
  8
MODEL
 10
94.391025682300025
 20
107.1354524876879
 30
0.0
 40
2.0
 50
50.284862768199901
 51
165.40850814540039
  0
ARC
  5
182B
  8
MODEL
 10
114.375
 20
107.1488006688879
 30
0.0
 40
2.0
 50
50.131658450000707
 51
129.86834154999929
  0
ARC
  5
182C
  8
MODEL
 10
114.375
 20
107.1488006688879
 30
0.0
 40
2.7999999999999989
 50
50.131658450000707
 51
129.86834154999929
  0
ARC
  5
182D
  8
MODEL
 10
109.375
 20
113.1354524876879
 30
0.0
 40
5.0
 50
230.13165845000071
 51
309.86834154999929
  0
ARC
  5
182E
  8
MODEL
 10
109.375
 20
113.1354524876879
 30
0.0
 40
5.7999999999999989
 50
230.13165845000071
 51
309.86834154999929
  0
ARC
  5
182F
  8
MODEL
 10
104.375
 20
107.1488006688879
 30
0.0
 40
2.7999999999999989
 50
50.131658450000707
 51
129.86834154999929
  0
ARC
  5
1830
  8
MODEL
 10
104.375
 20
107.1488006688879
 30
0.0
 40
2.0
 50
50.131658450000707
 51
129.86834154999929
  0
ARC
  5
1831
  8
MODEL
 10
124.3589743178
 20
107.1354524876879
 30
0.0
 40
2.0
 50
65.231658651799805
 51
129.7151372318001
  0
ARC
  5
1832
  8
MODEL
 10
124.3589743178
 20
107.1354524876879
 30
0.0
 40
2.7999999999999989
 50
65.231658651899991
 51
129.7151372318001
  0
ARC
  5
1833
  8
MODEL
 10
119.375
 20
113.1354524876879
 30
0.0
 40
5.7999999999999989
 50
230.13165845000071
 51
309.7151372318001
  0
ARC
  5
1834
  8
MODEL
 10
119.375
 20
113.1354524876879
 30
0.0
 40
5.0
 50
230.13165845000071
 51
309.7151372318001
  0
LINE
  5
1835
  8
MODEL
 10
128.875
 20
108.1354524876879
 30
0.0
 11
125.5320355164
 21
109.6778779879879
 31
0.0
  0
LINE
  5
1836
  8
MODEL
 10
125.1968751739
 20
108.9514707021879
 30
0.0
 11
128.53983965750001
 21
107.40904520188791
 31
0.0
  0
LINE
  5
1837
  8
MODEL
 10
128.875
 20
108.1354524876879
 30
0.0
 11
128.53983965750001
 21
107.40904520188791
 31
0.0
  0
ARC
  5
1838
  8
MODEL
 10
100.375
 20
235.39489863624999
 30
0.0
 40
23.5625
 50
66.222683920743634
 51
113.77731607925629
  0
ARC
  5
1839
  8
MODEL
 10
119.375
 20
278.51989863624988
 30
0.0
 40
23.5625
 50
246.22268392074361
 51
293.77731607925642
  0
LINE
  5
196E
  8
TITLE
 10
127.0465728752536
 20
43.671572875253808
 30
0.0
 11
132.7034271247461
 21
49.328427124746177
 31
0.0
  0
TEXT
  5
1A93
  8
TITLE
 10
131.62009379141281
 20
43.221572875253813
 30
0.0
 40
2.5
  1
１
  0
TEXT
  5
1A95
  8
TITLE
 10
125.9632395419204
 20
47.27842712474618
 30
0.0
 40
2.5
  1
１
  0
LINE
  5
1A96
  8
DEFPOINTS
 10
0.0
 20
0.0
 30
0.0
 11
210.0
 21
0.0
 31
0.0
  0
LINE
  5
1A99
  8
DEFPOINTS
 10
210.0
 20
0.0
 30
0.0
 11
210.0
 21
297.0
 31
0.0
  0
LINE
  5
1A9A
  8
DEFPOINTS
 10
210.0
 20
297.0
 30
0.0
 11
0.0
 21
297.0
 31
0.0
  0
LINE
  5
1A9B
  8
DEFPOINTS
 10
0.0
 20
297.0
 30
0.0
 11
0.0
 21
0.0
 31
0.0
  0
LINE
  5
1A9C
  8
TITLE
 10
20.0
 20
12.625
 30
0.0
 11
199.75
 21
12.625
 31
0.0
  0
LINE
  5
1A9D
  8
TITLE
 10
199.75
 20
12.625
 30
0.0
 11
199.75
 21
284.375
 31
0.0
  0
LINE
  5
1A9E
  8
TITLE
 10
199.75
 20
284.375
 30
0.0
 11
20.0
 21
284.375
 31
0.0
  0
LINE
  5
1A9F
  8
TITLE
 10
20.0
 20
284.375
 30
0.0
 11
20.0
 21
12.625
 31
0.0
  0
LINE
  5
1AA0
  8
DIMS
 10
124.9839743178
 20
109.9354524876879
 30
0.0
 11
140.125
 21
109.9354524876879
 31
0.0
  0
LINE
  5
1AA1
  8
DIMS
 10
120.0
 20
107.3354524876879
 30
0.0
 11
140.125
 21
107.3354524876879
 31
0.0
  0
LINE
  5
1AA2
  8
DIMS
 10
138.875
 20
111.9354524876879
 30
0.0
 11
138.875
 21
113.9354524876879
 31
0.0
  0
LINE
  5
1AA3
  8
DIMS
 10
138.875
 20
105.3354524876879
 30
0.0
 11
138.875
 21
98.156881059116486
 31
0.0
  0
LINE
  5
1AA4
  8
DIMS
 10
138.875
 20
109.9354524876879
 30
0.0
 11
138.875
 21
107.3354524876879
 31
0.0
  0
SOLID
  5
1AA5
  8
DIMS
 10
138.5416666666666
 20
111.9354524876879
 30
0.0
 11
139.20833333333329
 21
111.9354524876879
 31
0.0
 12
138.875
 22
109.9354524876879
 32
0.0
 13
138.875
 23
109.9354524876879
 33
0.0
  0
SOLID
  5
1AA6
  8
DIMS
 10
138.5416666666666
 20
105.3354524876879
 30
0.0
 11
139.20833333333329
 21
105.3354524876879
 31
0.0
 12
138.875
 22
107.3354524876879
 32
0.0
 13
138.875
 23
107.3354524876879
 33
0.0
  0
LINE
  5
1AA8
  8
DIMS
 10
93.766025682300025
 20
109.9354524876879
 30
0.0
 11
79.625000000000014
 21
109.9354524876879
 31
0.0
  0
LINE
  5
1AA9
  8
DIMS
 10
91.138918699624526
 20
94.935452487651574
 30
0.0
 11
79.625
 21
94.935452487651574
 31
0.0
  0
LINE
  5
1AAA
  8
DIMS
 10
80.875000000000014
 20
107.9354524876879
 30
0.0
 11
80.875000000000014
 21
96.93545248765156
 31
0.0
  0
SOLID
  5
1AAB
  8
DIMS
 10
80.541666666666686
 20
107.9354524876879
 30
0.0
 11
81.208333333333357
 21
107.9354524876879
 31
0.0
 12
80.875000000000014
 22
109.9354524876879
 32
0.0
 13
80.875000000000014
 23
109.9354524876879
 33
0.0
  0
SOLID
  5
1AAC
  8
DIMS
 10
80.541666666666686
 20
96.93545248765156
 30
0.0
 11
81.208333333333357
 21
96.93545248765156
 31
0.0
 12
80.875
 22
94.935452487651574
 32
0.0
 13
80.875
 23
94.935452487651574
 33
0.0
  0
LINE
  5
1AAE
  8
DIMS
 10
90.875
 20
102.1677029389879
 30
0.0
 11
90.875
 21
121.1854524876879
 31
0.0
  0
LINE
  5
1AAF
  8
DIMS
 10
128.875
 20
108.7604524876879
 30
0.0
 11
128.875
 21
121.1854524876879
 31
0.0
  0
LINE
  5
1AB0
  8
DIMS
 10
92.874999999999986
 20
119.9354524876879
 30
0.0
 11
126.875
 21
119.9354524876879
 31
0.0
  0
SOLID
  5
1AB1
  8
DIMS
 10
92.874999999999986
 20
120.2687858210212
 30
0.0
 11
92.874999999999986
 21
119.6021191543546
 31
0.0
 12
90.875
 22
119.9354524876879
 32
0.0
 13
90.875
 23
119.9354524876879
 33
0.0
  0
SOLID
  5
1AB2
  8
DIMS
 10
126.875
 20
120.2687858210212
 30
0.0
 11
126.875
 21
119.6021191543546
 31
0.0
 12
128.875
 22
119.9354524876879
 32
0.0
 13
128.875
 23
119.9354524876879
 33
0.0
  0
LINE
  5
1AB4
  8
DIMS
 10
100.0
 20
107.3354524876879
 30
0.0
 11
103.0139186996135
 21
107.3354524876879
 31
0.0
  0
LINE
  5
1AB5
  8
DIMS
 10
92.388918699600026
 20
94.935452487687954
 30
0.0
 11
103.0139186996135
 21
94.935452487687925
 31
0.0
  0
LINE
  5
1AB6
  8
DIMS
 10
101.7639186996135
 20
105.3354524876879
 30
0.0
 11
101.7639186996135
 21
96.935452487687925
 31
0.0
  0
SOLID
  5
1AB7
  8
DIMS
 10
101.4305853662802
 20
105.3354524876879
 30
0.0
 11
102.0972520329469
 21
105.3354524876879
 31
0.0
 12
101.7639186996135
 22
107.3354524876879
 32
0.0
 13
101.7639186996135
 23
107.3354524876879
 33
0.0
  0
SOLID
  5
1AB8
  8
DIMS
 10
101.4305853662802
 20
96.935452487687925
 30
0.0
 11
102.0972520329469
 21
96.935452487687925
 31
0.0
 12
101.7639186996135
 22
94.935452487687925
 32
0.0
 13
101.7639186996135
 23
94.935452487687925
 33
0.0
  0
TEXT
  5
1ABA
  8
TITLE
 10
174.70833333333329
 20
44.24404761904762
 30
0.0
 40
2.5
  1
Ｈ１２．５．８
  0
TEXT
  5
1ABB
  8
TITLE
 10
166.95833333333329
 20
56.25
 30
0.0
 40
2.5
  1
１Ｓ－０６０２
  0
TEXT
  5
1ABC
  8
TITLE
 10
125.2916666666666
 20
56.25
 30
0.0
 40
2.5
  1
ＹＭＮ－３
  0
TEXT
  5
1ABD
  8
TITLE
 10
78.625
 20
58.333333333333329
 30
0.0
 40
2.5
  1
ステンレス製
  0
TEXT
  5
1ABE
  8
TITLE
 10
80.208333333333329
 20
54.166666666666671
 30
0.0
 40
2.5
  1
無垢タイプ
  0
TEXT
  5
1ABF
  8
TITLE
 10
33.666666666666671
 20
56.25
 30
0.0
 40
2.5
  1
ノンスリップ
  0
TEXT
  5
1AC0
  8
TITLE
 10
122.0416666666666
 20
63.675497065706651
 30
0.0
 40
2.5
  1
タ    イ    プ
  0
TEXT
  5
1AC1
  8
TITLE
 10
140.853318546883
 20
48.828796392541342
 30
0.0
 40
2.5
  1
仕上
  0
TEXT
  5
1AC2
  8
TITLE
 10
110.853318546883
 20
48.828796392541342
 30
0.0
 40
2.5
  1
縮尺
  0
TEXT
  5
1AC3
  8
TITLE
 10
167.12499999999989
 20
63.675497065706679
 30
0.0
 40
2.5
  1
図  面  番  号
  0
TEXT
  5
1AC4
  8
TITLE
 10
170.51998521354969
 20
48.828796392541342
 30
0.0
 40
2.5
  1
日付
  0
TEXT
  5
1AC5
  8
TITLE
 10
77.291666666666671
 20
63.675497065706651
 30
0.0
 40
2.5
  1
群          別
  0
TEXT
  5
1AC6
  8
TITLE
 10
66.903959893265423
 20
47.937399917610023
 30
0.0
 40
2.5
  1
材質
  0
TEXT
  5
1AC7
  8
TITLE
 10
66.903959893265423
 20
41.270733250943351
 30
0.0
 40
2.5
  1
規格
  0
TEXT
  5
1AC8
  8
TITLE
 10
66.903959893265423
 20
34.60406658427668
 30
0.0
 40
2.5
  1
重量
  0
TEXT
  5
1AC9
  8
MODEL
 10
23.223482582533901
 20
38.67740302674892
 30
0.0
 40
2.0
  1
2
  0
TEXT
  5
1ACA
  8
MODEL
 10
23.252145405404331
 20
43.677403026748912
 30
0.0
 40
2.0
  1
1
  0
TEXT
  5
1ACB
  8
MODEL
 10
23.223482582533901
 20
33.677403026748948
 30
0.0
 40
2.0
  1
3
  0
LINE
  5
1ACC
  8
TITLE
 10
24.375
 20
47.0
 30
0.0
 11
22.20993649053889
 21
43.25
 31
0.0
  0
LINE
  5
1ACD
  8
TITLE
 10
22.20993649053889
 20
43.25
 30
0.0
 11
26.540063509461081
 21
43.25
 31
0.0
  0
LINE
  5
1ACE
  8
TITLE
 10
26.540063509461081
 20
43.25
 30
0.0
 11
24.375
 21
47.0
 31
0.0
  0
LINE
  5
1ACF
  8
TITLE
 10
24.375
 20
37.0
 30
0.0
 11
22.20993649053889
 21
33.25
 31
0.0
  0
LINE
  5
1AD0
  8
TITLE
 10
22.20993649053889
 20
33.25
 30
0.0
 11
26.540063509461081
 21
33.25
 31
0.0
  0
LINE
  5
1AD1
  8
TITLE
 10
26.540063509461081
 20
33.25
 30
0.0
 11
24.375
 21
37.0
 31
0.0
  0
LINE
  5
1AD2
  8
TITLE
 10
24.375
 20
42.0
 30
0.0
 11
22.20993649053889
 21
38.25
 31
0.0
  0
LINE
  5
1AD3
  8
TITLE
 10
22.20993649053889
 20
38.25
 30
0.0
 11
26.540063509461081
 21
38.25
 31
0.0
  0
LINE
  5
1AD4
  8
TITLE
 10
26.540063509461081
 20
38.25
 30
0.0
 11
24.375
 21
42.0
 31
0.0
  0
TEXT
  5
1AD5
  8
TITLE
 10
21.16555319691588
 20
28.739356149794158
 30
0.0
 40
2.5
  1
特記事項
  0
TEXT
  5
1AD6
  8
TITLE
 10
32.416666666666671
 20
63.675497065706622
 30
0.0
 40
2.5
  1
品          名
  0
TEXT
  5
1AD7
  8
TITLE
 10
32.333333333333329
 20
48.675497065706622
 30
0.0
 40
2.5
  1
経          歴
  0
TEXT
  5
1AD8
  8
DIMS
 62
     7
 10
101.1389186996135
 20
97.831881059116526
 30
0.0
 40
2.5
  1
12.4
 50
90.0
 41
0.75
  7
DIMS
  0
TEXT
  5
1AD9
  8
DIMS
 62
     7
 10
108.08928571428569
 20
120.5604524876879
 30
0.0
 40
2.5
  1
38
 41
0.75
  7
DIMS
  0
TEXT
  5
1ADA
  8
DIMS
 62
     7
 10
80.249999999999986
 20
100.5158096305269
 30
0.0
 40
2.5
  1
15
 50
90.0
 41
0.75
  7
DIMS
  0
TEXT
  5
1ADB
  8
DIMS
 62
     7
 10
138.25
 20
98.51402391625939
 30
0.0
 40
2.5
  1
2.6
 50
90.0
 41
0.75
  7
DIMS
  0
ENDSEC
  0
EOF
