  0
SECTION
  2
HEADER
  9
$ACADVER
  1
AC1009
  9
$INSBASE
 10
0.0
 20
0.0
 30
0.0
  9
$EXTMIN
 10
-0.0064049753888185
 20
-0.0061159459263536
 30
-0.0000000000112498
  9
$EXTMAX
 10
210.01922954570119
 20
297.01813002779409
 30
0.0000000000002956
  9
$LIMMIN
 10
0.0
 20
0.0
  9
$LIMMAX
 10
420.0
 20
297.0
  9
$ORTHOMODE
 70
     1
  9
$REGENMODE
 70
     1
  9
$FILLMODE
 70
     1
  9
$QTEXTMODE
 70
     0
  9
$MIRRTEXT
 70
     1
  9
$DRAGMODE
 70
     2
  9
$LTSCALE
 40
1.0
  9
$OSMODE
 70
   167
  9
$ATTMODE
 70
     1
  9
$TEXTSIZE
 40
2.5
  9
$TRACEWID
 40
1.0
  9
$TEXTSTYLE
  7
STANDARD
  9
$CLAYER
  8
0
  9
$CELTYPE
  6
BYLAYER
  9
$CECOLOR
 62
   256
  9
$DIMSCALE
 40
0.0
  9
$DIMASZ
 40
2.0
  9
$DIMEXO
 40
0.625
  9
$DIMDLI
 40
3.75
  9
$DIMRND
 40
0.0
  9
$DIMDLE
 40
0.0
  9
$DIMEXE
 40
1.25
  9
$DIMTP
 40
0.0
  9
$DIMTM
 40
0.0
  9
$DIMTXT
 40
2.5
  9
$DIMCEN
 40
0.0
  9
$DIMTSZ
 40
0.0
  9
$DIMTOL
 70
     0
  9
$DIMLIM
 70
     0
  9
$DIMTIH
 70
     0
  9
$DIMTOH
 70
     0
  9
$DIMSE1
 70
     0
  9
$DIMSE2
 70
     0
  9
$DIMTAD
 70
     1
  9
$DIMZIN
 70
     8
  9
$DIMBLK
  1

  9
$DIMASO
 70
     1
  9
$DIMSHO
 70
     1
  9
$DIMPOST
  1

  9
$DIMAPOST
  1

  9
$DIMALT
 70
     0
  9
$DIMALTD
 70
     3
  9
$DIMALTF
 40
0.03937007874016
  9
$DIMLFAC
 40
1.0
  9
$DIMTOFL
 70
     1
  9
$DIMTVP
 40
0.0
  9
$DIMTIX
 70
     0
  9
$DIMSOXD
 70
     0
  9
$DIMSAH
 70
     0
  9
$DIMBLK1
  1

  9
$DIMBLK2
  1

  9
$DIMSTYLE
  2
DIMS
  9
$DIMCLRD
 70
     0
  9
$DIMCLRE
 70
     0
  9
$DIMCLRT
 70
     7
  9
$DIMTFAC
 40
1.0
  9
$DIMGAP
 40
0.625
  9
$LUNITS
 70
     2
  9
$LUPREC
 70
     4
  9
$SKETCHINC
 40
1.0
  9
$FILLETRAD
 40
0.0
  9
$AUNITS
 70
     0
  9
$AUPREC
 70
     0
  9
$MENU
  1
.
  9
$ELEVATION
 40
0.0
  9
$PELEVATION
 40
0.0
  9
$THICKNESS
 40
0.0
  9
$LIMCHECK
 70
     0
  9
$BLIPMODE
 70
     0
  9
$CHAMFERA
 40
10.0
  9
$CHAMFERB
 40
10.0
  9
$SKPOLY
 70
     0
  9
$TDCREATE
 40
2451673.497026389
  9
$TDUPDATE
 40
2456272.3923135418
  9
$TDINDWG
 40
0.0845996644
  9
$TDUSRTIMER
 40
0.0845994329
  9
$USRTIMER
 70
     1
  9
$ANGBASE
 50
0.0
  9
$ANGDIR
 70
     0
  9
$PDMODE
 70
     0
  9
$PDSIZE
 40
0.0
  9
$PLINEWID
 40
0.0
  9
$COORDS
 70
     0
  9
$SPLFRAME
 70
     0
  9
$SPLINETYPE
 70
     6
  9
$SPLINESEGS
 70
     8
  9
$ATTDIA
 70
     0
  9
$ATTREQ
 70
     1
  9
$HANDLING
 70
     1
  9
$HANDSEED
  5
1C7D
  9
$SURFTAB1
 70
     6
  9
$SURFTAB2
 70
     6
  9
$SURFTYPE
 70
     6
  9
$SURFU
 70
     6
  9
$SURFV
 70
     6
  9
$UCSNAME
  2

  9
$UCSORG
 10
0.0
 20
0.0
 30
0.0
  9
$UCSXDIR
 10
1.0
 20
0.0
 30
0.0
  9
$UCSYDIR
 10
0.0
 20
1.0
 30
0.0
  9
$PUCSNAME
  2

  9
$PUCSORG
 10
0.0
 20
0.0
 30
0.0
  9
$PUCSXDIR
 10
1.0
 20
0.0
 30
0.0
  9
$PUCSYDIR
 10
0.0
 20
1.0
 30
0.0
  9
$USERI1
 70
     0
  9
$USERI2
 70
     0
  9
$USERI3
 70
     0
  9
$USERI4
 70
     0
  9
$USERI5
 70
     0
  9
$USERR1
 40
0.0
  9
$USERR2
 40
0.0
  9
$USERR3
 40
0.0
  9
$USERR4
 40
0.0
  9
$USERR5
 40
0.0
  9
$WORLDVIEW
 70
     1
  9
$SHADEDGE
 70
     3
  9
$SHADEDIF
 70
    70
  9
$TILEMODE
 70
     1
  9
$MAXACTVP
 70
    48
  9
$PLIMCHECK
 70
     0
  9
$PEXTMIN
 10
0.0
 20
0.0
 30
0.0
  9
$PEXTMAX
 10
0.0
 20
0.0
 30
0.0
  9
$PLIMMIN
 10
0.0
 20
0.0
  9
$PLIMMAX
 10
12.0
 20
9.0
  9
$UNITMODE
 70
     0
  9
$VISRETAIN
 70
     1
  9
$PLINEGEN
 70
     0
  9
$PSLTSCALE
 70
     1
  0
ENDSEC
  0
SECTION
  2
TABLES
  0
TABLE
  2
VPORT
 70
     1
  0
VPORT
  2
*ACTIVE
 70
     0
 10
0.0
 20
0.0
 11
1.0
 21
1.0
 12
105.0064122851561
 22
148.50600704093389
 13
0.0
 23
0.0
 14
10.0
 24
10.0
 15
10.0
 25
10.0
 16
0.0
 26
0.0
 36
1.0
 17
0.0
 27
0.0
 37
0.0
 40
300.10221743458811
 41
1.7318339100346021
 42
50.0
 43
0.0
 44
0.0
 50
0.0
 51
0.0
 71
     0
 72
   100
 73
     1
 74
     3
 75
     0
 76
     0
 77
     0
 78
     0
  0
ENDTAB
  0
TABLE
  2
LTYPE
 70
     1
  0
LTYPE
  2
CONTINUOUS
 70
     0
  3
Solid line
 72
    65
 73
     0
 40
0.0
  0
ENDTAB
  0
TABLE
  2
LAYER
 70
     5
  0
LAYER
  2
0
 70
     0
 62
     7
  6
CONTINUOUS
  0
LAYER
  2
MODEL
 70
     0
 62
     7
  6
CONTINUOUS
  0
LAYER
  2
DIMS
 70
     0
 62
     1
  6
CONTINUOUS
  0
LAYER
  2
DEFPOINTS
 70
     0
 62
     7
  6
CONTINUOUS
  0
LAYER
  2
TITLE
 70
     0
 62
     7
  6
CONTINUOUS
  0
ENDTAB
  0
TABLE
  2
STYLE
 70
     2
  0
STYLE
  2
STANDARD
 70
     0
 40
0.0
 41
1.0
 50
0.0
 71
     0
 42
2.5
  3
romans.shx
  4
bigfont.shx
  0
STYLE
  2
DIMS
 70
     0
 40
0.0
 41
0.75
 50
0.0
 71
     0
 42
2.5
  3
romans.shx
  4
bigfont.shx
  0
ENDTAB
  0
TABLE
  2
VIEW
 70
     1
  0
VIEW
  2
PRINT
 70
     1
 40
128.5
 10
98.875866602002361
 20
145.24226553880581
 41
88.0
 11
0.0
 21
0.0
 31
1.0
 12
0.0
 22
0.0
 32
0.0
 42
50.0
 43
0.0
 44
0.0
 50
0.0
 71
     0
  0
ENDTAB
  0
TABLE
  2
UCS
 70
     0
  0
ENDTAB
  0
TABLE
  2
APPID
 70
     2
  0
APPID
  2
ACAD
 70
     0
  0
APPID
  2
ACAD_MLEADERVER
 70
     0
  0
ENDTAB
  0
TABLE
  2
DIMSTYLE
 70
     2
  0
DIMSTYLE
  2
DIMS
 70
     0
  3

  4

  5

  6

  7

 40
0.0
 41
2.0
 42
0.625
 43
3.75
 44
1.25
 45
0.0
 46
0.0
 47
0.0
 48
0.0
140
2.5
141
0.0
142
0.0
143
0.03937007874016
144
1.0
145
0.0
146
1.0
147
0.625
 71
     0
 72
     0
 73
     0
 74
     0
 75
     0
 76
     0
 77
     1
 78
     8
170
     0
171
     3
172
     1
173
     0
174
     0
175
     0
176
     0
177
     0
178
     7
  0
DIMSTYLE
  2
STANDARD
 70
     0
  3

  4

  5

  6

  7

 40
1.0
 41
0.18
 42
0.0625
 43
0.38
 44
0.18
 45
0.0
 46
0.0
 47
0.0
 48
0.0
140
0.18
141
0.09
142
0.0
143
25.399999999999999
144
1.0
145
0.0
146
1.0
147
0.09
 71
     0
 72
     0
 73
     1
 74
     1
 75
     0
 76
     0
 77
     0
 78
     0
170
     0
171
     2
172
     0
173
     0
174
     0
175
     0
176
     0
177
     0
178
     0
  0
ENDTAB
  0
ENDSEC
  0
SECTION
  2
BLOCKS
  0
BLOCK
  8
0
  2
$MODEL_SPACE
 70
     0
 10
0.0
 20
0.0
 30
0.0
  3
$MODEL_SPACE
  1

  0
ENDBLK
  5
21
  8
0
  0
BLOCK
 67
     1
  8
0
  2
$PAPER_SPACE
 70
     0
 10
0.0
 20
0.0
 30
0.0
  3
$PAPER_SPACE
  1

  0
ENDBLK
  5
1685
 67
     1
  8
0
  0
ENDSEC
  0
SECTION
  2
ENTITIES
  0
LINE
  5
F2
  8
MODEL
 10
89.874999999999972
 20
134.94985726463329
 30
0.0
 11
89.875
 21
254.94985726463329
 31
0.0
  0
LINE
  5
F3
  8
MODEL
 10
97.875000000000014
 20
134.94985726463321
 30
0.0
 11
97.874999999999972
 21
256.87282005826472
 31
0.0
  0
LINE
  5
F4
  8
MODEL
 10
103.875
 20
134.94985726463329
 30
0.0
 11
103.875
 21
256.6403224219635
 31
0.0
  0
LINE
  5
F5
  8
MODEL
 10
107.875
 20
134.94985726463329
 30
0.0
 11
107.8749999999999
 21
255.68849101833931
 31
0.0
  0
LINE
  5
F6
  8
MODEL
 10
113.8749999999999
 20
134.94985726463329
 30
0.0
 11
113.8749999999999
 21
253.6516359832863
 31
0.0
  0
LINE
  5
F7
  8
MODEL
 10
117.8749999999885
 20
134.94985726463329
 30
0.0
 11
117.8749999999885
 21
253.02689447100269
 31
0.0
  0
LINE
  5
F8
  8
MODEL
 10
123.875
 20
134.94985726463321
 30
0.0
 11
123.875
 21
253.259392107303
 31
0.0
  0
LINE
  5
F9
  8
MODEL
 10
126.875
 20
134.94985726463321
 30
0.0
 11
126.875
 21
253.90988921353551
 31
0.0
  0
LINE
  5
FA
  8
MODEL
 10
129.875
 20
134.94985726463329
 30
0.0
 11
129.875
 21
254.94985726463329
 31
0.0
  0
LINE
  5
FB
  8
MODEL
 10
129.875
 20
134.94985726463329
 30
0.0
 11
89.875
 21
134.94985726463329
 31
0.0
  0
ARC
  5
FF
  8
MODEL
 10
99.875
 20
230.94985726463329
 30
0.0
 40
26.0
 50
67.380135051959655
 51
112.6198649480403
  0
ARC
  5
100
  8
MODEL
 10
119.875
 20
278.94985726463329
 30
0.0
 40
26.0
 50
247.38013505195971
 51
292.61986494804029
  0
LINE
  5
220
  8
MODEL
 10
126.875
 20
109.5046723109897
 30
0.0
 11
129.875
 21
108.70467231098969
 31
0.0
  0
LINE
  5
221
  8
MODEL
 10
92.874999999999986
 20
106.5046723109897
 30
0.0
 11
129.875
 21
106.5046723109897
 31
0.0
  0
ARC
  5
223
  8
MODEL
 10
92.874999999999986
 20
106.5046723109897
 30
0.0
 40
3.0
 50
90.0
 51
184.99999999999969
  0
LINE
  5
224
  8
MODEL
 10
94.099841289300002
 20
92.504672310989775
 30
0.0
 11
92.874999999999986
 21
106.5046723109897
 31
0.0
  0
LINE
  5
225
  8
MODEL
 10
89.886415905700005
 20
106.2432050826898
 30
0.0
 11
91.088381776700004
 21
92.504672310989775
 31
0.0
  0
LINE
  5
226
  8
MODEL
 10
91.088381776700004
 20
92.504672310989775
 30
0.0
 11
94.099841289300002
 21
92.504672310989775
 31
0.0
  0
LINE
  5
227
  8
MODEL
 10
92.874999999999986
 20
109.5046723109897
 30
0.0
 11
97.875000000000014
 21
109.5046723109897
 31
0.0
  0
ARC
  5
228
  8
MODEL
 10
110.875
 20
114.7008247336898
 30
0.0
 40
6.0
 50
240.0000000000002
 51
299.99999999999977
  0
LINE
  5
229
  8
MODEL
 10
103.875
 20
109.5046723109897
 30
0.0
 11
107.875
 21
109.5046723109897
 31
0.0
  0
ARC
  5
22A
  8
MODEL
 10
100.875
 20
114.7008247336898
 30
0.0
 40
6.0
 50
240.0000000000002
 51
299.99999999999977
  0
ARC
  5
22B
  8
MODEL
 10
120.875
 20
114.7008247336898
 30
0.0
 40
6.0
 50
240.0000000000002
 51
299.99999999999977
  0
LINE
  5
22C
  8
MODEL
 10
113.875
 20
109.5046723109897
 30
0.0
 11
117.875
 21
109.5046723109897
 31
0.0
  0
LINE
  5
22D
  8
MODEL
 10
123.875
 20
109.5046723109897
 30
0.0
 11
126.875
 21
109.5046723109897
 31
0.0
  0
LINE
  5
22E
  8
MODEL
 10
129.875
 20
108.70467231098969
 30
0.0
 11
129.875
 21
106.5046723109897
 31
0.0
  0
LINE
  5
D5D
  8
TITLE
 10
20.0
 20
32.5
 30
0.0
 11
199.75
 21
32.5
 31
0.0
  0
LINE
  5
D5E
  8
TITLE
 10
20.0
 20
52.5
 30
0.0
 11
199.75
 21
52.5
 31
0.0
  0
LINE
  5
D5F
  8
TITLE
 10
20.0
 20
62.5
 30
0.0
 11
199.75
 21
62.5
 31
0.0
  0
LINE
  5
D60
  8
TITLE
 10
64.875
 20
39.166666666666522
 30
0.0
 11
109.875
 21
39.166666666666522
 31
0.0
  0
LINE
  5
D61
  8
TITLE
 10
64.875
 20
45.83333333333325
 30
0.0
 11
109.875
 21
45.83333333333325
 31
0.0
  0
LINE
  5
D62
  8
TITLE
 10
20.0
 20
67.5
 30
0.0
 11
199.75
 21
67.5
 31
0.0
  0
LINE
  5
D65
  8
TITLE
 10
20.0
 20
47.5
 30
0.0
 11
64.875
 21
47.5
 31
0.0
  0
LINE
  5
D66
  8
TITLE
 10
20.0
 20
42.5
 30
0.0
 11
64.875
 21
42.5
 31
0.0
  0
LINE
  5
D67
  8
TITLE
 10
20.0
 20
47.5
 30
0.0
 11
64.875
 21
47.5
 31
0.0
  0
LINE
  5
D68
  8
TITLE
 10
20.0
 20
37.5
 30
0.0
 11
64.875
 21
37.5
 31
0.0
  0
LINE
  5
D70
  8
TITLE
 10
64.875
 20
67.5
 30
0.0
 11
64.875
 21
32.5
 31
0.0
  0
LINE
  5
D77
  8
TITLE
 10
109.875
 20
42.5
 30
0.0
 11
199.75
 21
42.5
 31
0.0
  0
LINE
  5
D78
  8
TITLE
 10
163.34877479024539
 20
37.771309270119673
 30
0.0
 11
164.99218062879021
 21
39.414715108664723
 31
0.0
  0
LINE
  5
D79
  8
TITLE
 10
163.43605966289209
 20
37.771309270119673
 30
0.0
 11
165.07946550143791
 21
39.414715108664723
 31
0.0
  0
LINE
  5
D7A
  8
TITLE
 10
163.52334453554059
 20
37.771309270119673
 30
0.0
 11
165.16675037408459
 21
39.414715108664723
 31
0.0
  0
LINE
  5
D7B
  8
TITLE
 10
163.69215575805899
 20
38.463829728521432
 30
0.0
 11
165.08361428089569
 21
39.855288251358161
 31
0.0
  0
LINE
  5
D7C
  8
TITLE
 10
163.67029956391701
 20
38.354688661725277
 30
0.0
 11
165.16383407136161
 21
39.848223169176663
 31
0.0
  0
LINE
  5
D7D
  8
TITLE
 10
163.73586814635561
 20
38.682111862106012
 30
0.0
 11
164.9090445356087
 21
39.855288251358161
 31
0.0
  0
LINE
  5
D7E
  8
TITLE
 10
163.71401195220639
 20
38.572970795313267
 30
0.0
 11
164.9963294082481
 21
39.855288251358161
 31
0.0
  0
LINE
  5
D7F
  8
TITLE
 10
162.156858631999
 20
36.753962857166933
 30
0.0
 11
165.08605933516259
 21
39.683163560327102
 31
0.0
  0
LINE
  5
D80
  8
TITLE
 10
162.24414350464571
 20
36.753962857166933
 30
0.0
 11
165.00828459895641
 21
39.518103951478452
 31
0.0
  0
LINE
  5
D81
  8
TITLE
 10
163.7290413364826
 20
38.762569924883337
 30
0.0
 11
164.82175966296111
 21
39.855288251358161
 31
0.0
  0
LINE
  5
D82
  8
TITLE
 10
163.64175646383589
 20
38.762569924883337
 30
0.0
 11
164.73447479031341
 21
39.855288251358161
 31
0.0
  0
LINE
  5
D83
  8
TITLE
 10
163.6106294081801
 20
37.771309270119673
 30
0.0
 11
164.49936932442321
 21
38.660049186359181
 31
0.0
  0
LINE
  5
D84
  8
TITLE
 10
163.69791428082681
 20
37.771309270119673
 30
0.0
 11
164.47751313027399
 21
38.550908119567339
 31
0.0
  0
LINE
  5
D85
  8
TITLE
 10
163.78519915347439
 20
37.771309270119673
 30
0.0
 11
164.45565693613301
 21
38.441767052771191
 31
0.0
  0
LINE
  5
D86
  8
TITLE
 10
163.87248402612201
 20
37.771309270119673
 30
0.0
 11
164.4463718124334
 21
38.345197056431289
 31
0.0
  0
LINE
  5
D87
  8
TITLE
 10
163.95976889876869
 20
37.771309270119673
 30
0.0
 11
164.5336566850801
 21
38.345197056431289
 31
0.0
  0
LINE
  5
D88
  8
TITLE
 10
164.04705377141539
 20
37.771309270119673
 30
0.0
 11
164.62094155772681
 21
38.345197056431289
 31
0.0
  0
LINE
  5
D89
  8
TITLE
 10
164.13433864406301
 20
37.771309270119673
 30
0.0
 11
164.7082264303744
 21
38.345197056431289
 31
0.0
  0
LINE
  5
D8A
  8
TITLE
 10
164.22162351670971
 20
37.771309270119673
 30
0.0
 11
164.7955113030211
 21
38.345197056431289
 31
0.0
  0
LINE
  5
D8B
  8
TITLE
 10
164.30890838935741
 20
37.771309270119673
 30
0.0
 11
164.88279617566869
 21
38.345197056431289
 31
0.0
  0
LINE
  5
D8C
  8
TITLE
 10
164.2889598913107
 20
39.497058225001872
 30
0.0
 11
164.64718991766671
 21
39.855288251358161
 31
0.0
  0
LINE
  5
D8D
  8
TITLE
 10
163.46797286119909
 20
35.359246034324322
 30
0.0
 11
164.39314505338729
 21
36.284418226511661
 31
0.0
  0
LINE
  5
D8E
  8
TITLE
 10
163.5049782626138
 20
35.308966563095971
 30
0.0
 11
164.48042992603399
 21
36.284418226511661
 31
0.0
  0
LINE
  5
D8F
  8
TITLE
 10
163.54306563805761
 20
35.259769065887902
 30
0.0
 11
164.5677147986807
 21
36.284418226511661
 31
0.0
  0
LINE
  5
D90
  8
TITLE
 10
163.58222499792461
 20
35.211643553112033
 30
0.0
 11
164.65499967132109
 21
36.284418226511661
 31
0.0
  0
LINE
  5
D91
  8
TITLE
 10
163.62244836990789
 20
35.164582052454989
 30
0.0
 11
164.74228454396871
 21
36.284418226511661
 31
0.0
  0
LINE
  5
D92
  8
TITLE
 10
164.33393915069331
 20
35.788787960585978
 30
0.0
 11
164.82956941661541
 21
36.284418226511661
 31
0.0
  0
LINE
  5
D93
  8
TITLE
 10
163.98220800560921
 20
34.826062706977837
 30
0.0
 11
164.54817926948451
 21
35.392033970853852
 31
0.0
  0
LINE
  5
D94
  8
TITLE
 10
164.0319597108282
 20
34.788529539550382
 30
0.0
 11
164.58906959329579
 21
35.345639422015211
 31
0.0
  0
LINE
  5
D95
  8
TITLE
 10
164.08279933263111
 20
34.752084288709739
 30
0.0
 11
164.63230346866291
 21
35.301588424737929
 31
0.0
  0
LINE
  5
D96
  8
TITLE
 10
164.13474009566559
 20
34.716740179100498
 30
0.0
 11
164.6778773617971
 21
35.259877445225356
 31
0.0
  0
LINE
  5
D97
  8
TITLE
 10
164.1877975154903
 20
34.682512726274808
 30
0.0
 11
164.72580804164591
 21
35.220523252430212
 31
0.0
  0
LINE
  5
D98
  8
TITLE
 10
164.24198955075011
 20
34.649419888890861
 30
0.0
 11
164.77613331764039
 21
35.183563655778023
 31
0.0
  0
LINE
  5
D99
  8
TITLE
 10
164.2973367851209
 20
34.617482250611381
 30
0.0
 11
164.82891374684999
 21
35.14905921234368
 31
0.0
  0
LINE
  5
D9A
  8
TITLE
 10
164.35386264349651
 20
34.586723236343012
 30
0.0
 11
164.8842354959979
 21
35.117096088840533
 31
0.0
  0
LINE
  5
D9B
  8
TITLE
 10
163.88592616740971
 20
34.904350614073337
 30
0.0
 11
164.4735467605496
 21
35.491971207213737
 31
0.0
  0
LINE
  5
D9C
  8
TITLE
 10
163.93353315712369
 20
34.864672731137027
 30
0.0
 11
164.5096564882478
 21
35.440796062264333
 31
0.0
  0
LINE
  5
D9D
  8
TITLE
 10
163.74945170916089
 20
35.029730773762367
 30
0.0
 11
164.3805267114621
 21
35.660805776067953
 31
0.0
  0
LINE
  5
D9E
  8
TITLE
 10
163.79388960876159
 20
34.986883800719852
 30
0.0
 11
164.40886986011901
 21
35.601864052077417
 31
0.0
  0
LINE
  5
D9F
  8
TITLE
 10
163.83938001836211
 20
34.945089337666332
 30
0.0
 11
164.43991920054941
 21
35.545628519861111
 31
0.0
  0
LINE
  5
DA0
  8
TITLE
 10
163.90255608492771
 20
36.753962857166933
 30
0.0
 11
164.4242722319577
 21
37.275679004193989
 31
0.0
  0
LINE
  5
DA1
  8
TITLE
 10
163.98984095757439
 20
36.753962857166933
 30
0.0
 11
164.51155710460529
 21
37.275679004193989
 31
0.0
  0
LINE
  5
DA2
  8
TITLE
 10
164.07712583022109
 20
36.753962857166933
 30
0.0
 11
164.5988419772529
 21
37.275679004193989
 31
0.0
  0
LINE
  5
DA3
  8
TITLE
 10
164.16441070286871
 20
36.753962857166933
 30
0.0
 11
164.68612684989239
 21
37.275679004193989
 31
0.0
  0
LINE
  5
DA4
  8
TITLE
 10
164.25169557551629
 20
36.753962857166933
 30
0.0
 11
164.77341172253909
 21
37.275679004193989
 31
0.0
  0
LINE
  5
DA5
  8
TITLE
 10
164.338980448163
 20
36.753962857166933
 30
0.0
 11
164.86069659518671
 21
37.275679004193989
 31
0.0
  0
LINE
  5
DA6
  8
TITLE
 10
131.0117709677242
 20
38.689841925901881
 30
0.0
 11
132.167164226149
 21
39.845235184330697
 31
0.0
  0
LINE
  5
DA7
  8
TITLE
 10
131.09905584037179
 20
38.689841925901881
 30
0.0
 11
132.25444909879661
 21
39.845235184330697
 31
0.0
  0
LINE
  5
DA8
  8
TITLE
 10
131.18634071301861
 20
38.689841925901881
 30
0.0
 11
132.34173397144329
 21
39.845235184330697
 31
0.0
  0
LINE
  5
DA9
  8
TITLE
 10
131.27362558566529
 20
38.689841925901881
 30
0.0
 11
132.42901884409
 21
39.845235184330697
 31
0.0
  0
LINE
  5
DAA
  8
TITLE
 10
131.36091045830469
 20
38.689841925901881
 30
0.0
 11
132.51630371673849
 21
39.845235184330697
 31
0.0
  0
LINE
  5
DAB
  8
TITLE
 10
131.4481953309523
 20
38.689841925901881
 30
0.0
 11
132.6035885893852
 21
39.845235184330697
 31
0.0
  0
LINE
  5
DAC
  8
TITLE
 10
131.53548020359989
 20
38.689841925901881
 30
0.0
 11
132.6908734620319
 21
39.845235184330697
 31
0.0
  0
LINE
  5
DAD
  8
TITLE
 10
131.0641219108829
 20
34.290664364088123
 30
0.0
 11
132.12154666370591
 21
35.348089116911297
 31
0.0
  0
LINE
  5
DAE
  8
TITLE
 10
131.15140678353049
 20
34.290664364088123
 30
0.0
 11
132.21053226598809
 21
35.34978984654618
 31
0.0
  0
LINE
  5
DAF
  8
TITLE
 10
131.2386916561772
 20
34.290664364088123
 30
0.0
 11
132.3046877111446
 21
35.356660419062791
 31
0.0
  0
LINE
  5
DB0
  8
TITLE
 10
131.32597652881671
 20
34.290664364088123
 30
0.0
 11
132.40519659512481
 21
35.369884430395807
 31
0.0
  0
LINE
  5
DB1
  8
TITLE
 10
131.4132614014643
 20
34.290664364088123
 30
0.0
 11
132.51376815854931
 21
35.391171121172867
 31
0.0
  0
LINE
  5
DB2
  8
TITLE
 10
131.50054627411191
 20
34.290664364088123
 30
0.0
 11
132.6332124734235
 21
35.423330563399993
 31
0.0
  0
LINE
  5
DB5
  8
TITLE
 10
130.92448609507659
 20
38.689841925901881
 30
0.0
 11
132.07987935350229
 21
39.845235184330697
 31
0.0
  0
LINE
  5
DB6
  8
TITLE
 10
130.71498242029429
 20
34.290664364088123
 30
0.0
 11
131.77240717311719
 21
35.348089116911297
 31
0.0
  0
LINE
  5
DB7
  8
TITLE
 10
130.80226729294191
 20
34.290664364088123
 30
0.0
 11
131.85969204576389
 21
35.348089116911297
 31
0.0
  0
LINE
  5
DB8
  8
TITLE
 10
130.88955216558861
 20
34.290664364088123
 30
0.0
 11
131.94697691841151
 21
35.348089116911297
 31
0.0
  0
LINE
  5
DB9
  8
TITLE
 10
130.540412675
 20
34.290664364088123
 30
0.0
 11
131.5978374278229
 21
35.348089116911297
 31
0.0
  0
LINE
  5
DBA
  8
TITLE
 10
130.62769754764659
 20
34.290664364088123
 30
0.0
 11
131.68512230047051
 21
35.348089116911297
 31
0.0
  0
LINE
  5
DBB
  8
TITLE
 10
130.97683703823529
 20
34.290664364088123
 30
0.0
 11
132.03426179105921
 21
35.348089116911297
 31
0.0
  0
LINE
  5
DBC
  8
TITLE
 10
129.592897793329
 20
37.881962860033127
 30
0.0
 11
131.55617011762661
 21
39.845235184330697
 31
0.0
  0
LINE
  5
DBD
  8
TITLE
 10
129.592897793329
 20
37.794677987385967
 30
0.0
 11
131.64345499027331
 21
39.845235184330697
 31
0.0
  0
LINE
  5
DBE
  8
TITLE
 10
129.592897793329
 20
37.707393114738807
 30
0.0
 11
131.7307398629209
 21
39.845235184330697
 31
0.0
  0
LINE
  5
DBF
  8
TITLE
 10
129.592897793329
 20
37.620108242091653
 30
0.0
 11
131.8180247355676
 21
39.845235184330697
 31
0.0
  0
LINE
  5
DC0
  8
TITLE
 10
129.592897793329
 20
37.532823369444259
 30
0.0
 11
131.90530960820789
 21
39.845235184330697
 31
0.0
  0
LINE
  5
DC1
  8
TITLE
 10
129.592897793329
 20
37.445538496800971
 30
0.0
 11
131.99259448085459
 21
39.845235184330697
 31
0.0
  0
LINE
  5
DC4
  8
TITLE
 10
109.875
 20
67.5
 30
0.0
 11
109.875
 21
32.5
 31
0.0
  0
LINE
  5
DC5
  8
TITLE
 10
123.38447913735121
 20
33.451262901534392
 30
0.0
 11
127.1533261103359
 21
37.22010987451722
 31
0.0
  0
LINE
  5
DC6
  8
TITLE
 10
123.2968840985486
 20
33.450952735378912
 30
0.0
 11
127.1536362764918
 21
37.307704913320322
 31
0.0
  0
LINE
  5
DC7
  8
TITLE
 10
123.211235179192
 20
33.452588688660398
 30
0.0
 11
127.1608025945806
 21
37.402156104049482
 31
0.0
  0
LINE
  5
DC8
  8
TITLE
 10
123.1274103954692
 20
33.456048777583867
 30
0.0
 11
127.1485402342859
 21
37.477178616409219
 31
0.0
  0
LINE
  5
DC9
  8
TITLE
 10
123.0453024283688
 20
33.461225683142857
 30
0.0
 11
127.1433633287279
 21
37.55928658349513
 31
0.0
  0
LINE
  5
DCA
  8
TITLE
 10
122.9648162964986
 20
33.468024423909128
 30
0.0
 11
127.1365645879614
 21
37.639772715371237
 31
0.0
  0
LINE
  5
DCB
  8
TITLE
 10
122.8603401779437
 20
33.450833178000948
 30
0.0
 11
127.1282285247252
 21
37.718721524790233
 31
0.0
  0
LINE
  5
DCC
  8
TITLE
 10
123.56608722700911
 20
33.458301245895427
 30
0.0
 11
127.1462877659751
 21
37.038501784862092
 31
0.0
  0
LINE
  5
DCD
  8
TITLE
 10
123.47415987532069
 20
33.453658766853778
 30
0.0
 11
127.1509302450167
 21
37.130429136551811
 31
0.0
  0
LINE
  5
DCE
  8
TITLE
 10
123.66044827911171
 20
33.465377425351569
 30
0.0
 11
127.1392115865192
 21
36.944140732759031
 31
0.0
  0
LINE
  5
DCF
  8
TITLE
 10
123.7574626493615
 20
33.475106922954637
 30
0.0
 11
127.12948208891611
 21
36.847126362508789
 31
0.0
  0
LINE
  5
DD0
  8
TITLE
 10
122.7730553052952
 20
33.450833178000721
 30
0.0
 11
127.1184306994864
 21
37.79620857219129
 31
0.0
  0
LINE
  5
DD1
  8
TITLE
 10
122.6857704326448
 20
33.450833178000721
 30
0.0
 11
127.1072389624087
 21
37.872301707764109
 31
0.0
  0
LINE
  5
DD2
  8
TITLE
 10
122.59848556000181
 20
33.450833178000721
 30
0.0
 11
127.09471447931629
 21
37.947062097314983
 31
0.0
  0
LINE
  5
DD3
  8
TITLE
 10
122.5112006873551
 20
33.450833178000721
 30
0.0
 11
127.0809125858304
 21
38.020545076476992
 31
0.0
  0
LINE
  5
DD4
  8
TITLE
 10
122.4239158147074
 20
33.450833178000721
 30
0.0
 11
127.06588350361559
 21
38.092800866909563
 31
0.0
  0
LINE
  5
DD5
  8
TITLE
 10
122.33663094205799
 20
33.450833178000721
 30
0.0
 11
127.049672944946
 21
38.163875180883231
 31
0.0
  0
LINE
  5
DD6
  8
TITLE
 10
122.24934606941039
 20
33.450833178000721
 30
0.0
 11
127.0323226261435
 21
38.233809734727863
 31
0.0
  0
LINE
  5
DD7
  8
TITLE
 10
122.16206119677371
 20
33.450833178000721
 30
0.0
 11
127.0138707060769
 21
38.302642687304122
 31
0.0
  0
LINE
  5
DD8
  8
TITLE
 10
122.0747763241252
 20
33.450833178000721
 30
0.0
 11
126.9943521626064
 21
38.370409016481972
 31
0.0
  0
LINE
  5
DD9
  8
TITLE
 10
121.9874914514785
 20
33.450833178000948
 30
0.0
 11
126.973799117336
 21
38.437140843857833
 31
0.0
  0
LINE
  5
DDA
  8
TITLE
 10
121.9002065788318
 20
33.450833178000721
 30
0.0
 11
126.9365361668488
 21
38.487162766017718
 31
0.0
  0
LINE
  5
DDB
  8
TITLE
 10
121.81292170618499
 20
33.450833178000721
 30
0.0
 11
126.84925129420211
 21
38.487162766017718
 31
0.0
  0
LINE
  5
DDC
  8
TITLE
 10
121.7256368335365
 20
33.450833178000948
 30
0.0
 11
126.7619664215544
 21
38.487162766017491
 31
0.0
  0
LINE
  5
DDD
  8
TITLE
 10
121.6383519608916
 20
33.450833178000721
 30
0.0
 11
126.6746815489068
 21
38.487162766017718
 31
0.0
  0
LINE
  5
DDE
  8
TITLE
 10
121.28921247032299
 20
33.450833178000721
 30
0.0
 11
124.06602082510101
 21
36.227641532797861
 31
0.0
  0
LINE
  5
DDF
  8
TITLE
 10
121.5510670882431
 20
33.450833178000721
 30
0.0
 11
126.58739667626099
 21
38.487162766017718
 31
0.0
  0
LINE
  5
DE0
  8
TITLE
 10
121.4637822155964
 20
33.450833178000721
 30
0.0
 11
126.5001118036125
 21
38.487162766017491
 31
0.0
  0
LINE
  5
DE1
  8
TITLE
 10
121.3764973429488
 20
33.450833178000721
 30
0.0
 11
126.41282693096581
 21
38.487162766017718
 31
0.0
  0
LINE
  5
DE2
  8
TITLE
 10
121.20192759766169
 20
33.450833178000948
 30
0.0
 11
123.8610965150265
 21
36.110002095365871
 31
0.0
  0
LINE
  5
DE3
  8
TITLE
 10
121.11464272501409
 20
33.450833178000948
 30
0.0
 11
123.7186552097546
 21
36.054845662740718
 31
0.0
  0
LINE
  5
DE4
  8
TITLE
 10
121.02735785236651
 20
33.450833178000721
 30
0.0
 11
123.59941847054139
 21
36.022893796174692
 31
0.0
  0
LINE
  5
DE5
  8
TITLE
 10
120.9400729797198
 20
33.450833178000721
 30
0.0
 11
123.49378910120321
 21
36.004549299483649
 31
0.0
  0
LINE
  5
DE6
  8
TITLE
 10
120.8527881070731
 20
33.450833178000721
 30
0.0
 11
123.3975748664179
 21
35.995619937345957
 31
0.0
  0
LINE
  5
DE7
  8
TITLE
 10
120.7655032344264
 20
33.450833178000501
 30
0.0
 11
123.30849127268991
 21
35.99382121626514
 31
0.0
  0
LINE
  5
DE8
  8
TITLE
 10
120.6782183617788
 20
33.450833178000721
 30
0.0
 11
123.2251298298506
 21
35.997744646072078
 31
0.0
  0
LINE
  5
DE9
  8
TITLE
 10
120.5909334891312
 20
33.450833178000721
 30
0.0
 11
123.1465504968819
 21
36.006450185750737
 31
0.0
  0
LINE
  5
DEA
  8
TITLE
 10
120.5036486164845
 20
33.450833178000721
 30
0.0
 11
123.0720905350863
 21
36.019275096603451
 31
0.0
  0
LINE
  5
DEB
  8
TITLE
 10
120.4163637438232
 20
33.450833178000948
 30
0.0
 11
123.00126389369601
 21
36.035733327855723
 31
0.0
  0
LINE
  5
DEC
  8
TITLE
 10
120.3290788711965
 20
33.450833178000948
 30
0.0
 11
122.93370364306701
 21
36.055457949870288
 31
0.0
  0
LINE
  5
DED
  8
TITLE
 10
120.2417939985498
 20
33.450833178000721
 30
0.0
 11
122.8691268949387
 21
36.078166074389173
 31
0.0
  0
LINE
  5
DEE
  8
TITLE
 10
120.15450912590219
 20
33.450833178000721
 30
0.0
 11
122.8073123541471
 21
36.103636406244732
 31
0.0
  0
LINE
  5
DEF
  8
TITLE
 10
120.0672242532564
 20
33.450833178000721
 30
0.0
 11
122.748085391986
 21
36.131694316731227
 31
0.0
  0
LINE
  5
DF0
  8
TITLE
 10
119.9799393806088
 20
33.450833178000721
 30
0.0
 11
122.6913078215821
 21
36.16220161897445
 31
0.0
  0
LINE
  5
DF1
  8
TITLE
 10
119.8926545079612
 20
33.450833178000721
 30
0.0
 11
122.6368707391248
 21
36.195049409163857
 31
0.0
  0
LINE
  5
DF2
  8
TITLE
 10
119.8053696353136
 20
33.450833178000721
 30
0.0
 11
122.5846894423357
 21
36.230152985022869
 31
0.0
  0
LINE
  5
DF3
  8
TITLE
 10
119.6307998900192
 20
33.450833178000721
 30
0.0
 11
122.4868557481595
 21
36.306889036140092
 31
0.0
  0
LINE
  5
DF4
  8
TITLE
 10
119.54351501740349
 20
33.450833178000721
 30
0.0
 11
122.44112745603979
 21
36.348445616665231
 31
0.0
  0
LINE
  5
DF5
  8
TITLE
 10
119.71808476266681
 20
33.450833178000501
 30
0.0
 11
122.5346998097593
 21
36.267448225091812
 31
0.0
  0
LINE
  5
DF6
  8
TITLE
 10
125.33823048282279
 20
41.104079120572351
 30
0.0
 11
122.41937018706081
 21
38.185218824809908
 31
0.0
  0
LINE
  5
DF7
  8
TITLE
 10
119.85068909498381
 20
35.678274453828408
 30
0.0
 11
125.2764937617285
 21
41.104079120572351
 31
0.0
  0
LINE
  5
DF8
  8
TITLE
 10
119.82361753197441
 20
35.73848776346518
 30
0.0
 11
125.1892088890818
 21
41.104079120572351
 31
0.0
  0
LINE
  5
DF9
  8
TITLE
 10
119.7974161969323
 20
35.799571301069143
 30
0.0
 11
125.1019240164332
 21
41.104079120572351
 31
0.0
  0
LINE
  5
DFA
  8
TITLE
 10
119.7721034095357
 20
35.861543386321053
 30
0.0
 11
125.01463914378741
 21
41.104079120572351
 31
0.0
  0
LINE
  5
DFB
  8
TITLE
 10
119.7476989814177
 20
35.924423830850181
 30
0.0
 11
124.92735427113981
 21
41.104079120572351
 31
0.0
  0
LINE
  5
DFC
  8
TITLE
 10
119.55935903193949
 20
36.60893260782882
 30
0.0
 11
124.0545055446691
 21
41.104079120572351
 31
0.0
  0
LINE
  5
DFD
  8
TITLE
 10
119.54685359953319
 20
36.683712048076814
 30
0.0
 11
123.96722067202791
 21
41.104079120572351
 31
0.0
  0
LINE
  5
DFE
  8
TITLE
 10
119.6401178100714
 20
36.253267022746059
 30
0.0
 11
124.49092990791171
 21
41.104079120572351
 31
0.0
  0
LINE
  5
DFF
  8
TITLE
 10
119.62168171769549
 20
36.322115803015997
 30
0.0
 11
124.403645035265
 21
41.104079120572351
 31
0.0
  0
LINE
  5
E00
  8
TITLE
 10
119.6043477600806
 20
36.392066718045498
 30
0.0
 11
124.3163601626202
 21
41.104079120572351
 31
0.0
  0
LINE
  5
E01
  8
TITLE
 10
119.58815414519989
 20
36.463157975812237
 30
0.0
 11
124.22907528997349
 21
41.104079120572351
 31
0.0
  0
LINE
  5
E02
  8
TITLE
 10
119.57314264441079
 20
36.535431347660051
 30
0.0
 11
124.1417904173158
 21
41.104079120572351
 31
0.0
  0
LINE
  5
E03
  8
TITLE
 10
119.7242243448936
 20
35.988234066972382
 30
0.0
 11
124.8400693984931
 21
41.104079120572351
 31
0.0
  0
LINE
  5
E04
  8
TITLE
 10
119.70170269854771
 20
36.052997293274082
 30
0.0
 11
124.7527845258455
 21
41.104079120572351
 31
0.0
  0
LINE
  5
E05
  8
TITLE
 10
119.6801591723342
 20
36.118738639708681
 30
0.0
 11
124.66549965319879
 21
41.104079120572351
 31
0.0
  0
LINE
  5
E06
  8
TITLE
 10
119.6596210153475
 20
36.185485355375477
 30
0.0
 11
124.5782147805603
 21
41.104079120572351
 31
0.0
  0
LINE
  5
E07
  8
TITLE
 10
119.5356817625033
 20
36.759825083694068
 30
0.0
 11
123.8799357993812
 21
41.104079120572351
 31
0.0
  0
LINE
  5
E08
  8
TITLE
 10
119.5259047777617
 20
36.837332971600063
 30
0.0
 11
123.7926509267345
 21
41.104079120572351
 31
0.0
  0
LINE
  5
E09
  8
TITLE
 10
119.5175906002241
 20
36.916303666709609
 30
0.0
 11
123.70536605408689
 21
41.104079120572351
 31
0.0
  0
LINE
  5
E0A
  8
TITLE
 10
119.5108149115576
 20
36.996812850689821
 30
0.0
 11
123.61808118143919
 21
41.104079120572351
 31
0.0
  0
LINE
  5
E0B
  8
TITLE
 10
119.5056623657137
 20
37.078945177492869
 30
0.0
 11
123.5307963087925
 21
41.104079120572351
 31
0.0
  0
LINE
  5
E0C
  8
TITLE
 10
119.50222810986629
 20
37.162795794283277
 30
0.0
 11
123.4435114361458
 21
41.104079120572351
 31
0.0
  0
LINE
  5
E0D
  8
TITLE
 10
119.50061965915749
 20
37.248472216222581
 30
0.0
 11
123.3562265634982
 21
41.104079120572351
 31
0.0
  0
LINE
  5
E0E
  8
TITLE
 10
119.6991955842622
 20
38.494466613062741
 30
0.0
 11
122.30880809173961
 21
41.104079120572351
 31
0.0
  0
LINE
  5
E0F
  8
TITLE
 10
119.50095923156179
 20
37.336096661273821
 30
0.0
 11
123.2689416908506
 21
41.104079120572351
 31
0.0
  0
LINE
  5
E10
  8
TITLE
 10
119.5033866891863
 20
37.425808991536087
 30
0.0
 11
123.1816568182039
 21
41.104079120572351
 31
0.0
  0
LINE
  5
E11
  8
TITLE
 10
119.5080632908666
 20
37.517770465861311
 30
0.0
 11
123.0943719455572
 21
41.104079120572351
 31
0.0
  0
LINE
  5
E12
  8
TITLE
 10
119.5151765482405
 20
37.61216859589581
 30
0.0
 11
123.0070870729168
 21
41.104079120572351
 31
0.0
  0
LINE
  5
E13
  8
TITLE
 10
119.5249466109308
 20
37.709223531232958
 30
0.0
 11
122.9198022002692
 21
41.104079120572351
 31
0.0
  0
LINE
  5
E14
  8
TITLE
 10
119.53763481556049
 20
37.80919660850941
 30
0.0
 11
122.8325173276225
 21
41.104079120572351
 31
0.0
  0
LINE
  5
E15
  8
TITLE
 10
119.5535553710679
 20
37.91240203666348
 30
0.0
 11
122.7452324549749
 21
41.104079120572351
 31
0.0
  0
LINE
  5
E16
  8
TITLE
 10
119.573091716642
 20
38.019223254885453
 30
0.0
 11
122.65794758232821
 21
41.104079120572351
 31
0.0
  0
LINE
  5
E17
  8
TITLE
 10
119.5967200676732
 20
38.13013647856269
 30
0.0
 11
122.5706627096806
 21
41.104079120572351
 31
0.0
  0
LINE
  5
E18
  8
TITLE
 10
119.6250444443594
 20
38.245745727882877
 30
0.0
 11
122.4833778370339
 21
41.104079120572351
 31
0.0
  0
LINE
  5
E19
  8
TITLE
 10
119.6588508908735
 20
38.366837047043418
 30
0.0
 11
122.39609296438719
 21
41.104079120572351
 31
0.0
  0
LINE
  5
E1A
  8
TITLE
 10
119.7475570630413
 20
38.630112964483487
 30
0.0
 11
122.22152321909201
 21
41.104079120572351
 31
0.0
  0
LINE
  5
E1B
  8
TITLE
 10
119.87837471686809
 20
38.935500363634219
 30
0.0
 11
122.0469534738058
 21
41.104079120572351
 31
0.0
  0
LINE
  5
E1C
  8
TITLE
 10
119.8061210691303
 20
38.775961843213743
 30
0.0
 11
122.1342383464453
 21
41.104079120572351
 31
0.0
  0
LINE
  5
E1D
  8
TITLE
 10
119.97055903818359
 20
39.11496955759776
 30
0.0
 11
121.9596686011582
 21
41.104079120572351
 31
0.0
  0
LINE
  5
E1E
  8
TITLE
 10
119.99855021796149
 20
35.389711213578501
 30
0.0
 11
122.054419024249
 21
37.445580019865247
 31
0.0
  0
LINE
  5
E1F
  8
TITLE
 10
119.9673574068529
 20
35.445803275119722
 30
0.0
 11
122.07292524772851
 21
37.551371115991969
 31
0.0
  0
LINE
  5
E20
  8
TITLE
 10
119.9369620260149
 20
35.502692766959633
 30
0.0
 11
122.1051251839026
 21
37.670855924819527
 31
0.0
  0
LINE
  5
E21
  8
TITLE
 10
119.9073764141267
 20
35.56039202770944
 30
0.0
 11
122.1607584701223
 21
37.813774083683711
 31
0.0
  0
LINE
  5
E22
  8
TITLE
 10
119.8786139441454
 20
35.618914430321638
 30
0.0
 11
122.2803928826206
 21
38.020693368814591
 31
0.0
  0
LINE
  5
E23
  8
TITLE
 10
120.0305290909709
 20
35.334405213938233
 30
0.0
 11
122.045371523207
 21
37.349247646174952
 31
0.0
  0
LINE
  5
E24
  8
TITLE
 10
120.47256755522901
 20
34.729025206448121
 30
0.0
 11
122.27930117902901
 21
36.535758830238137
 31
0.0
  0
LINE
  5
E25
  8
TITLE
 10
120.59925251611
 20
34.593855549403322
 30
0.0
 11
122.3975003441046
 21
36.392103377374951
 31
0.0
  0
LINE
  5
E26
  8
TITLE
 10
120.5563192463169
 20
34.638207152264393
 30
0.0
 11
122.3559745190459
 21
36.437862424963441
 31
0.0
  0
LINE
  5
E27
  8
TITLE
 10
120.51409055731339
 20
34.683263335880383
 30
0.0
 11
122.3165647872938
 21
36.485737565855743
 31
0.0
  0
LINE
  5
E28
  8
TITLE
 10
120.3916458255553
 20
34.822673222058711
 30
0.0
 11
122.21141576110131
 21
36.642443157604248
 31
0.0
  0
LINE
  5
E29
  8
TITLE
 10
120.3522521212289
 20
34.870564390380203
 30
0.0
 11
122.1809433794769
 21
36.699255648627968
 31
0.0
  0
LINE
  5
E2A
  8
TITLE
 10
120.3135741703727
 20
34.91917131217042
 30
0.0
 11
122.1529221823248
 21
36.758519324122517
 31
0.0
  0
LINE
  5
E2B
  8
TITLE
 10
120.27561595025691
 20
34.968497964702692
 30
0.0
 11
122.1274908311352
 21
36.820372845580103
 31
0.0
  0
LINE
  5
E2C
  8
TITLE
 10
120.16610875714279
 20
35.120845389507849
 30
0.0
 11
122.06873736886151
 21
37.023474001244267
 31
0.0
  0
LINE
  5
E2D
  8
TITLE
 10
120.238382051044
 20
35.018548938136291
 30
0.0
 11
122.104824553463
 21
36.884991440554813
 31
0.0
  0
LINE
  5
E2E
  8
TITLE
 10
120.20187769474791
 20
35.069329454486933
 30
0.0
 11
122.08514542238839
 21
36.952597182127867
 31
0.0
  0
LINE
  5
E2F
  8
TITLE
 10
120.13108179276421
 20
35.17310329781867
 30
0.0
 11
122.0559687700524
 21
37.097990275080967
 31
0.0
  0
LINE
  5
E30
  8
TITLE
 10
120.0968040634871
 20
35.226110441196397
 30
0.0
 11
122.0473277703131
 21
37.176634147990171
 31
0.0
  0
LINE
  5
E31
  8
TITLE
 10
120.06328357058371
 20
35.279874820909981
 30
0.0
 11
122.0434802906093
 21
37.260071540929182
 31
0.0
  0
LINE
  5
E32
  8
TITLE
 10
120.4317519027408
 20
34.775494426607573
 30
0.0
 11
122.2442300365001
 21
36.58797256035632
 31
0.0
  0
LINE
  5
E33
  8
TITLE
 10
121.7420937297893
 20
41.104079120572351
 30
0.0
 11
120.6213018105436
 21
39.983287201326682
 31
0.0
  0
LINE
  5
E34
  8
TITLE
 10
120.30236018531281
 20
39.621340450015168
 30
0.0
 11
121.78509885586389
 21
41.104079120572351
 31
0.0
  0
LINE
  5
E35
  8
TITLE
 10
120.0962783141603
 20
39.327973706222572
 30
0.0
 11
121.8723837285106
 21
41.104079120572351
 31
0.0
  0
LINE
  5
E36
  8
TITLE
 10
129.592897793329
 20
39.016666204438941
 30
0.0
 11
130.42146677322029
 21
39.845235184330697
 31
0.0
  0
LINE
  5
E37
  8
TITLE
 10
129.592897793329
 20
38.929381331791767
 30
0.0
 11
130.5087516458679
 21
39.845235184330697
 31
0.0
  0
LINE
  5
E38
  8
TITLE
 10
129.592897793329
 20
38.842096459144379
 30
0.0
 11
130.59603651851461
 21
39.845235184330697
 31
0.0
  0
LINE
  5
E39
  8
TITLE
 10
129.592897793329
 20
38.754811586497681
 30
0.0
 11
130.68332139116129
 21
39.845235184330697
 31
0.0
  0
LINE
  5
E3A
  8
TITLE
 10
129.592897793329
 20
38.056532605327448
 30
0.0
 11
131.38160037233129
 21
39.845235184330697
 31
0.0
  0
LINE
  5
E3B
  8
TITLE
 10
129.592897793329
 20
37.969247732680287
 30
0.0
 11
131.46888524497899
 21
39.845235184330697
 31
0.0
  0
LINE
  5
E3C
  8
TITLE
 10
129.592897793329
 20
38.492956968555973
 30
0.0
 11
130.945176009096
 21
39.845235184330697
 31
0.0
  0
LINE
  5
E3D
  8
TITLE
 10
129.592897793329
 20
38.405672095908812
 30
0.0
 11
131.03246088174271
 21
39.845235184330697
 31
0.0
  0
LINE
  5
E3E
  8
TITLE
 10
129.592897793329
 20
38.31838722326529
 30
0.0
 11
131.11974575439029
 21
39.845235184330697
 31
0.0
  0
LINE
  5
E3F
  8
TITLE
 10
129.592897793329
 20
38.23110235061813
 30
0.0
 11
131.20703062703799
 21
39.845235184330697
 31
0.0
  0
LINE
  5
E40
  8
TITLE
 10
129.592897793329
 20
38.143817477970742
 30
0.0
 11
131.29431549968459
 21
39.845235184330697
 31
0.0
  0
LINE
  5
E41
  8
TITLE
 10
129.592897793329
 20
38.667526713850293
 30
0.0
 11
130.77060626380899
 21
39.845235184330697
 31
0.0
  0
LINE
  5
E42
  8
TITLE
 10
129.592897793329
 20
38.58024184120314
 30
0.0
 11
130.8578911364566
 21
39.845235184330697
 31
0.0
  0
LINE
  5
E43
  8
TITLE
 10
129.592897793329
 20
39.103951077082463
 30
0.0
 11
130.3341819005727
 21
39.845235184330697
 31
0.0
  0
LINE
  5
E44
  8
TITLE
 10
129.592897793329
 20
39.191235949729617
 30
0.0
 11
130.246897027926
 21
39.845235184330697
 31
0.0
  0
LINE
  5
E45
  8
TITLE
 10
129.592897793329
 20
39.278520822373601
 30
0.0
 11
130.15961215527929
 21
39.845235184330697
 31
0.0
  0
LINE
  5
E46
  8
TITLE
 10
123.78421616629019
 20
38.477098180735091
 30
0.0
 11
123.79428075157369
 21
38.487162766017718
 31
0.0
  0
LINE
  5
E47
  8
TITLE
 10
123.8460696877482
 20
38.451666829545729
 30
0.0
 11
123.8815656242204
 21
38.487162766017718
 31
0.0
  0
LINE
  5
E48
  8
TITLE
 10
124.5422261388139
 20
33.648876303887853
 30
0.0
 11
126.9557127079824
 21
36.0623628730566
 31
0.0
  0
LINE
  5
E49
  8
TITLE
 10
124.2936969420907
 20
33.574916852455317
 30
0.0
 11
127.029672159415
 21
36.310892069779811
 31
0.0
  0
LINE
  5
E4A
  8
TITLE
 10
124.41470140681849
 20
33.608636444536387
 30
0.0
 11
126.9959525673339
 21
36.189887605051361
 31
0.0
  0
LINE
  5
E4B
  8
TITLE
 10
124.178161396454
 20
33.546666179466229
 30
0.0
 11
127.057922832404
 21
36.42642761541606
 31
0.0
  0
LINE
  5
E4C
  8
TITLE
 10
124.06731190958
 20
33.523101565238903
 30
0.0
 11
127.0814874466305
 21
36.53727710228555
 31
0.0
  0
LINE
  5
E4D
  8
TITLE
 10
123.96054665794691
 20
33.503621186252531
 30
0.0
 11
127.10096782561681
 21
36.644042353919083
 31
0.0
  0
LINE
  5
E4E
  8
TITLE
 10
124.8234209858055
 20
33.755501405585392
 30
0.0
 11
126.8490876062879
 21
35.781168026070418
 31
0.0
  0
LINE
  5
E4F
  8
TITLE
 10
124.6777419135633
 20
33.697107205987322
 30
0.0
 11
126.90748180588341
 21
35.926847098305643
 31
0.0
  0
LINE
  5
E50
  8
TITLE
 10
124.9827243368436
 20
33.827519883972172
 30
0.0
 11
126.7770691278983
 21
35.6218646750267
 31
0.0
  0
LINE
  5
E51
  8
TITLE
 10
125.1618332045709
 20
33.91934387905394
 30
0.0
 11
126.6852451328141
 21
35.442755807295732
 31
0.0
  0
LINE
  5
E52
  8
TITLE
 10
124.3744360268483
 20
38.019899569533891
 30
0.0
 11
124.8416992233324
 21
38.487162766017718
 31
0.0
  0
LINE
  5
E53
  8
TITLE
 10
124.4423873928954
 20
37.913281190288217
 30
0.0
 11
125.01626896862579
 21
38.487162766017718
 31
0.0
  0
LINE
  5
E54
  8
TITLE
 10
124.5009526056255
 20
37.79727665772316
 30
0.0
 11
125.190838713921
 21
38.487162766017718
 31
0.0
  0
LINE
  5
E55
  8
TITLE
 10
124.5264229374816
 20
37.735462116931792
 30
0.0
 11
125.2781235865677
 21
38.487162766017718
 31
0.0
  0
LINE
  5
E56
  8
TITLE
 10
124.472894695139
 20
37.856503619884279
 30
0.0
 11
125.1035538412725
 21
38.487162766017718
 31
0.0
  0
LINE
  5
E57
  8
TITLE
 10
124.4095396027069
 20
37.967718272745969
 30
0.0
 11
124.9289840959791
 21
38.487162766017718
 31
0.0
  0
LINE
  5
E58
  8
TITLE
 10
124.33714078677799
 20
38.069889202111881
 30
0.0
 11
124.7544143506848
 21
38.487162766017718
 31
0.0
  0
LINE
  5
E59
  8
TITLE
 10
124.2124856345071
 20
38.207088667754761
 30
0.0
 11
124.49255973277469
 21
38.487162766017718
 31
0.0
  0
LINE
  5
E5A
  8
TITLE
 10
124.25614339519591
 20
38.163461555839831
 30
0.0
 11
124.5798446053723
 21
38.487162766017718
 31
0.0
  0
LINE
  5
E5B
  8
TITLE
 10
124.2976999757302
 20
38.117733263710313
 30
0.0
 11
124.6671294780371
 21
38.487162766017718
 31
0.0
  0
LINE
  5
E5C
  8
TITLE
 10
124.1667265869237
 20
38.248614492810702
 30
0.0
 11
124.4052748601343
 21
38.487162766017953
 31
0.0
  0
LINE
  5
E5D
  8
TITLE
 10
124.06883018163811
 20
38.32528783283783
 30
0.0
 11
124.2307051148191
 21
38.487162766017953
 31
0.0
  0
LINE
  5
E5E
  8
TITLE
 10
124.1188514460173
 20
38.28802422457489
 30
0.0
 11
124.3179899874612
 21
38.487162766017718
 31
0.0
  0
LINE
  5
E5F
  8
TITLE
 10
123.962145854266
 20
38.393173250769451
 30
0.0
 11
124.0561353695138
 21
38.487162766017718
 31
0.0
  0
LINE
  5
E60
  8
TITLE
 10
123.9053333632428
 20
38.423645632392891
 30
0.0
 11
123.96885049686711
 21
38.487162766017718
 31
0.0
  0
LINE
  5
E61
  8
TITLE
 10
124.01661645152031
 20
38.360358975367028
 30
0.0
 11
124.1434202421715
 21
38.487162766017953
 31
0.0
  0
LINE
  5
E62
  8
TITLE
 10
125.6653919362106
 20
34.248332865402062
 30
0.0
 11
126.3562561464687
 21
34.939197075659202
 31
0.0
  0
LINE
  5
E63
  8
TITLE
 10
125.3741686879839
 20
34.04439448982157
 30
0.0
 11
126.5601945220496
 21
35.230420323887301
 31
0.0
  0
LINE
  5
E64
  8
TITLE
 10
124.549131062
 20
37.670885368803283
 30
0.0
 11
125.36540845921439
 21
38.487162766017491
 31
0.0
  0
LINE
  5
E65
  8
TITLE
 10
124.5688556840168
 20
37.60332511816614
 30
0.0
 11
125.4526933318748
 21
38.487162766017491
 31
0.0
  0
LINE
  5
E66
  8
TITLE
 10
124.5853139152677
 20
37.53249847678353
 30
0.0
 11
125.5399782045024
 21
38.487162766017718
 31
0.0
  0
LINE
  5
E67
  8
TITLE
 10
124.59813882611979
 20
37.458038514988857
 30
0.0
 11
125.6272630771491
 21
38.487162766017718
 31
0.0
  0
LINE
  5
E68
  8
TITLE
 10
124.60684436579859
 20
37.37945918202081
 30
0.0
 11
125.7145479497958
 21
38.487162766017718
 31
0.0
  0
LINE
  5
E69
  8
TITLE
 10
124.60896907452479
 20
37.207014145451922
 30
0.0
 11
125.88911769509011
 21
38.487162766017718
 31
0.0
  0
LINE
  5
E6A
  8
TITLE
 10
124.6000397123871
 20
37.110799910667538
 30
0.0
 11
125.97640256773769
 21
38.487162766017718
 31
0.0
  0
LINE
  5
E6B
  8
TITLE
 10
124.5816952156965
 20
37.00517054132888
 30
0.0
 11
126.0636874403844
 21
38.487162766017718
 31
0.0
  0
LINE
  5
E6C
  8
TITLE
 10
124.6107677956052
 20
37.296097739180141
 30
0.0
 11
125.80183282244251
 21
38.487162766017718
 31
0.0
  0
LINE
  5
E6D
  8
TITLE
 10
124.5497433491291
 20
36.885933802115908
 30
0.0
 11
126.150972313032
 21
38.487162766017491
 31
0.0
  0
LINE
  5
E6E
  8
TITLE
 10
124.4945869165049
 20
36.743492496843828
 30
0.0
 11
126.2382571856788
 21
38.487162766017491
 31
0.0
  0
LINE
  5
E6F
  8
TITLE
 10
124.3769474790779
 20
36.538568186776729
 30
0.0
 11
126.3255420583064
 21
38.487162766017718
 31
0.0
  0
LINE
  5
E70
  8
TITLE
 10
123.857390997995
 20
33.487750398940989
 30
0.0
 11
127.1168386129302
 21
36.747198013875511
 31
0.0
  0
LINE
  5
E71
  8
TITLE
 10
130.1617067820934
 20
34.87209207029332
 30
0.0
 11
130.63770382871189
 21
35.348089116911297
 31
0.0
  0
LINE
  5
E72
  8
TITLE
 10
130.1617067820934
 20
34.78480719764616
 30
0.0
 11
130.7249887013586
 21
35.348089116911297
 31
0.0
  0
LINE
  5
E73
  8
TITLE
 10
130.1617067820934
 20
34.697522324999227
 30
0.0
 11
130.8122735740053
 21
35.348089116911297
 31
0.0
  0
LINE
  5
E74
  8
TITLE
 10
130.1617067820934
 20
34.610237452352067
 30
0.0
 11
130.89955844665289
 21
35.348089116911297
 31
0.0
  0
LINE
  5
E75
  8
TITLE
 10
130.1617067820934
 20
34.522952579704679
 30
0.0
 11
130.9868433193005
 21
35.348089116911297
 31
0.0
  0
LINE
  5
E76
  8
TITLE
 10
130.1617067820934
 20
34.435667707057519
 30
0.0
 11
131.07412819194721
 21
35.348089116911297
 31
0.0
  0
LINE
  5
E77
  8
TITLE
 10
130.1617067820934
 20
34.348382834410593
 30
0.0
 11
131.16141306459389
 21
35.348089116911297
 31
0.0
  0
LINE
  5
E78
  8
TITLE
 10
130.19127318441861
 20
34.290664364088123
 30
0.0
 11
131.2486979372415
 21
35.348089116911297
 31
0.0
  0
LINE
  5
E79
  8
TITLE
 10
130.27855805706531
 20
34.290664364088123
 30
0.0
 11
131.3359828098892
 21
35.348089116911297
 31
0.0
  0
LINE
  5
E7A
  8
TITLE
 10
130.36584292970559
 20
34.290664364088123
 30
0.0
 11
131.42326768253579
 21
35.348089116911297
 31
0.0
  0
LINE
  5
E7B
  8
TITLE
 10
130.45312780235321
 20
34.290664364088123
 30
0.0
 11
131.51055255517619
 21
35.348089116911297
 31
0.0
  0
LINE
  5
E7C
  8
TITLE
 10
130.1617067820934
 20
35.133946688231163
 30
0.0
 11
130.3758492107772
 21
35.348089116911297
 31
0.0
  0
LINE
  5
E7D
  8
TITLE
 10
130.1617067820934
 20
35.04666181558423
 30
0.0
 11
130.46313408342391
 21
35.348089116911297
 31
0.0
  0
LINE
  5
E7E
  8
TITLE
 10
130.1617067820934
 20
34.959376942936842
 30
0.0
 11
130.55041895606419
 21
35.348089116911297
 31
0.0
  0
LINE
  5
E7F
  8
TITLE
 10
130.1617067820934
 20
35.308516433522072
 30
0.0
 11
130.20127946548291
 21
35.348089116911297
 31
0.0
  0
LINE
  5
E80
  8
TITLE
 10
130.1617067820934
 20
35.221231560874912
 30
0.0
 11
130.2885643381305
 21
35.348089116911297
 31
0.0
  0
LINE
  5
E81
  8
TITLE
 10
130.75522780646949
 20
37.036740802303939
 30
0.0
 11
130.87271801805031
 21
37.154231013884328
 31
0.0
  0
LINE
  5
E82
  8
TITLE
 10
130.84251267911711
 20
37.036740802303939
 30
0.0
 11
130.87271801805031
 21
37.066946141237167
 31
0.0
  0
LINE
  5
E83
  8
TITLE
 10
130.49337318852761
 20
37.036740802303939
 30
0.0
 11
130.87271801805031
 21
37.41608563182217
 31
0.0
  0
LINE
  5
E84
  8
TITLE
 10
130.5806580611752
 20
37.036740802303939
 30
0.0
 11
130.87271801805031
 21
37.32880075917501
 31
0.0
  0
LINE
  5
E85
  8
TITLE
 10
130.66794293382191
 20
37.036740802303939
 30
0.0
 11
130.87271801805031
 21
37.24151588653104
 31
0.0
  0
LINE
  5
E86
  8
TITLE
 10
130.23151857059381
 20
37.036740802303939
 30
0.0
 11
130.87271801805031
 21
37.67794024976002
 31
0.0
  0
LINE
  5
E87
  8
TITLE
 10
130.31880344324051
 20
37.036740802303939
 30
0.0
 11
130.87271801805031
 21
37.590655377112853
 31
0.0
  0
LINE
  5
E88
  8
TITLE
 10
130.4060883158881
 20
37.036740802303939
 30
0.0
 11
130.87271801805031
 21
37.503370504469331
 31
0.0
  0
LINE
  5
E89
  8
TITLE
 10
129.88237908000519
 20
37.036740802303939
 30
0.0
 11
130.87271801805031
 21
38.027079740348647
 31
0.0
  0
LINE
  5
E8A
  8
TITLE
 10
129.9696639526519
 20
37.036740802303939
 30
0.0
 11
130.87271801805031
 21
37.939794867701501
 31
0.0
  0
LINE
  5
E8B
  8
TITLE
 10
130.05694882529949
 20
37.036740802303939
 30
0.0
 11
130.87271801805031
 21
37.852509995054326
 31
0.0
  0
LINE
  5
E8C
  8
TITLE
 10
130.1442336979471
 20
37.036740802303939
 30
0.0
 11
130.87271801805031
 21
37.765225122407173
 31
0.0
  0
LINE
  5
E8D
  8
TITLE
 10
129.592897793329
 20
37.358253624153797
 30
0.0
 11
130.87271801805031
 21
38.638073848871052
 31
0.0
  0
LINE
  5
E8E
  8
TITLE
 10
129.592897793329
 20
37.270968751506643
 30
0.0
 11
130.87271801805031
 21
38.550788976224339
 31
0.0
  0
LINE
  5
E8F
  8
TITLE
 10
129.6205244620632
 20
37.036740802303939
 30
0.0
 11
130.87271801805031
 21
38.288934358286269
 31
0.0
  0
LINE
  5
E90
  8
TITLE
 10
129.70780933471079
 20
37.036740802303939
 30
0.0
 11
130.87271801805031
 21
38.201649485642747
 31
0.0
  0
LINE
  5
E91
  8
TITLE
 10
129.79509420735749
 20
37.036740802303939
 30
0.0
 11
130.87271801805031
 21
38.114364612995821
 31
0.0
  0
LINE
  5
E92
  8
TITLE
 10
129.592897793329
 20
37.183683878863121
 30
0.0
 11
130.87271801805031
 21
38.463504103580817
 31
0.0
  0
LINE
  5
E93
  8
TITLE
 10
129.592897793329
 20
37.096399006215961
 30
0.0
 11
130.87271801805031
 21
38.376219230934112
 31
0.0
  0
LINE
  5
E94
  8
TITLE
 10
129.592897793329
 20
39.62766031296178
 30
0.0
 11
129.8104726646979
 21
39.845235184330697
 31
0.0
  0
LINE
  5
E95
  8
TITLE
 10
129.592897793329
 20
39.8022300582561
 30
0.0
 11
129.6359029194027
 21
39.845235184330697
 31
0.0
  0
LINE
  5
E96
  8
TITLE
 10
129.592897793329
 20
39.714945185609167
 30
0.0
 11
129.72318779205031
 21
39.845235184330697
 31
0.0
  0
LINE
  5
E97
  8
TITLE
 10
129.592897793329
 20
39.365805695020299
 30
0.0
 11
130.07232728263261
 21
39.845235184330697
 31
0.0
  0
LINE
  5
E98
  8
TITLE
 10
129.592897793329
 20
39.540375440314619
 30
0.0
 11
129.8977575373446
 21
39.845235184330697
 31
0.0
  0
LINE
  5
E99
  8
TITLE
 10
129.592897793329
 20
39.453090567667459
 30
0.0
 11
129.98504240998409
 21
39.845235184330697
 31
0.0
  0
LINE
  5
E9B
  8
TITLE
 10
139.875
 20
52.5
 30
0.0
 11
139.875
 21
42.5
 31
0.0
  0
LINE
  5
E9C
  8
TITLE
 10
147.64818746413221
 20
34.552458732449402
 30
0.0
 11
149.6192050501422
 21
36.523476318458513
 31
0.0
  0
LINE
  5
E9D
  8
TITLE
 10
147.64818746413221
 20
34.46517385980178
 30
0.0
 11
149.57332672906341
 21
36.390313124732977
 31
0.0
  0
LINE
  5
E9E
  8
TITLE
 10
147.64818746413221
 20
34.37788898715462
 30
0.0
 11
149.52744840798459
 21
36.257149931010652
 31
0.0
  0
LINE
  5
E9F
  8
TITLE
 10
147.64824771371241
 20
34.290664364088123
 30
0.0
 11
149.4815700869058
 21
36.123986737284667
 31
0.0
  0
LINE
  5
EA0
  8
TITLE
 10
147.73553258635269
 20
34.290664364088123
 30
0.0
 11
149.43569176582781
 21
35.99082354356279
 31
0.0
  0
LINE
  5
EA1
  8
TITLE
 10
147.64818746413221
 20
34.814313350390883
 30
0.0
 11
149.75684001337859
 21
36.92296589963599
 31
0.0
  0
LINE
  5
EA2
  8
TITLE
 10
147.64818746413221
 20
34.727028477743488
 30
0.0
 11
149.71096169229889
 21
36.789802705910461
 31
0.0
  0
LINE
  5
EA3
  8
TITLE
 10
147.64818746413221
 20
34.639743605096101
 30
0.0
 11
149.66508337122099
 21
36.656639512184711
 31
0.0
  0
LINE
  5
EA4
  8
TITLE
 10
147.64818746413221
 20
35.338022586266561
 30
0.0
 11
150.03210993984251
 21
37.721945061983433
 31
0.0
  0
LINE
  5
EA5
  8
TITLE
 10
147.64818746413221
 20
35.250737713618953
 30
0.0
 11
149.9862316187637
 21
37.588781868257684
 31
0.0
  0
LINE
  5
EA6
  8
TITLE
 10
147.64818746413221
 20
35.163452840975879
 30
0.0
 11
149.94035329768479
 21
37.455618674532161
 31
0.0
  0
LINE
  5
EA7
  8
TITLE
 10
147.64818746413221
 20
35.076167968328257
 30
0.0
 11
149.89447497660689
 21
37.322455480806177
 31
0.0
  0
LINE
  5
EA8
  8
TITLE
 10
147.64818746413221
 20
34.988883095681111
 30
0.0
 11
149.84859665553449
 21
37.189292287084299
 31
0.0
  0
LINE
  5
EA9
  8
TITLE
 10
147.64818746413221
 20
34.901598223037809
 30
0.0
 11
149.80271833445661
 21
37.056129093358102
 31
0.0
  0
LINE
  5
EAA
  8
TITLE
 10
147.82281745900031
 20
34.290664364088123
 30
0.0
 11
149.38981344474811
 21
35.857660349836813
 31
0.0
  0
LINE
  5
EAB
  8
TITLE
 10
147.91010233164701
 20
34.290664364088123
 30
0.0
 11
149.34393512367021
 21
35.724497156111063
 31
0.0
  0
LINE
  5
EAC
  8
TITLE
 10
139.62562638847339
 20
38.13878571877558
 30
0.0
 11
141.32660142470559
 21
39.839760755008228
 31
0.0
  0
LINE
  5
EAD
  8
TITLE
 10
138.08225919892899
 20
37.206412637753601
 30
0.0
 11
140.5272332402119
 21
39.651386679040797
 31
0.0
  0
LINE
  5
EAE
  8
TITLE
 10
138.17835846748949
 20
37.215227033663268
 30
0.0
 11
140.651211909133
 21
39.688080475310933
 31
0.0
  0
LINE
  5
EAF
  8
TITLE
 10
138.17835846748949
 20
37.127942161019753
 30
0.0
 11
140.7713804755158
 21
39.72096416904629
 31
0.0
  0
LINE
  5
EB0
  8
TITLE
 10
138.17835846748949
 20
37.04065728837282
 30
0.0
 11
140.88812516274169
 21
39.750423983625751
 31
0.0
  0
LINE
  5
EB1
  8
TITLE
 10
138.17835846748949
 20
36.953372415725433
 30
0.0
 11
141.00176757038659
 21
39.776781518622784
 31
0.0
  0
LINE
  5
EB2
  8
TITLE
 10
138.17835846748949
 20
36.8660875430785
 30
0.0
 11
141.11257891923921
 21
39.800307994835073
 31
0.0
  0
LINE
  5
EB3
  8
TITLE
 10
138.17835846748949
 20
36.778802670431112
 30
0.0
 11
141.22079048910379
 21
39.821234692053849
 31
0.0
  0
LINE
  5
EB4
  8
TITLE
 10
137.9246858038359
 20
37.13612411530471
 30
0.0
 11
140.39897371736879
 21
39.610412028840528
 31
0.0
  0
LINE
  5
EB5
  8
TITLE
 10
137.37058204309869
 20
36.931159845159982
 30
0.0
 11
139.82868408240751
 21
39.389261884468397
 31
0.0
  0
LINE
  5
EB6
  8
TITLE
 10
137.50014370117421
 20
36.973436630584501
 30
0.0
 11
139.98182835518671
 21
39.455121284592678
 31
0.0
  0
LINE
  5
EB7
  8
TITLE
 10
137.635039327627
 20
37.021047384393569
 30
0.0
 11
140.12712112781171
 21
39.51312918457802
 31
0.0
  0
LINE
  5
EB8
  8
TITLE
 10
137.7761585635744
 20
37.074881747686049
 30
0.0
 11
140.26584947541591
 21
39.564572659535308
 31
0.0
  0
LINE
  5
EB9
  8
TITLE
 10
131.62276507624659
 20
38.689841925901881
 30
0.0
 11
132.7781583346723
 21
39.845235184330697
 31
0.0
  0
LINE
  5
EBA
  8
TITLE
 10
131.7100499488933
 20
38.689841925901881
 30
0.0
 11
132.86544320731991
 21
39.845235184330697
 31
0.0
  0
LINE
  5
EBB
  8
TITLE
 10
131.79733482154089
 20
38.689841925901881
 30
0.0
 11
132.95272807996659
 21
39.845235184330697
 31
0.0
  0
LINE
  5
EBC
  8
TITLE
 10
131.88461969418859
 20
38.689841925901881
 30
0.0
 11
133.0400129526133
 21
39.845235184330697
 31
0.0
  0
LINE
  5
EBD
  8
TITLE
 10
131.97190456683529
 20
38.689841925901881
 30
0.0
 11
133.12729782526091
 21
39.845235184330697
 31
0.0
  0
LINE
  5
EBE
  8
TITLE
 10
132.059189439482
 20
38.689841925901881
 30
0.0
 11
133.21458269790759
 21
39.845235184330697
 31
0.0
  0
LINE
  5
EBF
  8
TITLE
 10
132.14647431213049
 20
38.689841925901881
 30
0.0
 11
133.3018675705552
 21
39.845235184330697
 31
0.0
  0
LINE
  5
EC0
  8
TITLE
 10
132.2337591847772
 20
38.689841925901881
 30
0.0
 11
133.38915244320191
 21
39.845235184330697
 31
0.0
  0
LINE
  5
EC1
  8
TITLE
 10
132.3210440574166
 20
38.689841925901881
 30
0.0
 11
133.4764373158487
 21
39.845235184330697
 31
0.0
  0
LINE
  5
EC2
  8
TITLE
 10
132.40832893006331
 20
38.689841925901881
 30
0.0
 11
133.56372218849631
 21
39.845235184330697
 31
0.0
  0
LINE
  5
EC3
  8
TITLE
 10
132.49561380271189
 20
38.689841925901881
 30
0.0
 11
133.6510070611366
 21
39.845235184330697
 31
0.0
  0
LINE
  5
EC4
  8
TITLE
 10
132.58289867535859
 20
38.689841925901881
 30
0.0
 11
133.7382919337833
 21
39.845235184330697
 31
0.0
  0
LINE
  5
EC5
  8
TITLE
 10
132.6701835480053
 20
38.689841925901881
 30
0.0
 11
133.82557680643089
 21
39.845235184330697
 31
0.0
  0
LINE
  5
EC6
  8
TITLE
 10
132.757468420652
 20
38.689841925901881
 30
0.0
 11
133.91286167907759
 21
39.845235184330697
 31
0.0
  0
LINE
  5
EC7
  8
TITLE
 10
133.82341464726051
 20
38.010090699581497
 30
0.0
 11
135.1387854337799
 21
39.325461486096629
 31
0.0
  0
LINE
  5
EC8
  8
TITLE
 10
133.82341464726051
 20
38.446515062813887
 30
0.0
 11
135.1387854337799
 21
39.76188584933243
 31
0.0
  0
LINE
  5
EC9
  8
TITLE
 10
133.82341464726051
 20
38.3592301901665
 30
0.0
 11
135.1387854337799
 21
39.674600976685269
 31
0.0
  0
LINE
  5
ECA
  8
TITLE
 10
133.82341464726051
 20
38.271945317519567
 30
0.0
 11
135.1387854337799
 21
39.587316104038109
 31
0.0
  0
LINE
  5
ECB
  8
TITLE
 10
133.82341464726051
 20
38.184660444872179
 30
0.0
 11
135.1387854337799
 21
39.500031231391397
 31
0.0
  0
LINE
  5
ECC
  8
TITLE
 10
133.82341464726051
 20
38.097375572224792
 30
0.0
 11
135.1387854337799
 21
39.412746358744023
 31
0.0
  0
LINE
  5
ECD
  8
TITLE
 10
132.84475329329959
 20
38.689841925901881
 30
0.0
 11
134.00014655172521
 21
39.845235184330697
 31
0.0
  0
LINE
  5
ECE
  8
TITLE
 10
132.9320381659472
 20
38.689841925901881
 30
0.0
 11
134.087431424372
 21
39.845235184330697
 31
0.0
  0
LINE
  5
ECF
  8
TITLE
 10
133.01932303859391
 20
38.689841925901881
 30
0.0
 11
134.17471629701959
 21
39.845235184330697
 31
0.0
  0
LINE
  5
ED0
  8
TITLE
 10
133.10660791124059
 20
38.689841925901881
 30
0.0
 11
134.2620011696672
 21
39.845235184330697
 31
0.0
  0
LINE
  5
ED1
  8
TITLE
 10
133.19389278388189
 20
38.689841925901881
 30
0.0
 11
134.34928604231391
 21
39.845235184330697
 31
0.0
  0
LINE
  5
ED2
  8
TITLE
 10
133.2811776565286
 20
38.689841925901881
 30
0.0
 11
134.43657091496061
 21
39.845235184330697
 31
0.0
  0
LINE
  5
ED3
  8
TITLE
 10
133.3684625291753
 20
38.689841925901881
 30
0.0
 11
134.5238557876082
 21
39.845235184330697
 31
0.0
  0
LINE
  5
ED4
  8
TITLE
 10
133.45574740182201
 20
38.689841925901881
 30
0.0
 11
134.6111406602476
 21
39.845235184330697
 31
0.0
  0
LINE
  5
ED5
  8
TITLE
 10
133.82341464726051
 20
38.533799935461047
 30
0.0
 11
135.13484989613059
 21
39.845235184330697
 31
0.0
  0
LINE
  5
ED6
  8
TITLE
 10
133.54303227447051
 20
38.689841925901881
 30
0.0
 11
134.6984255328953
 21
39.845235184330697
 31
0.0
  0
LINE
  5
ED7
  8
TITLE
 10
133.63031714711721
 20
38.689841925901881
 30
0.0
 11
134.78571040554189
 21
39.845235184330697
 31
0.0
  0
LINE
  5
ED8
  8
TITLE
 10
133.71760201976389
 20
38.689841925901881
 30
0.0
 11
134.87299527818959
 21
39.845235184330697
 31
0.0
  0
LINE
  5
ED9
  8
TITLE
 10
133.80488689241059
 20
38.689841925901881
 30
0.0
 11
134.9602801508363
 21
39.845235184330697
 31
0.0
  0
LINE
  5
EDA
  8
TITLE
 10
133.82341464726051
 20
38.621084808108208
 30
0.0
 11
135.04756502348391
 21
39.845235184330697
 31
0.0
  0
LINE
  5
EDB
  8
TITLE
 10
137.2456657119819
 20
36.893528386683101
 30
0.0
 11
139.6658927124881
 21
39.313755387196807
 31
0.0
  0
LINE
  5
EDC
  8
TITLE
 10
135.6009427371518
 20
36.99450286478077
 30
0.0
 11
136.49015255532319
 21
37.883712682960322
 31
0.0
  0
LINE
  5
EDD
  8
TITLE
 10
135.6009427371518
 20
36.907217992133837
 30
0.0
 11
136.5939931766024
 21
37.900268431588302
 31
0.0
  0
LINE
  5
EDE
  8
TITLE
 10
135.6009427371518
 20
36.819933119486912
 30
0.0
 11
136.7002008248237
 21
37.919191207166477
 31
0.0
  0
LINE
  5
EDF
  8
TITLE
 10
135.6009427371518
 20
36.732648246842928
 30
0.0
 11
136.8089712692263
 21
37.940676778921222
 31
0.0
  0
LINE
  5
EE0
  8
TITLE
 10
135.61900412636621
 20
36.663424763414241
 30
0.0
 11
136.92053195825611
 21
37.964952595300467
 31
0.0
  0
LINE
  5
EE1
  8
TITLE
 10
135.6009427371518
 20
37.169072610075091
 30
0.0
 11
136.28891381967969
 21
37.857043692603838
 31
0.0
  0
LINE
  5
EE2
  8
TITLE
 10
135.6009427371518
 20
37.081787737427931
 30
0.0
 11
136.3885090000158
 21
37.869354000292333
 31
0.0
  0
LINE
  5
EE3
  8
TITLE
 10
135.6009427371518
 20
37.518212100660087
 30
0.0
 11
135.9086073855342
 21
37.825876749046763
 31
0.0
  0
LINE
  5
EE4
  8
TITLE
 10
135.6009427371518
 20
37.430927228016571
 30
0.0
 11
136.0011809038096
 21
37.831165394675281
 31
0.0
  0
LINE
  5
EE5
  8
TITLE
 10
135.6009427371518
 20
37.343642355369411
 30
0.0
 11
136.09535955470341
 21
37.838059172922392
 31
0.0
  0
LINE
  5
EE6
  8
TITLE
 10
135.6009427371518
 20
37.256357482722251
 30
0.0
 11
136.19123603529621
 21
37.846650780866639
 31
0.0
  0
LINE
  5
EE7
  8
TITLE
 10
135.6009427371518
 20
37.692781845951231
 30
0.0
 11
135.7279500578388
 21
37.819789166644803
 31
0.0
  0
LINE
  5
EE8
  8
TITLE
 10
135.6009427371518
 20
37.605496973307261
 30
0.0
 11
135.81755557183351
 21
37.822109807993463
 31
0.0
  0
LINE
  5
EE9
  8
TITLE
 10
131.58783114675859
 20
34.290664364088123
 30
0.0
 11
132.76881084983501
 21
35.471644067164789
 31
0.0
  0
LINE
  5
EEA
  8
TITLE
 10
131.67511601940529
 20
34.290664364088123
 30
0.0
 11
132.9332571018239
 21
35.548805446506321
 31
0.0
  0
LINE
  5
EEB
  8
TITLE
 10
131.76240089205291
 20
34.290664364088123
 30
0.0
 11
133.19069160982869
 21
35.718955081863903
 31
0.0
  0
LINE
  5
EEC
  8
TITLE
 10
131.8496857647005
 20
34.290664364088123
 30
0.0
 11
135.1387854337799
 21
37.579764033167983
 31
0.0
  0
LINE
  5
EED
  8
TITLE
 10
131.9369706373472
 20
34.290664364088123
 30
0.0
 11
135.1387854337799
 21
37.492479160520823
 31
0.0
  0
LINE
  5
EEE
  8
TITLE
 10
132.02425550999391
 20
34.290664364088123
 30
0.0
 11
135.1387854337799
 21
37.40519428787411
 31
0.0
  0
LINE
  5
EEF
  8
TITLE
 10
135.6009427371518
 20
37.780066718598171
 30
0.0
 11
135.63972242446201
 21
37.81884640591602
 31
0.0
  0
LINE
  5
EF0
  8
TITLE
 10
133.82341464726051
 20
37.922805826934109
 30
0.0
 11
135.1387854337799
 21
39.23817661344993
 31
0.0
  0
LINE
  5
EF1
  8
TITLE
 10
133.82341464726051
 20
37.835520954290587
 30
0.0
 11
135.1387854337799
 21
39.150891740802763
 31
0.0
  0
LINE
  5
EF2
  8
TITLE
 10
133.82341464726051
 20
37.748236081643427
 30
0.0
 11
135.1387854337799
 21
39.063606868159241
 31
0.0
  0
LINE
  5
EF3
  8
TITLE
 10
133.9649085022256
 20
34.747474521331917
 30
0.0
 11
134.68197527653589
 21
35.46454129564291
 31
0.0
  0
LINE
  5
EF4
  8
TITLE
 10
132.11154038264161
 20
34.290664364088123
 30
0.0
 11
135.1387854337799
 21
37.317909415226502
 31
0.0
  0
LINE
  5
EF5
  8
TITLE
 10
132.19882525528189
 20
34.290664364088123
 30
0.0
 11
135.1387854337799
 21
37.230624542582973
 31
0.0
  0
LINE
  5
EF6
  8
TITLE
 10
132.28611012792859
 20
34.290664364088123
 30
0.0
 11
135.1387854337799
 21
37.143339669935813
 31
0.0
  0
LINE
  5
EF7
  8
TITLE
 10
132.3733950005753
 20
34.290664364088123
 30
0.0
 11
135.1387854337799
 21
37.056054797292518
 31
0.0
  0
LINE
  5
EF8
  8
TITLE
 10
132.46067987322289
 20
34.290664364088123
 30
0.0
 11
135.1387854337799
 21
36.96876992464513
 31
0.0
  0
LINE
  5
EF9
  8
TITLE
 10
132.54906446653149
 20
34.291764084749502
 30
0.0
 11
135.13768571311809
 21
36.880385331337038
 31
0.0
  0
LINE
  5
EFA
  8
TITLE
 10
132.6405512872152
 20
34.295966032789238
 30
0.0
 11
135.1334837650756
 21
36.788898510649688
 31
0.0
  0
LINE
  5
EFB
  8
TITLE
 10
132.73554203711231
 20
34.303671910036428
 30
0.0
 11
135.12577788783159
 21
36.693907760755792
 31
0.0
  0
LINE
  5
EFC
  8
TITLE
 10
132.83451018011959
 20
34.31535518039982
 30
0.0
 11
135.11409461746459
 21
36.594939617748203
 31
0.0
  0
LINE
  5
EFD
  8
TITLE
 10
132.93806686818061
 20
34.331626995810439
 30
0.0
 11
135.09782280205761
 21
36.491382929687013
 31
0.0
  0
LINE
  5
EFE
  8
TITLE
 10
133.04702469539001
 20
34.353299950380233
 30
0.0
 11
135.07614984748761
 21
36.382425102474137
 31
0.0
  0
LINE
  5
EFF
  8
TITLE
 10
133.16250562646931
 20
34.381496008807517
 30
0.0
 11
135.04795378905689
 21
36.26694417139948
 31
0.0
  0
LINE
  5
F00
  8
TITLE
 10
133.28613763006069
 20
34.417843139748129
 30
0.0
 11
135.01160665811949
 21
36.14331216780807
 31
0.0
  0
LINE
  5
F01
  8
TITLE
 10
133.4204500329497
 20
34.46487066999817
 30
0.0
 11
134.96457912786991
 21
36.008999764918372
 31
0.0
  0
LINE
  5
F02
  8
TITLE
 10
133.45254868230771
 20
35.980812154347412
 30
0.0
 11
135.1387854337799
 21
37.667048905815143
 31
0.0
  0
LINE
  5
F03
  8
TITLE
 10
133.7429555842746
 20
34.612806476028247
 30
0.0
 11
134.81664332183931
 21
35.686494213593278
 31
0.0
  0
LINE
  5
F04
  8
TITLE
 10
133.5697883764951
 20
34.526924140895737
 30
0.0
 11
134.90252565697301
 21
35.859661421373183
 31
0.0
  0
LINE
  5
F05
  8
TITLE
 10
133.82341464726051
 20
37.399096591054793
 30
0.0
 11
135.1387854337799
 21
38.714467377573783
 31
0.0
  0
LINE
  5
F06
  8
TITLE
 10
133.82341464726051
 20
37.31181171840808
 30
0.0
 11
135.1387854337799
 21
38.627182504926623
 31
0.0
  0
LINE
  5
F07
  8
TITLE
 10
133.82341464726051
 20
37.22452684576092
 30
0.0
 11
135.1387854337799
 21
38.539897632279917
 31
0.0
  0
LINE
  5
F08
  8
TITLE
 10
133.82171391762671
 20
36.960971498188201
 30
0.0
 11
135.1387854337799
 21
38.278043014338209
 31
0.0
  0
LINE
  5
F09
  8
TITLE
 10
133.81484334510969
 20
36.866816053027613
 30
0.0
 11
135.1387854337799
 21
38.190758141694459
 31
0.0
  0
LINE
  5
F0A
  8
TITLE
 10
133.80161933378349
 20
36.76630716904765
 30
0.0
 11
135.1387854337799
 21
38.103473269047747
 31
0.0
  0
LINE
  5
F0B
  8
TITLE
 10
133.82341464726051
 20
37.13724197311695
 30
0.0
 11
135.1387854337799
 21
38.45261275963253
 31
0.0
  0
LINE
  5
F0C
  8
TITLE
 10
133.82341464726051
 20
37.049957100469783
 30
0.0
 11
135.1387854337799
 21
38.365327886985142
 31
0.0
  0
LINE
  5
F0D
  8
TITLE
 10
133.78033264300029
 20
36.657735605624111
 30
0.0
 11
135.1387854337799
 21
38.016188396400139
 31
0.0
  0
LINE
  5
F0E
  8
TITLE
 10
133.74817320077909
 20
36.538291290752568
 30
0.0
 11
135.1387854337799
 21
37.928903523757072
 31
0.0
  0
LINE
  5
F0F
  8
TITLE
 10
133.69985969700789
 20
36.402692914337422
 30
0.0
 11
135.1387854337799
 21
37.841618651109457
 31
0.0
  0
LINE
  5
F10
  8
TITLE
 10
133.62269831766571
 20
36.23824666235214
 30
0.0
 11
135.1387854337799
 21
37.754333778462069
 31
0.0
  0
LINE
  5
F11
  8
TITLE
 10
133.82341464726051
 20
37.486381463701953
 30
0.0
 11
135.1387854337799
 21
38.80175225022095
 31
0.0
  0
LINE
  5
F12
  8
TITLE
 10
133.82341464726051
 20
37.660951208996487
 30
0.0
 11
135.1387854337799
 21
38.97632199551186
 31
0.0
  0
LINE
  5
F13
  8
TITLE
 10
133.82341464726051
 20
37.573666336349341
 30
0.0
 11
135.1387854337799
 21
38.889037122868103
 31
0.0
  0
LINE
  5
F14
  8
TITLE
 10
135.97909548263851
 20
36.674376629097878
 30
0.0
 11
137.40085015379191
 21
38.0961313002515
 31
0.0
  0
LINE
  5
F15
  8
TITLE
 10
136.07288564064129
 20
36.68088191446077
 30
0.0
 11
137.5316075596383
 21
38.139603833454203
 31
0.0
  0
LINE
  5
F16
  8
TITLE
 10
136.16835074212031
 20
36.689062143292631
 30
0.0
 11
137.66788887180061
 21
38.188600272965687
 31
0.0
  0
LINE
  5
F17
  8
TITLE
 10
135.706914494709
 20
36.664050259110361
 30
0.0
 11
137.0351497362044
 21
37.992285500604801
 31
0.0
  0
LINE
  5
F18
  8
TITLE
 10
135.7961874517286
 20
36.666038343485532
 30
0.0
 11
137.15314117007529
 21
38.022992061828973
 31
0.0
  0
LINE
  5
F19
  8
TITLE
 10
135.886889893708
 20
36.669455912818201
 30
0.0
 11
137.27488665635059
 21
38.057452675456943
 31
0.0
  0
LINE
  5
F1A
  8
TITLE
 10
138.17835846748949
 20
35.905953943966779
 30
0.0
 11
139.4937292540007
 21
37.221324730485783
 31
0.0
  0
LINE
  5
F1B
  8
TITLE
 10
138.17835846748949
 20
35.818669071319619
 30
0.0
 11
139.4937292540007
 21
37.134039857838388
 31
0.0
  0
LINE
  5
F1C
  8
TITLE
 10
138.17835846748949
 20
35.731384198672913
 30
0.0
 11
139.4937292540007
 21
37.046754985191463
 31
0.0
  0
LINE
  5
F1D
  8
TITLE
 10
138.17835846748949
 20
35.644099326025753
 30
0.0
 11
139.4937292540007
 21
36.959470112544302
 31
0.0
  0
LINE
  5
F1E
  8
TITLE
 10
138.17835846748949
 20
35.556814453381783
 30
0.0
 11
139.4937292540007
 21
36.872185239897128
 31
0.0
  0
LINE
  5
F1F
  8
TITLE
 10
138.17835846748949
 20
35.469529580734623
 30
0.0
 11
139.4937292540007
 21
36.784900367249982
 31
0.0
  0
LINE
  5
F20
  8
TITLE
 10
138.17835846748949
 20
35.382244708091093
 30
0.0
 11
139.4937292540007
 21
36.697615494602807
 31
0.0
  0
LINE
  5
F21
  8
TITLE
 10
138.17835846748949
 20
34.771250599560972
 30
0.0
 11
139.4937292540007
 21
36.086621386079969
 31
0.0
  0
LINE
  5
F22
  8
TITLE
 10
138.17835846748949
 20
34.68396572691745
 30
0.0
 11
139.4937292540007
 21
35.999336513432809
 31
0.0
  0
LINE
  5
F23
  8
TITLE
 10
138.17835846748949
 20
35.294959835443478
 30
0.0
 11
139.4937292540007
 21
36.610330621959072
 31
0.0
  0
LINE
  5
F24
  8
TITLE
 10
138.17835846748949
 20
35.207674962796773
 30
0.0
 11
139.4937292540007
 21
36.523045749312132
 31
0.0
  0
LINE
  5
F25
  8
TITLE
 10
138.17835846748949
 20
35.120390090149613
 30
0.0
 11
139.4937292540007
 21
36.435760876664972
 31
0.0
  0
LINE
  5
F26
  8
TITLE
 10
138.17835846748949
 20
35.033105217502218
 30
0.0
 11
139.4937292540007
 21
36.348476004021222
 31
0.0
  0
LINE
  5
F27
  8
TITLE
 10
138.17835846748949
 20
34.945820344855292
 30
0.0
 11
139.4937292540007
 21
36.261191131374289
 31
0.0
  0
LINE
  5
F28
  8
TITLE
 10
138.17835846748949
 20
34.858535472208132
 30
0.0
 11
139.4937292540007
 21
36.173906258726682
 31
0.0
  0
LINE
  5
F29
  8
TITLE
 10
138.17835846748949
 20
34.596680854269827
 30
0.0
 11
139.4937292540007
 21
35.912051640785648
 31
0.0
  0
LINE
  5
F2A
  8
TITLE
 10
138.17835846748949
 20
34.509395981623129
 30
0.0
 11
139.4937292540007
 21
35.824766768138488
 31
0.0
  0
LINE
  5
F2B
  8
TITLE
 10
138.17835846748949
 20
34.422111108979607
 30
0.0
 11
139.4937292540007
 21
35.737481895494973
 31
0.0
  0
LINE
  5
F2C
  8
TITLE
 10
138.17835846748949
 20
34.334826236332219
 30
0.0
 11
139.4937292540007
 21
35.650197022847813
 31
0.0
  0
LINE
  5
F2D
  8
TITLE
 10
138.22148146789181
 20
34.290664364088123
 30
0.0
 11
139.4937292540007
 21
35.562912150200653
 31
0.0
  0
LINE
  5
F2E
  8
TITLE
 10
138.5706209584805
 20
34.290664364088123
 30
0.0
 11
139.4937292540007
 21
35.213772659615643
 31
0.0
  0
LINE
  5
F2F
  8
TITLE
 10
138.6579058311199
 20
34.290664364088123
 30
0.0
 11
139.4937292540007
 21
35.126487786968482
 31
0.0
  0
LINE
  5
F30
  8
TITLE
 10
138.74519070376749
 20
34.290664364088123
 30
0.0
 11
139.4937292540007
 21
35.039202914321329
 31
0.0
  0
LINE
  5
F31
  8
TITLE
 10
138.83247557641511
 20
34.290664364088123
 30
0.0
 11
139.4937292540007
 21
34.951918041674162
 31
0.0
  0
LINE
  5
F32
  8
TITLE
 10
138.4833360858338
 20
34.290664364088123
 30
0.0
 11
139.4937292540007
 21
35.301057532262803
 31
0.0
  0
LINE
  5
F33
  8
TITLE
 10
138.30876634053951
 20
34.290664364088123
 30
0.0
 11
139.4937292540007
 21
35.47562727755713
 31
0.0
  0
LINE
  5
F34
  8
TITLE
 10
138.39605121318621
 20
34.290664364088123
 30
0.0
 11
139.4937292540007
 21
35.388342404909963
 31
0.0
  0
LINE
  5
F35
  8
TITLE
 10
138.91976044906181
 20
34.290664364088123
 30
0.0
 11
139.4937292540007
 21
34.864633169027002
 31
0.0
  0
LINE
  5
F36
  8
TITLE
 10
139.00704532170849
 20
34.290664364088123
 30
0.0
 11
139.4937292540007
 21
34.777348296383479
 31
0.0
  0
LINE
  5
F37
  8
TITLE
 10
139.09433019435619
 20
34.290664364088123
 30
0.0
 11
139.4937292540007
 21
34.690063423736319
 31
0.0
  0
LINE
  5
F38
  8
TITLE
 10
139.1816150670038
 20
34.290664364088123
 30
0.0
 11
139.4937292540007
 21
34.602778551089159
 31
0.0
  0
LINE
  5
F39
  8
TITLE
 10
139.26889993965051
 20
34.290664364088123
 30
0.0
 11
139.4937292540007
 21
34.515493678445871
 31
0.0
  0
LINE
  5
F3A
  8
TITLE
 10
139.35618481229719
 20
34.290664364088123
 30
0.0
 11
139.4937292540007
 21
34.428208805798931
 31
0.0
  0
LINE
  5
F3B
  8
TITLE
 10
139.4434696849448
 20
34.290664364088123
 30
0.0
 11
139.4937292540007
 21
34.340923933151323
 31
0.0
  0
LINE
  5
F3C
  8
TITLE
 10
138.17835846748949
 20
36.080523689261099
 30
0.0
 11
139.4937292540007
 21
37.395894475776458
 31
0.0
  0
LINE
  5
F3D
  8
TITLE
 10
138.17835846748949
 20
35.993238816613939
 30
0.0
 11
139.4937292540007
 21
37.308609603133171
 31
0.0
  0
LINE
  5
F3E
  8
TITLE
 10
138.17835846748949
 20
36.342378307199169
 30
0.0
 11
139.4937292540007
 21
37.657749093714528
 31
0.0
  0
LINE
  5
F3F
  8
TITLE
 10
138.17835846748949
 20
36.255093434555192
 30
0.0
 11
139.4937292540007
 21
37.570464221067141
 31
0.0
  0
LINE
  5
F40
  8
TITLE
 10
138.17835846748949
 20
36.167808561908259
 30
0.0
 11
139.4937292540007
 21
37.483179348423619
 31
0.0
  0
LINE
  5
F41
  8
TITLE
 10
138.17835846748949
 20
36.691517797783952
 30
0.0
 11
139.4937292540007
 21
38.006888584302942
 31
0.0
  0
LINE
  5
F42
  8
TITLE
 10
138.17835846748949
 20
36.604232925136792
 30
0.0
 11
139.4937292540007
 21
37.919603711655782
 31
0.0
  0
LINE
  5
F43
  8
TITLE
 10
138.17835846748949
 20
36.516948052493262
 30
0.0
 11
139.4937292540007
 21
37.832318839008849
 31
0.0
  0
LINE
  5
F44
  8
TITLE
 10
138.17835846748949
 20
36.42966317984633
 30
0.0
 11
139.4937292540007
 21
37.745033966361923
 31
0.0
  0
LINE
  5
F45
  8
TITLE
 10
136.26559155389441
 20
36.699018082412749
 30
0.0
 11
137.81064334461729
 21
38.244069873139097
 31
0.0
  0
LINE
  5
F46
  8
TITLE
 10
136.36472098974991
 20
36.710862645627913
 30
0.0
 11
137.96114514669441
 21
38.307286802568797
 31
0.0
  0
LINE
  5
F47
  8
TITLE
 10
137.0076885273065
 20
36.830120947301111
 30
0.0
 11
139.29926065819831
 21
39.121693078193857
 31
0.0
  0
LINE
  5
F48
  8
TITLE
 10
137.12484853071871
 20
36.859996078069798
 30
0.0
 11
139.4908127055169
 21
39.225960252872262
 31
0.0
  0
LINE
  5
F49
  8
TITLE
 10
136.67480150505611
 20
36.759088542992458
 30
0.0
 11
138.4835440896168
 21
38.567831127553291
 31
0.0
  0
LINE
  5
F4A
  8
TITLE
 10
136.46586626772481
 20
36.724723050955852
 30
0.0
 11
138.1211753907109
 21
38.3800321739418
 31
0.0
  0
LINE
  5
F4B
  8
TITLE
 10
136.5691715894263
 20
36.740743500007277
 30
0.0
 11
138.29336139830949
 21
38.464933308892803
 31
0.0
  0
LINE
  5
F4C
  8
TITLE
 10
136.78294519211161
 20
36.779947357401397
 30
0.0
 11
138.82879720034271
 21
38.825799365632072
 31
0.0
  0
LINE
  5
F4D
  8
TITLE
 10
136.8938219711826
 20
36.803539263828952
 30
0.0
 11
139.08383951003449
 21
38.993556802679912
 31
0.0
  0
LINE
  5
F4E
  8
TITLE
 10
139.9462940002559
 20
38.284883585264197
 30
0.0
 11
141.3601337483824
 21
39.698723333390262
 31
0.0
  0
LINE
  5
F4F
  8
TITLE
 10
140.09331629552699
 20
38.344621007887781
 30
0.0
 11
141.3601337483824
 21
39.611438460742882
 31
0.0
  0
LINE
  5
F50
  8
TITLE
 10
140.23350378221761
 20
38.397523621927121
 30
0.0
 11
141.3601337483824
 21
39.524153588095942
 31
0.0
  0
LINE
  5
F51
  8
TITLE
 10
139.79104971230299
 20
38.216924169958247
 30
0.0
 11
141.3601337483824
 21
39.786008206037422
 31
0.0
  0
LINE
  5
F52
  8
TITLE
 10
143.66203262479209
 20
38.421942431288251
 30
0.0
 11
145.09537844485561
 21
39.855288251358161
 31
0.0
  0
LINE
  5
F53
  8
TITLE
 10
143.66203262479209
 20
38.334657558645183
 30
0.0
 11
145.1826633175024
 21
39.855288251358161
 31
0.0
  0
LINE
  5
F54
  8
TITLE
 10
143.66203262479209
 20
38.247372685997561
 30
0.0
 11
145.26994819014911
 21
39.855288251358161
 31
0.0
  0
LINE
  5
F55
  8
TITLE
 10
143.66203262479209
 20
38.160087813350849
 30
0.0
 11
145.35723306279669
 21
39.855288251358161
 31
0.0
  0
LINE
  5
F56
  8
TITLE
 10
143.66203262479209
 20
38.072802940706879
 30
0.0
 11
145.44451793544431
 21
39.855288251358161
 31
0.0
  0
LINE
  5
F57
  8
TITLE
 10
143.66203262479209
 20
37.985518068059719
 30
0.0
 11
145.53180280809099
 21
39.855288251358161
 31
0.0
  0
LINE
  5
F58
  8
TITLE
 10
143.66203262479209
 20
37.898233195412793
 30
0.0
 11
145.61908768073769
 21
39.855288251358161
 31
0.0
  0
LINE
  5
F59
  8
TITLE
 10
143.66203262479209
 20
37.810948322765853
 30
0.0
 11
145.7063725533844
 21
39.855288251358161
 31
0.0
  0
LINE
  5
F5A
  8
TITLE
 10
143.66203262479209
 20
37.723663450118238
 30
0.0
 11
145.79365742603201
 21
39.855288251358161
 31
0.0
  0
LINE
  5
F5B
  8
TITLE
 10
143.3722638535728
 20
38.743167768598603
 30
0.0
 11
144.48438433633231
 21
39.855288251358161
 31
0.0
  0
LINE
  5
F5C
  8
TITLE
 10
143.45954872621951
 20
38.743167768598603
 30
0.0
 11
144.57166920897899
 21
39.855288251358161
 31
0.0
  0
LINE
  5
F5D
  8
TITLE
 10
143.54683359886619
 20
38.743167768598603
 30
0.0
 11
144.65895408162669
 21
39.855288251358161
 31
0.0
  0
LINE
  5
F5E
  8
TITLE
 10
143.6341184715138
 20
38.743167768598603
 30
0.0
 11
144.74623895427339
 21
39.855288251358161
 31
0.0
  0
LINE
  5
F5F
  8
TITLE
 10
143.66203262479209
 20
38.683797049229717
 30
0.0
 11
144.83352382692101
 21
39.855288251358161
 31
0.0
  0
LINE
  5
F60
  8
TITLE
 10
143.66203262479209
 20
38.596512176583019
 30
0.0
 11
144.92080869956769
 21
39.855288251358161
 31
0.0
  0
LINE
  5
F61
  8
TITLE
 10
143.66203262479209
 20
38.509227303935397
 30
0.0
 11
145.008093572208
 21
39.855288251358161
 31
0.0
  0
LINE
  5
F62
  8
TITLE
 10
143.66203262479209
 20
37.636378577471078
 30
0.0
 11
145.88094229867241
 21
39.855288251358161
 31
0.0
  0
LINE
  5
F63
  8
TITLE
 10
143.66203262479209
 20
37.549093704823918
 30
0.0
 11
145.96822717131911
 21
39.855288251358161
 31
0.0
  0
LINE
  5
F64
  8
TITLE
 10
142.7612697450495
 20
38.743167768598603
 30
0.0
 11
143.87339022780901
 21
39.855288251358161
 31
0.0
  0
LINE
  5
F65
  8
TITLE
 10
142.84855461768981
 20
38.743167768598603
 30
0.0
 11
143.96067510045671
 21
39.855288251358161
 31
0.0
  0
LINE
  5
F66
  8
TITLE
 10
142.9358394903374
 20
38.743167768598603
 30
0.0
 11
144.04795997309611
 21
39.855288251358161
 31
0.0
  0
LINE
  5
F67
  8
TITLE
 10
143.02312436298411
 20
38.743167768598603
 30
0.0
 11
144.1352448457437
 21
39.855288251358161
 31
0.0
  0
LINE
  5
F68
  8
TITLE
 10
143.11040923563081
 20
38.743167768598603
 30
0.0
 11
144.2225297183904
 21
39.855288251358161
 31
0.0
  0
LINE
  5
F69
  8
TITLE
 10
143.19769410827851
 20
38.743167768598603
 30
0.0
 11
144.30981459103711
 21
39.855288251358161
 31
0.0
  0
LINE
  5
F6A
  8
TITLE
 10
143.2849789809261
 20
38.743167768598603
 30
0.0
 11
144.39709946368561
 21
39.855288251358161
 31
0.0
  0
LINE
  5
F6B
  8
TITLE
 10
142.3248453818141
 20
38.743167768598603
 30
0.0
 11
143.43696586457369
 21
39.855288251358161
 31
0.0
  0
LINE
  5
F6C
  8
TITLE
 10
142.41213025446081
 20
38.743167768598603
 30
0.0
 11
143.5242507372204
 21
39.855288251358161
 31
0.0
  0
LINE
  5
F6D
  8
TITLE
 10
142.49941512710751
 20
38.743167768598603
 30
0.0
 11
143.61153560986801
 21
39.855288251358161
 31
0.0
  0
LINE
  5
F6E
  8
TITLE
 10
142.58669999975521
 20
38.743167768598603
 30
0.0
 11
143.69882048251469
 21
39.855288251358161
 31
0.0
  0
LINE
  5
F6F
  8
TITLE
 10
142.6739848724028
 20
38.743167768598603
 30
0.0
 11
143.78610535516231
 21
39.855288251358161
 31
0.0
  0
LINE
  5
F70
  8
TITLE
 10
142.23756050916651
 20
38.743167768598603
 30
0.0
 11
143.34968099192699
 21
39.855288251358161
 31
0.0
  0
LINE
  5
F71
  8
TITLE
 10
142.1502756365189
 20
38.743167768598603
 30
0.0
 11
143.2623961192794
 21
39.855288251358161
 31
0.0
  0
LINE
  5
F72
  8
TITLE
 10
140.3678826130581
 20
38.444617580124941
 30
0.0
 11
141.3601337483824
 21
39.43686871545242
 31
0.0
  0
LINE
  5
F73
  8
TITLE
 10
140.49723749477741
 20
38.48668758919689
 30
0.0
 11
141.3601337483824
 21
39.349583842805259
 31
0.0
  0
LINE
  5
F74
  8
TITLE
 10
141.8134034113063
 20
39.017289651907959
 30
0.0
 11
142.6514020107561
 21
39.855288251358161
 31
0.0
  0
LINE
  5
F75
  8
TITLE
 10
141.8134034113063
 20
38.93000477926126
 30
0.0
 11
142.73868688340369
 21
39.855288251358161
 31
0.0
  0
LINE
  5
F76
  8
TITLE
 10
141.8134034113063
 20
38.842719906613873
 30
0.0
 11
142.82597175605039
 21
39.855288251358161
 31
0.0
  0
LINE
  5
F77
  8
TITLE
 10
141.8134034113063
 20
38.755435033966698
 30
0.0
 11
142.91325662869801
 21
39.855288251358161
 31
0.0
  0
LINE
  5
F78
  8
TITLE
 10
141.8884210185779
 20
38.743167768598603
 30
0.0
 11
143.00054150134471
 21
39.855288251358161
 31
0.0
  0
LINE
  5
F79
  8
TITLE
 10
141.97570589122549
 20
38.743167768598603
 30
0.0
 11
143.0878263739923
 21
39.855288251358161
 31
0.0
  0
LINE
  5
F7A
  8
TITLE
 10
142.06299076387219
 20
38.743167768598603
 30
0.0
 11
143.17511124663179
 21
39.855288251358161
 31
0.0
  0
LINE
  5
F7B
  8
TITLE
 10
141.8134034113063
 20
39.104574524555119
 30
0.0
 11
142.56411713810849
 21
39.855288251358161
 31
0.0
  0
LINE
  5
F7C
  8
TITLE
 10
141.8134034113063
 20
39.279144269849887
 30
0.0
 11
142.3895473928151
 21
39.855288251358161
 31
0.0
  0
LINE
  5
F7D
  8
TITLE
 10
141.8134034113063
 20
39.191859397202741
 30
0.0
 11
142.4768322654617
 21
39.855288251358161
 31
0.0
  0
LINE
  5
F7E
  8
TITLE
 10
144.94339156120711
 20
38.743167768598603
 30
0.0
 11
146.0555120439667
 21
39.855288251358161
 31
0.0
  0
LINE
  5
F7F
  8
TITLE
 10
145.03067643385381
 20
38.743167768598603
 30
0.0
 11
146.14279691661429
 21
39.855288251358161
 31
0.0
  0
LINE
  5
F80
  8
TITLE
 10
145.1179613065014
 20
38.743167768598603
 30
0.0
 11
146.23008178926099
 21
39.855288251358161
 31
0.0
  0
LINE
  5
F81
  8
TITLE
 10
145.5543856697295
 20
38.743167768598603
 30
0.0
 11
146.66650615249631
 21
39.855288251358161
 31
0.0
  0
LINE
  5
F82
  8
TITLE
 10
145.6416705423762
 20
38.743167768598603
 30
0.0
 11
146.75379102514401
 21
39.855288251358161
 31
0.0
  0
LINE
  5
F83
  8
TITLE
 10
145.72895541502379
 20
38.743167768598603
 30
0.0
 11
146.7549315011947
 21
39.769143854765851
 31
0.0
  0
LINE
  5
F84
  8
TITLE
 10
145.81624028767141
 20
38.743167768598603
 30
0.0
 11
146.7549315011947
 21
39.681858982121867
 31
0.0
  0
LINE
  5
F85
  8
TITLE
 10
145.90352516031811
 20
38.743167768598603
 30
0.0
 11
146.7549315011947
 21
39.594574109474713
 31
0.0
  0
LINE
  5
F86
  8
TITLE
 10
145.9908100329649
 20
38.743167768598603
 30
0.0
 11
146.7549315011947
 21
39.507289236827553
 31
0.0
  0
LINE
  5
F87
  8
TITLE
 10
146.0780949056134
 20
38.743167768598603
 30
0.0
 11
146.7549315011947
 21
39.420004364180393
 31
0.0
  0
LINE
  5
F88
  8
TITLE
 10
146.1653797782601
 20
38.743167768598603
 30
0.0
 11
146.7549315011947
 21
39.332719491533219
 31
0.0
  0
LINE
  5
F89
  8
TITLE
 10
145.4671007970901
 20
38.743167768598603
 30
0.0
 11
146.57922127984961
 21
39.855288251358161
 31
0.0
  0
LINE
  5
F8A
  8
TITLE
 10
145.20524617914811
 20
38.743167768598603
 30
0.0
 11
146.3173666619077
 21
39.855288251358161
 31
0.0
  0
LINE
  5
F8B
  8
TITLE
 10
145.29253105179581
 20
38.743167768598603
 30
0.0
 11
146.40465153455531
 21
39.855288251358161
 31
0.0
  0
LINE
  5
F8C
  8
TITLE
 10
145.37981592444339
 20
38.743167768598603
 30
0.0
 11
146.49193640720199
 21
39.855288251358161
 31
0.0
  0
LINE
  5
F8D
  8
TITLE
 10
142.5857251002144
 20
34.290664364088123
 30
0.0
 11
144.906302287709
 21
36.611241551586318
 31
0.0
  0
LINE
  5
F8E
  8
TITLE
 10
142.67300997286111
 20
34.290664364088123
 30
0.0
 11
144.906302287709
 21
36.523956678939157
 31
0.0
  0
LINE
  5
F8F
  8
TITLE
 10
142.76029484550779
 20
34.290664364088123
 30
0.0
 11
144.906302287709
 21
36.436671806292452
 31
0.0
  0
LINE
  5
F90
  8
TITLE
 10
142.8475797181554
 20
34.290664364088123
 30
0.0
 11
144.906302287709
 21
36.34938693364893
 31
0.0
  0
LINE
  5
F91
  8
TITLE
 10
142.93486459080211
 20
34.290664364088123
 30
0.0
 11
144.906302287709
 21
36.262102061001322
 31
0.0
  0
LINE
  5
F92
  8
TITLE
 10
143.02214946344969
 20
34.290664364088123
 30
0.0
 11
144.906302287709
 21
36.1748171883537
 31
0.0
  0
LINE
  5
F93
  8
TITLE
 10
143.10943433609009
 20
34.290664364088123
 30
0.0
 11
144.906302287709
 21
36.087532315707001
 31
0.0
  0
LINE
  5
F94
  8
TITLE
 10
143.19671920873679
 20
34.290664364088123
 30
0.0
 11
144.906302287709
 21
36.000247443059827
 31
0.0
  0
LINE
  5
F95
  8
TITLE
 10
143.28400408138441
 20
34.290664364088123
 30
0.0
 11
144.906302287709
 21
35.912962570412681
 31
0.0
  0
LINE
  5
F96
  8
TITLE
 10
143.37128895403109
 20
34.290664364088123
 30
0.0
 11
144.906302287709
 21
35.825677697765506
 31
0.0
  0
LINE
  5
F97
  8
TITLE
 10
143.66203262479209
 20
35.97796599719004
 30
0.0
 11
144.906302287709
 21
37.222235660112801
 31
0.0
  0
LINE
  5
F98
  8
TITLE
 10
143.66203262479209
 20
35.890681124542418
 30
0.0
 11
144.906302287709
 21
37.134950787465641
 31
0.0
  0
LINE
  5
F99
  8
TITLE
 10
143.66203262479209
 20
35.803396251895272
 30
0.0
 11
144.906302287709
 21
37.047665914818481
 31
0.0
  0
LINE
  5
F9A
  8
TITLE
 10
143.66203262479209
 20
35.71611137924765
 30
0.0
 11
144.906302287709
 21
36.960381042171321
 31
0.0
  0
LINE
  5
F9B
  8
TITLE
 10
143.66203262479209
 20
35.628826506604128
 30
0.0
 11
144.906302287709
 21
36.873096169524608
 31
0.0
  0
LINE
  5
F9C
  8
TITLE
 10
143.66203262479209
 20
35.541541633957877
 30
0.0
 11
144.906302287709
 21
36.785811296877
 31
0.0
  0
LINE
  5
F9D
  8
TITLE
 10
143.66203262479209
 20
35.454256761310262
 30
0.0
 11
144.906302287709
 21
36.69852642422984
 31
0.0
  0
LINE
  5
F9E
  8
TITLE
 10
143.45857382667779
 20
34.290664364088123
 30
0.0
 11
144.906302287709
 21
35.73839282511836
 31
0.0
  0
LINE
  5
F9F
  8
TITLE
 10
143.54585869932541
 20
34.290664364088123
 30
0.0
 11
144.906302287709
 21
35.651107952474831
 31
0.0
  0
LINE
  5
FA0
  8
TITLE
 10
143.63314357197299
 20
34.290664364088123
 30
0.0
 11
144.906302287709
 21
35.563823079827671
 31
0.0
  0
LINE
  5
FA1
  8
TITLE
 10
143.7204284446197
 20
34.290664364088123
 30
0.0
 11
144.906302287709
 21
35.476538207184149
 31
0.0
  0
LINE
  5
FA2
  8
TITLE
 10
143.8077133172664
 20
34.290664364088123
 30
0.0
 11
144.93623919368559
 21
35.41919024050685
 31
0.0
  0
LINE
  5
FA3
  8
TITLE
 10
143.66203262479209
 20
36.152535742483913
 30
0.0
 11
144.906302287709
 21
37.396805405403938
 31
0.0
  0
LINE
  5
FA4
  8
TITLE
 10
143.66203262479209
 20
36.065250869836753
 30
0.0
 11
144.906302287709
 21
37.309520532756778
 31
0.0
  0
LINE
  5
FA5
  8
TITLE
 10
143.66203262479209
 20
36.414390360421748
 30
0.0
 11
144.906302287709
 21
37.658660023341547
 31
0.0
  0
LINE
  5
FA6
  8
TITLE
 10
143.66203262479209
 20
36.327105487774588
 30
0.0
 11
144.906302287709
 21
37.571375150694401
 31
0.0
  0
LINE
  5
FA7
  8
TITLE
 10
143.66203262479209
 20
36.239820615130611
 30
0.0
 11
144.906302287709
 21
37.484090278050871
 31
0.0
  0
LINE
  5
FA8
  8
TITLE
 10
143.66203262479209
 20
37.461808832177212
 30
0.0
 11
144.906302287709
 21
38.70607849509998
 31
0.0
  0
LINE
  5
FA9
  8
TITLE
 10
143.66203262479209
 20
37.37452395953369
 30
0.0
 11
144.906302287709
 21
38.618793622452813
 31
0.0
  0
LINE
  5
FAA
  8
TITLE
 10
143.66203262479209
 20
37.287239086886068
 30
0.0
 11
144.906302287709
 21
38.53150874980588
 31
0.0
  0
LINE
  5
FAB
  8
TITLE
 10
143.66203262479209
 20
37.199954214242553
 30
0.0
 11
144.906302287709
 21
38.444223877158947
 31
0.0
  0
LINE
  5
FAC
  8
TITLE
 10
143.66203262479209
 20
37.112669341595172
 30
0.0
 11
144.906302287709
 21
38.356939004515198
 31
0.0
  0
LINE
  5
FAD
  8
TITLE
 10
143.66203262479209
 20
37.025384468948232
 30
0.0
 11
144.906302287709
 21
38.26965413186781
 31
0.0
  0
LINE
  5
FAE
  8
TITLE
 10
143.66203262479209
 20
36.938099596301527
 30
0.0
 11
144.906302287709
 21
38.182369259224743
 31
0.0
  0
LINE
  5
FAF
  8
TITLE
 10
143.66203262479209
 20
36.850814723653912
 30
0.0
 11
144.906302287709
 21
38.095084386577128
 31
0.0
  0
LINE
  5
FB0
  8
TITLE
 10
143.66203262479209
 20
36.763529851006979
 30
0.0
 11
144.906302287709
 21
38.007799513930422
 31
0.0
  0
LINE
  5
FB1
  8
TITLE
 10
143.66203262479209
 20
36.676244978359591
 30
0.0
 11
144.906302287709
 21
37.920514641283262
 31
0.0
  0
LINE
  5
FB2
  8
TITLE
 10
143.66203262479209
 20
36.588960105712431
 30
0.0
 11
144.906302287709
 21
37.833229768635867
 31
0.0
  0
LINE
  5
FB3
  8
TITLE
 10
143.66203262479209
 20
36.501675233068909
 30
0.0
 11
144.906302287709
 21
37.745944895988941
 31
0.0
  0
LINE
  5
FB4
  8
TITLE
 10
140.62218465666231
 20
38.524349878442081
 30
0.0
 11
141.3601337483824
 21
39.262298970161282
 31
0.0
  0
LINE
  5
FB5
  8
TITLE
 10
140.7432186677197
 20
38.558099016847343
 30
0.0
 11
141.3601337483824
 21
39.175014097514577
 31
0.0
  0
LINE
  5
FB6
  8
TITLE
 10
140.8607437252285
 20
38.588339201709459
 30
0.0
 11
141.3601337483824
 21
39.087729224867417
 31
0.0
  0
LINE
  5
FB7
  8
TITLE
 10
141.30172761601531
 20
38.680183601908539
 30
0.0
 11
141.3601337483824
 21
38.738589734278321
 31
0.0
  0
LINE
  5
FB8
  8
TITLE
 10
141.1953641685613
 20
38.661105027101478
 30
0.0
 11
141.3601337483824
 21
38.825874606925709
 31
0.0
  0
LINE
  5
FB9
  8
TITLE
 10
140.9750952848899
 20
38.615405888720488
 30
0.0
 11
141.3601337483824
 21
39.000444352220264
 31
0.0
  0
LINE
  5
FBA
  8
TITLE
 10
141.08655544654539
 20
38.639581177735408
 30
0.0
 11
141.3601337483824
 21
38.913159479572869
 31
0.0
  0
LINE
  5
FBB
  8
TITLE
 10
142.32387048227241
 20
34.290664364088123
 30
0.0
 11
143.45239635869069
 21
35.41919024050685
 31
0.0
  0
LINE
  5
FBC
  8
TITLE
 10
142.41115535491909
 20
34.290664364088123
 30
0.0
 11
143.5396812313374
 21
35.41919024050685
 31
0.0
  0
LINE
  5
FBD
  8
TITLE
 10
142.49844022756679
 20
34.290664364088123
 30
0.0
 11
143.62696610398589
 21
35.41919024050685
 31
0.0
  0
LINE
  5
FBE
  8
TITLE
 10
142.23658560962571
 20
34.290664364088123
 30
0.0
 11
143.36511148605129
 21
35.41919024050685
 31
0.0
  0
LINE
  5
FBF
  8
TITLE
 10
142.1493007369854
 20
34.290664364088123
 30
0.0
 11
143.27782661340461
 21
35.41919024050685
 31
0.0
  0
LINE
  5
FC0
  8
TITLE
 10
141.3601337483824
 20
34.81077046518886
 30
0.0
 11
141.968553523704
 21
35.41919024050685
 31
0.0
  0
LINE
  5
FC1
  8
TITLE
 10
141.3601337483824
 20
34.72348559254533
 30
0.0
 11
142.05583839635071
 21
35.41919024050685
 31
0.0
  0
LINE
  5
FC2
  8
TITLE
 10
141.3601337483824
 20
34.898055337836013
 30
0.0
 11
141.8812686510573
 21
35.41919024050685
 31
0.0
  0
LINE
  5
FC3
  8
TITLE
 10
141.3601337483824
 20
35.159909955773863
 30
0.0
 11
141.61941403311539
 21
35.41919024050685
 31
0.0
  0
LINE
  5
FC4
  8
TITLE
 10
141.3601337483824
 20
35.072625083126923
 30
0.0
 11
141.7066989057621
 21
35.41919024050685
 31
0.0
  0
LINE
  5
FC5
  8
TITLE
 10
141.3601337483824
 20
34.985340210479762
 30
0.0
 11
141.79398377840971
 21
35.41919024050685
 31
0.0
  0
LINE
  5
FC6
  8
TITLE
 10
141.3601337483824
 20
35.334479701068183
 30
0.0
 11
141.44484428782829
 21
35.41919024050685
 31
0.0
  0
LINE
  5
FC7
  8
TITLE
 10
141.3601337483824
 20
35.24719482842125
 30
0.0
 11
141.53212916046871
 21
35.41919024050685
 31
0.0
  0
LINE
  5
FC8
  8
TITLE
 10
141.3601337483824
 20
34.63620071989817
 30
0.0
 11
142.14312326899829
 21
35.41919024050685
 31
0.0
  0
LINE
  5
FC9
  8
TITLE
 10
141.3601337483824
 20
34.54891584725101
 30
0.0
 11
142.23040814164591
 21
35.41919024050685
 31
0.0
  0
LINE
  5
FCA
  8
TITLE
 10
141.3601337483824
 20
34.46163097460385
 30
0.0
 11
142.31769301429259
 21
35.41919024050685
 31
0.0
  0
LINE
  5
FCB
  8
TITLE
 10
141.3601337483824
 20
34.374346101957137
 30
0.0
 11
142.4049778869321
 21
35.41919024050685
 31
0.0
  0
LINE
  5
FCC
  8
TITLE
 10
141.3637368831605
 20
34.290664364088123
 30
0.0
 11
142.49226275957969
 21
35.41919024050685
 31
0.0
  0
LINE
  5
FCD
  8
TITLE
 10
141.4510217558072
 20
34.290664364088123
 30
0.0
 11
142.5795476322273
 21
35.41919024050685
 31
0.0
  0
LINE
  5
FCE
  8
TITLE
 10
141.53830662845479
 20
34.290664364088123
 30
0.0
 11
142.66683250487401
 21
35.41919024050685
 31
0.0
  0
LINE
  5
FCF
  8
TITLE
 10
141.62559150110241
 20
34.290664364088123
 30
0.0
 11
142.75411737752071
 21
35.41919024050685
 31
0.0
  0
LINE
  5
FD0
  8
TITLE
 10
141.71287637374911
 20
34.290664364088123
 30
0.0
 11
142.8414022501683
 21
35.41919024050685
 31
0.0
  0
LINE
  5
FD1
  8
TITLE
 10
141.80016124639681
 20
34.290664364088123
 30
0.0
 11
142.92868712281501
 21
35.41919024050685
 31
0.0
  0
LINE
  5
FD2
  8
TITLE
 10
141.8874461190444
 20
34.290664364088123
 30
0.0
 11
143.01597199546271
 21
35.41919024050685
 31
0.0
  0
LINE
  5
FD3
  8
TITLE
 10
141.9747309916911
 20
34.290664364088123
 30
0.0
 11
143.10325686810941
 21
35.41919024050685
 31
0.0
  0
LINE
  5
FD4
  8
TITLE
 10
142.06201586433781
 20
34.290664364088123
 30
0.0
 11
143.190541740757
 21
35.41919024050685
 31
0.0
  0
LINE
  5
FD5
  8
TITLE
 10
143.98228306256169
 20
34.290664364088123
 30
0.0
 11
145.11080893898
 21
35.41919024050685
 31
0.0
  0
LINE
  5
FD6
  8
TITLE
 10
144.06956793520109
 20
34.290664364088123
 30
0.0
 11
145.1980938116194
 21
35.41919024050685
 31
0.0
  0
LINE
  5
FD7
  8
TITLE
 10
144.1568528078478
 20
34.290664364088123
 30
0.0
 11
145.28537868426699
 21
35.41919024050685
 31
0.0
  0
LINE
  5
FD8
  8
TITLE
 10
144.24413768049541
 20
34.290664364088123
 30
0.0
 11
145.3726635569146
 21
35.41919024050685
 31
0.0
  0
LINE
  5
FD9
  8
TITLE
 10
144.331422553143
 20
34.290664364088123
 30
0.0
 11
145.45994842956131
 21
35.41919024050685
 31
0.0
  0
LINE
  5
FDA
  8
TITLE
 10
143.89499818991311
 20
34.290664364088123
 30
0.0
 11
145.02352406633321
 21
35.41919024050685
 31
0.0
  0
LINE
  5
FDB
  8
TITLE
 10
146.25266465090681
 20
38.743167768598603
 30
0.0
 11
146.7549315011947
 21
39.245434618886293
 31
0.0
  0
LINE
  5
FDC
  8
TITLE
 10
146.33994952355351
 20
38.743167768598603
 30
0.0
 11
146.7549315011947
 21
39.15814974623936
 31
0.0
  0
LINE
  5
FDD
  8
TITLE
 10
146.4272343961938
 20
38.743167768598603
 30
0.0
 11
146.7549315011947
 21
39.0708648735922
 31
0.0
  0
LINE
  5
FDE
  8
TITLE
 10
146.68908901413579
 20
38.743167768598603
 30
0.0
 11
146.7549315011947
 21
38.809010255653902
 31
0.0
  0
LINE
  5
FDF
  8
TITLE
 10
146.51451926884141
 20
38.743167768598603
 30
0.0
 11
146.7549315011947
 21
38.983580000948223
 31
0.0
  0
LINE
  5
FE0
  8
TITLE
 10
146.6018041414882
 20
38.743167768598603
 30
0.0
 11
146.7549315011947
 21
38.896295128301063
 31
0.0
  0
LINE
  5
FE1
  8
TITLE
 10
147.64818746413221
 20
35.425307458913267
 30
0.0
 11
147.66171308219961
 21
35.438833076981609
 31
0.0
  0
LINE
  5
FE2
  8
TITLE
 10
146.25168975136509
 20
34.290664364088123
 30
0.0
 11
147.20820116411869
 21
35.247175776841232
 31
0.0
  0
LINE
  5
FE3
  8
TITLE
 10
146.33897462401271
 20
34.290664364088123
 30
0.0
 11
147.20820116411869
 21
35.159890904194071
 31
0.0
  0
LINE
  5
FE4
  8
TITLE
 10
146.42625949666029
 20
34.290664364088123
 30
0.0
 11
147.20820116411869
 21
35.072606031546911
 31
0.0
  0
LINE
  5
FE5
  8
TITLE
 10
146.513544369307
 20
34.290664364088123
 30
0.0
 11
147.20820116411869
 21
34.985321158899978
 31
0.0
  0
LINE
  5
FE6
  8
TITLE
 10
146.6008292419537
 20
34.290664364088123
 30
0.0
 11
147.20820116411869
 21
34.898036286252591
 31
0.0
  0
LINE
  5
FE7
  8
TITLE
 10
146.68811411460231
 20
34.290664364088123
 30
0.0
 11
147.20820116411869
 21
34.810751413605203
 31
0.0
  0
LINE
  5
FE8
  8
TITLE
 10
146.77539898724169
 20
34.290664364088123
 30
0.0
 11
147.20820116411869
 21
34.72346654095805
 31
0.0
  0
LINE
  5
FE9
  8
TITLE
 10
146.86268385988839
 20
34.290664364088123
 30
0.0
 11
147.20820116411869
 21
34.63618166831111
 31
0.0
  0
LINE
  5
FEA
  8
TITLE
 10
146.9499687325351
 20
34.290664364088123
 30
0.0
 11
147.20820116411869
 21
34.548896795667588
 31
0.0
  0
LINE
  5
FEB
  8
TITLE
 10
147.03725360518271
 20
34.290664364088123
 30
0.0
 11
147.20820116411869
 21
34.461611923020428
 31
0.0
  0
LINE
  5
FEC
  8
TITLE
 10
147.1245384778303
 20
34.290664364088123
 30
0.0
 11
147.20820116411869
 21
34.374327050373267
 31
0.0
  0
LINE
  5
FED
  8
TITLE
 10
144.41870742578971
 20
34.290664364088123
 30
0.0
 11
145.54723330220801
 21
35.41919024050685
 31
0.0
  0
LINE
  5
FEE
  8
TITLE
 10
144.5059922984365
 20
34.290664364088123
 30
0.0
 11
145.6345181748556
 21
35.41919024050685
 31
0.0
  0
LINE
  5
FEF
  8
TITLE
 10
144.59327717108411
 20
34.290664364088123
 30
0.0
 11
145.7218030475033
 21
35.41919024050685
 31
0.0
  0
LINE
  5
FF0
  8
TITLE
 10
144.6805620437317
 20
34.290664364088123
 30
0.0
 11
145.80908792014989
 21
35.41919024050685
 31
0.0
  0
LINE
  5
FF1
  8
TITLE
 10
144.7678469163784
 20
34.290664364088123
 30
0.0
 11
145.89637279279671
 21
35.41919024050685
 31
0.0
  0
LINE
  5
FF2
  8
TITLE
 10
144.85513178902511
 20
34.290664364088123
 30
0.0
 11
145.9836576654443
 21
35.41919024050685
 31
0.0
  0
LINE
  5
FF3
  8
TITLE
 10
144.94241666166451
 20
34.290664364088123
 30
0.0
 11
146.07094253808461
 21
35.41919024050685
 31
0.0
  0
LINE
  5
FF4
  8
TITLE
 10
145.02970153431301
 20
34.290664364088123
 30
0.0
 11
146.15822741073131
 21
35.41919024050685
 31
0.0
  0
LINE
  5
FF5
  8
TITLE
 10
145.55341077019509
 20
34.290664364088123
 30
0.0
 11
146.6819366466143
 21
35.41919024050685
 31
0.0
  0
LINE
  5
FF6
  8
TITLE
 10
145.6406956428427
 20
34.290664364088123
 30
0.0
 11
146.76922151926189
 21
35.41919024050685
 31
0.0
  0
LINE
  5
FF7
  8
TITLE
 10
145.72798051549029
 20
34.290664364088123
 30
0.0
 11
146.8565063919086
 21
35.41919024050685
 31
0.0
  0
LINE
  5
FF8
  8
TITLE
 10
145.81526538813699
 20
34.290664364088123
 30
0.0
 11
146.9437912645553
 21
35.41919024050685
 31
0.0
  0
LINE
  5
FF9
  8
TITLE
 10
145.90255026077639
 20
34.290664364088123
 30
0.0
 11
147.0310761371957
 21
35.41919024050685
 31
0.0
  0
LINE
  5
FFA
  8
TITLE
 10
145.98983513342409
 20
34.290664364088123
 30
0.0
 11
147.11836100984331
 21
35.41919024050685
 31
0.0
  0
LINE
  5
FFB
  8
TITLE
 10
146.07712000607171
 20
34.290664364088123
 30
0.0
 11
147.20564588248999
 21
35.41919024050685
 31
0.0
  0
LINE
  5
FFC
  8
TITLE
 10
146.16440487871839
 20
34.290664364088123
 30
0.0
 11
147.20820116411869
 21
35.334460649484761
 31
0.0
  0
LINE
  5
FFD
  8
TITLE
 10
145.1169864069598
 20
34.290664364088123
 30
0.0
 11
146.2455122833789
 21
35.41919024050685
 31
0.0
  0
LINE
  5
FFE
  8
TITLE
 10
145.20427127960639
 20
34.290664364088123
 30
0.0
 11
146.33279715602561
 21
35.41919024050685
 31
0.0
  0
LINE
  5
FFF
  8
TITLE
 10
145.29155615225409
 20
34.290664364088123
 30
0.0
 11
146.42008202867319
 21
35.41919024050685
 31
0.0
  0
LINE
  5
1000
  8
TITLE
 10
145.3788410249017
 20
34.290664364088123
 30
0.0
 11
146.5073669013199
 21
35.41919024050685
 31
0.0
  0
LINE
  5
1001
  8
TITLE
 10
145.46612589754841
 20
34.290664364088123
 30
0.0
 11
146.59465177396669
 21
35.41919024050685
 31
0.0
  0
LINE
  5
1002
  8
TITLE
 10
141.8134034113063
 20
39.628283760434897
 30
0.0
 11
142.04040790223371
 21
39.855288251358161
 31
0.0
  0
LINE
  5
1003
  8
TITLE
 10
141.8134034113063
 20
39.540998887787509
 30
0.0
 11
142.12769277488039
 21
39.855288251358161
 31
0.0
  0
LINE
  5
1004
  8
TITLE
 10
141.8134034113063
 20
39.802853505725579
 30
0.0
 11
141.86583815693839
 21
39.855288251358161
 31
0.0
  0
LINE
  5
1005
  8
TITLE
 10
141.8134034113063
 20
39.715568633078192
 30
0.0
 11
141.9531230295861
 21
39.855288251358161
 31
0.0
  0
LINE
  5
1006
  8
TITLE
 10
141.8134034113063
 20
39.453714015140797
 30
0.0
 11
142.2149776475207
 21
39.855288251358161
 31
0.0
  0
LINE
  5
1007
  8
TITLE
 10
141.8134034113063
 20
39.366429142496827
 30
0.0
 11
142.3022625201674
 21
39.855288251358161
 31
0.0
  0
LINE
  5
1008
  8
TITLE
 10
155.8782284782819
 20
39.029250222799867
 30
0.0
 11
156.70426650684021
 21
39.855288251358161
 31
0.0
  0
LINE
  5
1009
  8
TITLE
 10
155.96551335092951
 20
39.029250222799867
 30
0.0
 11
156.7915513794805
 21
39.855288251358161
 31
0.0
  0
LINE
  5
100A
  8
TITLE
 10
156.05279822357619
 20
39.029250222799867
 30
0.0
 11
156.87883625212811
 21
39.855288251358161
 31
0.0
  0
LINE
  5
100B
  8
TITLE
 10
156.14008309621661
 20
39.029250222799867
 30
0.0
 11
156.9661211247749
 21
39.855288251358161
 31
0.0
  0
LINE
  5
100C
  8
TITLE
 10
155.41660137924549
 20
34.290664364088123
 30
0.0
 11
157.25268124470219
 21
36.126744229544791
 31
0.0
  0
LINE
  5
100D
  8
TITLE
 10
155.5038862518922
 20
34.290664364088123
 30
0.0
 11
157.25268124470219
 21
36.039459356901723
 31
0.0
  0
LINE
  5
100E
  8
TITLE
 10
155.5911711245389
 20
34.290664364088123
 30
0.0
 11
157.25268124470219
 21
35.952174484254101
 31
0.0
  0
LINE
  5
100F
  8
TITLE
 10
155.67845599718649
 20
34.290664364088123
 30
0.0
 11
157.25268124470219
 21
35.864889611606941
 31
0.0
  0
LINE
  5
1010
  8
TITLE
 10
155.76574086983419
 20
34.290664364088123
 30
0.0
 11
157.25268124470219
 21
35.777604738963873
 31
0.0
  0
LINE
  5
1011
  8
TITLE
 10
155.8530257424809
 20
34.290664364088123
 30
0.0
 11
157.25268124470219
 21
35.690319866316493
 31
0.0
  0
LINE
  5
1012
  8
TITLE
 10
155.9403106151203
 20
34.290664364088123
 30
0.0
 11
157.25268124470219
 21
35.60303499366956
 31
0.0
  0
LINE
  5
1013
  8
TITLE
 10
156.02759548776791
 20
34.290664364088123
 30
0.0
 11
157.25268124470219
 21
35.515750121022172
 31
0.0
  0
LINE
  5
1014
  8
TITLE
 10
156.1148803604155
 20
34.290664364088123
 30
0.0
 11
157.25268124470219
 21
35.42846524837524
 31
0.0
  0
LINE
  5
1015
  8
TITLE
 10
155.35451924239891
 20
39.029250222799867
 30
0.0
 11
156.1805572709581
 21
39.855288251358161
 31
0.0
  0
LINE
  5
1016
  8
TITLE
 10
155.44180411504661
 20
39.029250222799867
 30
0.0
 11
156.26784214360481
 21
39.855288251358161
 31
0.0
  0
LINE
  5
1017
  8
TITLE
 10
155.52908898769331
 20
39.029250222799867
 30
0.0
 11
156.3551270162516
 21
39.855288251358161
 31
0.0
  0
LINE
  5
1018
  8
TITLE
 10
155.6163738603409
 20
39.029250222799867
 30
0.0
 11
156.4424118888991
 21
39.855288251358161
 31
0.0
  0
LINE
  5
1019
  8
TITLE
 10
155.70365873298761
 20
39.029250222799867
 30
0.0
 11
156.5296967615468
 21
39.855288251358161
 31
0.0
  0
LINE
  5
101A
  8
TITLE
 10
155.79094360563519
 20
39.029250222799867
 30
0.0
 11
156.61698163419351
 21
39.855288251358161
 31
0.0
  0
LINE
  5
101B
  8
TITLE
 10
155.32931650659791
 20
34.290664364088123
 30
0.0
 11
156.1817485699612
 21
35.143096427454793
 31
0.0
  0
LINE
  5
101C
  8
TITLE
 10
149.19455644270869
 20
38.979228508363349
 30
0.0
 11
150.07061618570691
 21
39.855288251358161
 31
0.0
  0
LINE
  5
101D
  8
TITLE
 10
149.1486781216299
 20
38.846065314641237
 30
0.0
 11
150.15790105835359
 21
39.855288251358161
 31
0.0
  0
LINE
  5
101E
  8
TITLE
 10
149.10279980055111
 20
38.712902120915707
 30
0.0
 11
150.24518593100129
 21
39.855288251358161
 31
0.0
  0
LINE
  5
101F
  8
TITLE
 10
149.05692147947951
 20
38.57973892718951
 30
0.0
 11
150.3324708036489
 21
39.855288251358161
 31
0.0
  0
LINE
  5
1020
  8
TITLE
 10
149.28631308486541
 20
39.245554895811438
 30
0.0
 11
149.89604644041259
 21
39.855288251358161
 31
0.0
  0
LINE
  5
1021
  8
TITLE
 10
149.2404347637875
 20
39.112391702089099
 30
0.0
 11
149.98333131306021
 21
39.855288251358161
 31
0.0
  0
LINE
  5
1022
  8
TITLE
 10
148.87340819516521
 20
38.047086152290149
 30
0.0
 11
150.68161029423021
 21
39.855288251358161
 31
0.0
  0
LINE
  5
1023
  8
TITLE
 10
148.82752987408639
 20
37.913922958567582
 30
0.0
 11
150.76616307709349
 21
39.852556161578377
 31
0.0
  0
LINE
  5
1024
  8
TITLE
 10
148.78165155300849
 20
37.78075976484206
 30
0.0
 11
150.72028475602201
 21
39.719392967852627
 31
0.0
  0
LINE
  5
1025
  8
TITLE
 10
149.01104315840161
 20
38.44657573346376
 30
0.0
 11
150.4197556762883
 21
39.855288251358161
 31
0.0
  0
LINE
  5
1026
  8
TITLE
 10
148.96516483732279
 20
38.313412539738238
 30
0.0
 11
150.50704054893501
 21
39.855288251358161
 31
0.0
  0
LINE
  5
1027
  8
TITLE
 10
148.919286516244
 20
38.180249346015898
 30
0.0
 11
150.5943254215826
 21
39.855288251358161
 31
0.0
  0
LINE
  5
1028
  8
TITLE
 10
148.7357732319287
 20
37.647596571116537
 30
0.0
 11
150.6744064349441
 21
39.586229774130061
 31
0.0
  0
LINE
  5
1029
  8
TITLE
 10
148.6898949108508
 20
37.514433377390112
 30
0.0
 11
150.62852811386529
 21
39.453066580404773
 31
0.0
  0
LINE
  5
102A
  8
TITLE
 10
148.6440165897711
 20
37.381270183665038
 30
0.0
 11
150.5826497927865
 21
39.319903386678789
 31
0.0
  0
LINE
  5
102B
  8
TITLE
 10
154.48167051593549
 20
39.029250222799867
 30
0.0
 11
155.3077085444929
 21
39.855288251358161
 31
0.0
  0
LINE
  5
102C
  8
TITLE
 10
154.5689553885822
 20
39.029250222799867
 30
0.0
 11
155.39499341714051
 21
39.855288251358161
 31
0.0
  0
LINE
  5
102D
  8
TITLE
 10
154.6562402612289
 20
39.029250222799867
 30
0.0
 11
155.4822782897881
 21
39.855288251358161
 31
0.0
  0
LINE
  5
102E
  8
TITLE
 10
154.74352513387561
 20
39.029250222799867
 30
0.0
 11
155.5695631624348
 21
39.855288251358161
 31
0.0
  0
LINE
  5
102F
  8
TITLE
 10
154.83081000652331
 20
39.029250222799867
 30
0.0
 11
155.65684803508151
 21
39.855288251358161
 31
0.0
  0
LINE
  5
1030
  8
TITLE
 10
154.91809487917089
 20
39.029250222799867
 30
0.0
 11
155.7441329077283
 21
39.855288251358161
 31
0.0
  0
LINE
  5
1031
  8
TITLE
 10
155.0053797518176
 20
39.029250222799867
 30
0.0
 11
155.83141778037589
 21
39.855288251358161
 31
0.0
  0
LINE
  5
1032
  8
TITLE
 10
155.09266462446431
 20
39.029250222799867
 30
0.0
 11
155.9187026530162
 21
39.855288251358161
 31
0.0
  0
LINE
  5
1033
  8
TITLE
 10
155.1799494971055
 20
39.029250222799867
 30
0.0
 11
156.0059875256629
 21
39.855288251358161
 31
0.0
  0
LINE
  5
1034
  8
TITLE
 10
155.2672343697522
 20
39.029250222799867
 30
0.0
 11
156.09327239831049
 21
39.855288251358161
 31
0.0
  0
LINE
  5
1035
  8
TITLE
 10
154.20383223845781
 20
39.187836308551141
 30
0.0
 11
154.8712841812648
 21
39.855288251358161
 31
0.0
  0
LINE
  5
1036
  8
TITLE
 10
154.20383223845781
 20
39.100551435903981
 30
0.0
 11
154.95856905390431
 21
39.855288251358161
 31
0.0
  0
LINE
  5
1037
  8
TITLE
 10
154.21981589800089
 20
39.029250222799867
 30
0.0
 11
155.0458539265519
 21
39.855288251358161
 31
0.0
  0
LINE
  5
1038
  8
TITLE
 10
154.30710077064029
 20
39.029250222799867
 30
0.0
 11
155.1331387991986
 21
39.855288251358161
 31
0.0
  0
LINE
  5
1039
  8
TITLE
 10
154.3943856432879
 20
39.029250222799867
 30
0.0
 11
155.22042367184619
 21
39.855288251358161
 31
0.0
  0
LINE
  5
103A
  8
TITLE
 10
154.20383223845781
 20
39.275121181198301
 30
0.0
 11
154.78399930861809
 21
39.855288251358161
 31
0.0
  0
LINE
  5
103B
  8
TITLE
 10
150.9650728742763
 20
34.290664364088123
 30
0.0
 11
153.04983958939741
 21
36.375431079212831
 31
0.0
  0
LINE
  5
103C
  8
TITLE
 10
151.05235774692301
 20
34.290664364088123
 30
0.0
 11
153.0660203328834
 21
36.3043269500522
 31
0.0
  0
LINE
  5
103D
  8
TITLE
 10
151.13964261956971
 20
34.290664364088123
 30
0.0
 11
153.0822010763695
 21
36.233222820891569
 31
0.0
  0
LINE
  5
103E
  8
TITLE
 10
151.2269274922173
 20
34.290664364088123
 30
0.0
 11
153.09838181985651
 21
36.162118691730939
 31
0.0
  0
LINE
  5
103F
  8
TITLE
 10
151.31421236486489
 20
34.290664364088123
 30
0.0
 11
153.1145625633435
 21
36.091014562569633
 31
0.0
  0
LINE
  5
1040
  8
TITLE
 10
151.4014972375044
 20
34.290664364088123
 30
0.0
 11
153.13074330682861
 21
36.01991043340945
 31
0.0
  0
LINE
  5
1041
  8
TITLE
 10
151.9984492768244
 20
35.585895384574769
 30
0.0
 11
153.00129735894549
 21
36.588743466695178
 31
0.0
  0
LINE
  5
1042
  8
TITLE
 10
152.0146300203032
 20
35.514791255413911
 30
0.0
 11
153.0174781024252
 21
36.517639337534099
 31
0.0
  0
LINE
  5
1043
  8
TITLE
 10
152.03081076379021
 20
35.443687126252833
 30
0.0
 11
153.0336588459104
 21
36.446535208373923
 31
0.0
  0
LINE
  5
1044
  8
TITLE
 10
151.91754555939221
 20
35.94141603037815
 30
0.0
 11
152.9203936415133
 21
36.94426411249902
 31
0.0
  0
LINE
  5
1045
  8
TITLE
 10
151.93372630287919
 20
35.870311901217519
 30
0.0
 11
152.9365743849994
 21
36.873159983338148
 31
0.0
  0
LINE
  5
1046
  8
TITLE
 10
151.9499070463653
 20
35.799207772056889
 30
0.0
 11
152.95275512848639
 21
36.802055854177517
 31
0.0
  0
LINE
  5
1047
  8
TITLE
 10
151.96608778985129
 20
35.728103642896258
 30
0.0
 11
152.9689358719734
 21
36.730951725016887
 31
0.0
  0
LINE
  5
1048
  8
TITLE
 10
151.9822685333383
 20
35.656999513735173
 30
0.0
 11
152.98511661545851
 21
36.659847595856263
 31
0.0
  0
LINE
  5
1049
  8
TITLE
 10
151.48878211015199
 20
34.290664364088123
 30
0.0
 11
153.14692405031559
 21
35.948806304244727
 31
0.0
  0
LINE
  5
104A
  8
TITLE
 10
151.5760669827996
 20
34.290664364088123
 30
0.0
 11
153.1631047937953
 21
35.877702175083868
 31
0.0
  0
LINE
  5
104B
  8
TITLE
 10
151.66335185544631
 20
34.290664364088123
 30
0.0
 11
153.17928553728049
 21
35.806598045923238
 31
0.0
  0
LINE
  5
104C
  8
TITLE
 10
151.75063672809301
 20
34.290664364088123
 30
0.0
 11
153.1954662807675
 21
35.735493916762152
 31
0.0
  0
LINE
  5
104D
  8
TITLE
 10
151.8379216007406
 20
34.290664364088123
 30
0.0
 11
153.21164702425449
 21
35.664389787601984
 31
0.0
  0
LINE
  5
104E
  8
TITLE
 10
151.92520647338819
 20
34.290664364088123
 30
0.0
 11
153.22782776774059
 21
35.593285658440891
 31
0.0
  0
LINE
  5
104F
  8
TITLE
 10
152.01249134603489
 20
34.290664364088123
 30
0.0
 11
153.24400851122661
 21
35.52218152928026
 31
0.0
  0
LINE
  5
1050
  8
TITLE
 10
151.72337663756301
 20
36.794665580311182
 30
0.0
 11
152.64541922737769
 21
37.716708170125692
 31
0.0
  0
LINE
  5
1051
  8
TITLE
 10
151.73955738104991
 20
36.723561451150552
 30
0.0
 11
152.73270410002439
 21
37.716708170125692
 31
0.0
  0
LINE
  5
1052
  8
TITLE
 10
151.7557381245351
 20
36.652457321989459
 30
0.0
 11
152.7585862066571
 21
37.65530540411055
 31
0.0
  0
LINE
  5
1053
  8
TITLE
 10
151.77191886802211
 20
36.581353192829063
 30
0.0
 11
152.7747669501432
 21
37.584201274949471
 31
0.0
  0
LINE
  5
1054
  8
TITLE
 10
151.7880996115091
 20
36.51024906366775
 30
0.0
 11
152.79094769362931
 21
37.513097145788841
 31
0.0
  0
LINE
  5
1055
  8
TITLE
 10
151.8042803549952
 20
36.439144934507112
 30
0.0
 11
152.80712843711621
 21
37.441993016627748
 31
0.0
  0
LINE
  5
1056
  8
TITLE
 10
151.82046109848119
 20
36.368040805346944
 30
0.0
 11
152.82330918060231
 21
37.370888887467352
 31
0.0
  0
LINE
  5
1057
  8
TITLE
 10
151.8366418419682
 20
36.296936676185851
 30
0.0
 11
152.83948992408841
 21
37.299784758306487
 31
0.0
  0
LINE
  5
1058
  8
TITLE
 10
151.85282258545431
 20
36.225832547025
 30
0.0
 11
152.8556706675754
 21
37.228680629145863
 31
0.0
  0
LINE
  5
1059
  8
TITLE
 10
151.8690033289331
 20
36.154728417864128
 30
0.0
 11
152.87185141105419
 21
37.157576499984771
 31
0.0
  0
LINE
  5
105A
  8
TITLE
 10
151.88518407242009
 20
36.083624288703497
 30
0.0
 11
152.88803215454021
 21
37.086472370820957
 31
0.0
  0
LINE
  5
105B
  8
TITLE
 10
151.90136481590611
 20
36.012520159542653
 30
0.0
 11
152.9042128980272
 21
37.015368241659871
 31
0.0
  0
LINE
  5
105C
  8
TITLE
 10
151.67483440711109
 20
37.007977967793522
 30
0.0
 11
152.383564609443
 21
37.716708170125692
 31
0.0
  0
LINE
  5
105D
  8
TITLE
 10
151.6910151505981
 20
36.936873838632437
 30
0.0
 11
152.47084948208339
 21
37.716708170125692
 31
0.0
  0
LINE
  5
105E
  8
TITLE
 10
151.7071958940833
 20
36.865769709471813
 30
0.0
 11
152.55813435473101
 21
37.716708170125692
 31
0.0
  0
LINE
  5
105F
  8
TITLE
 10
151.62629217665199
 20
37.221290355275869
 30
0.0
 11
152.121709991502
 21
37.716708170125692
 31
0.0
  0
LINE
  5
1060
  8
TITLE
 10
151.642472920138
 20
37.150186226114783
 30
0.0
 11
152.20899486414959
 21
37.716708170125692
 31
0.0
  0
LINE
  5
1061
  8
TITLE
 10
151.65865366362411
 20
37.079082096953698
 30
0.0
 11
152.29627973679629
 21
37.716708170125692
 31
0.0
  0
LINE
  5
1062
  8
TITLE
 10
148.25924182223571
 20
34.290664364088123
 30
0.0
 11
149.3690350844536
 21
35.400457626305752
 31
0.0
  0
LINE
  5
1063
  8
TITLE
 10
148.34652669488241
 20
34.290664364088123
 30
0.0
 11
149.456319957093
 21
35.400457626305752
 31
0.0
  0
LINE
  5
1064
  8
TITLE
 10
148.43381156753
 20
34.290664364088123
 30
0.0
 11
149.5436048297415
 21
35.400457626305752
 31
0.0
  0
LINE
  5
1065
  8
TITLE
 10
147.9973872042938
 20
34.290664364088123
 30
0.0
 11
149.29805680259139
 21
35.591333962385313
 31
0.0
  0
LINE
  5
1066
  8
TITLE
 10
148.08467207694139
 20
34.290664364088123
 30
0.0
 11
149.2521784815126
 21
35.458170768659777
 31
0.0
  0
LINE
  5
1067
  8
TITLE
 10
148.171956949589
 20
34.290664364088123
 30
0.0
 11
149.28175021180681
 21
35.400457626305752
 31
0.0
  0
LINE
  5
1068
  8
TITLE
 10
148.41462498437889
 20
36.715454215042882
 30
0.0
 11
150.35325818739329
 21
38.654087418056861
 31
0.0
  0
LINE
  5
1069
  8
TITLE
 10
148.36874666329999
 20
36.582291021316912
 30
0.0
 11
150.30737986631451
 21
38.520924224331573
 31
0.0
  0
LINE
  5
106A
  8
TITLE
 10
148.08360621260999
 20
35.860726207394691
 30
0.0
 11
150.0779882609213
 21
37.855108255709638
 31
0.0
  0
LINE
  5
106B
  8
TITLE
 10
148.27699002114241
 20
36.315964633869037
 30
0.0
 11
150.2156232241577
 21
38.254597836879839
 31
0.0
  0
LINE
  5
106C
  8
TITLE
 10
148.2311117000645
 20
36.182801440146712
 30
0.0
 11
150.169744903078
 21
38.1214346431575
 31
0.0
  0
LINE
  5
106D
  8
TITLE
 10
148.32286834222211
 20
36.449127827591383
 30
0.0
 11
150.2615015452356
 21
38.387761030605361
 31
0.0
  0
LINE
  5
106E
  8
TITLE
 10
148.1852333789929
 20
36.049638246420727
 30
0.0
 11
150.12386658200009
 21
37.988271449431977
 31
0.0
  0
LINE
  5
106F
  8
TITLE
 10
148.46050330545771
 20
36.848617408768639
 30
0.0
 11
150.3991365084712
 21
38.787250611783293
 31
0.0
  0
LINE
  5
1070
  8
TITLE
 10
150.354078765753
 20
34.290664364088123
 30
0.0
 11
151.46387202796359
 21
35.400457626305752
 31
0.0
  0
LINE
  5
1071
  8
TITLE
 10
150.4413636383924
 20
34.290664364088123
 30
0.0
 11
151.5511569006112
 21
35.400457626305752
 31
0.0
  0
LINE
  5
1072
  8
TITLE
 10
150.52864851103999
 20
34.290664364088123
 30
0.0
 11
151.63844177325791
 21
35.400457626305752
 31
0.0
  0
LINE
  5
1073
  8
TITLE
 10
150.6159333836876
 20
34.290664364088123
 30
0.0
 11
151.7257266459055
 21
35.400457626305752
 31
0.0
  0
LINE
  5
1074
  8
TITLE
 10
150.70321825633431
 20
34.290664364088123
 30
0.0
 11
151.8130115185522
 21
35.400457626305752
 31
0.0
  0
LINE
  5
1075
  8
TITLE
 10
150.79050312898099
 20
34.290664364088123
 30
0.0
 11
151.90029639119891
 21
35.400457626305752
 31
0.0
  0
LINE
  5
1076
  8
TITLE
 10
150.8777880016296
 20
34.290664364088123
 30
0.0
 11
151.98758126384649
 21
35.400457626305752
 31
0.0
  0
LINE
  5
1077
  8
TITLE
 10
151.56156920271309
 20
37.505706871918854
 30
0.0
 11
151.77257050091339
 21
37.716708170125692
 31
0.0
  0
LINE
  5
1078
  8
TITLE
 10
151.5777499461928
 20
37.434602742758223
 30
0.0
 11
151.859855373561
 21
37.716708170125692
 31
0.0
  0
LINE
  5
1079
  8
TITLE
 10
151.59393068967981
 20
37.36349861359713
 30
0.0
 11
151.94714024620771
 21
37.716708170125692
 31
0.0
  0
LINE
  5
107A
  8
TITLE
 10
151.610111433165
 20
37.2923944844365
 30
0.0
 11
152.03442511885439
 21
37.716708170125692
 31
0.0
  0
LINE
  5
107B
  8
TITLE
 10
151.52920771574099
 20
37.647915130240563
 30
0.0
 11
151.59800075561901
 21
37.716708170125692
 31
0.0
  0
LINE
  5
107C
  8
TITLE
 10
151.54538845922701
 20
37.576811001079477
 30
0.0
 11
151.6852856282658
 21
37.716708170125692
 31
0.0
  0
LINE
  5
107D
  8
TITLE
 10
148.52109644017759
 20
34.290664364088123
 30
0.0
 11
149.6308897023882
 21
35.400457626305752
 31
0.0
  0
LINE
  5
107E
  8
TITLE
 10
148.6083813128171
 20
34.290664364088123
 30
0.0
 11
149.71817457503491
 21
35.400457626305752
 31
0.0
  0
LINE
  5
107F
  8
TITLE
 10
148.6956661854646
 20
34.290664364088123
 30
0.0
 11
149.80545944768161
 21
35.400457626305752
 31
0.0
  0
LINE
  5
1080
  8
TITLE
 10
148.7829510581123
 20
34.290664364088123
 30
0.0
 11
149.8927443203292
 21
35.400457626305752
 31
0.0
  0
LINE
  5
1081
  8
TITLE
 10
148.87023593075901
 20
34.290664364088123
 30
0.0
 11
149.9800291929769
 21
35.400457626305752
 31
0.0
  0
LINE
  5
1082
  8
TITLE
 10
148.95752080340571
 20
34.290664364088123
 30
0.0
 11
150.06731406562361
 21
35.400457626305752
 31
0.0
  0
LINE
  5
1083
  8
TITLE
 10
149.0448056760533
 20
34.290664364088123
 30
0.0
 11
150.15459893827031
 21
35.400457626305752
 31
0.0
  0
LINE
  5
1084
  8
TITLE
 10
149.13209054870001
 20
34.290664364088123
 30
0.0
 11
150.24188381091881
 21
35.400457626305752
 31
0.0
  0
LINE
  5
1085
  8
TITLE
 10
149.21937542134759
 20
34.290664364088123
 30
0.0
 11
150.32916868355821
 21
35.400457626305752
 31
0.0
  0
LINE
  5
1086
  8
TITLE
 10
149.3066602939943
 20
34.290664364088123
 30
0.0
 11
150.41645355620491
 21
35.400457626305752
 31
0.0
  0
LINE
  5
1087
  8
TITLE
 10
150.17950902045959
 20
34.290664364088123
 30
0.0
 11
151.2893022826693
 21
35.400457626305752
 31
0.0
  0
LINE
  5
1088
  8
TITLE
 10
150.2667938931063
 20
34.290664364088123
 30
0.0
 11
151.3765871553168
 21
35.400457626305752
 31
0.0
  0
LINE
  5
1089
  8
TITLE
 10
149.393945166641
 20
34.290664364088123
 30
0.0
 11
150.50373842885159
 21
35.400457626305752
 31
0.0
  0
LINE
  5
108A
  8
TITLE
 10
149.4812300392887
 20
34.290664364088123
 30
0.0
 11
150.5910233015002
 21
35.400457626305752
 31
0.0
  0
LINE
  5
108B
  8
TITLE
 10
149.56851491192899
 20
34.290664364088123
 30
0.0
 11
150.67830817414691
 21
35.400457626305752
 31
0.0
  0
LINE
  5
108C
  8
TITLE
 10
149.65579978457569
 20
34.290664364088123
 30
0.0
 11
150.76559304679361
 21
35.400457626305752
 31
0.0
  0
LINE
  5
108D
  8
TITLE
 10
149.7430846572224
 20
34.290664364088123
 30
0.0
 11
150.8528779194412
 21
35.400457626305752
 31
0.0
  0
LINE
  5
108E
  8
TITLE
 10
149.83036952987001
 20
34.290664364088123
 30
0.0
 11
150.9401627920879
 21
35.400457626305752
 31
0.0
  0
LINE
  5
108F
  8
TITLE
 10
149.9176544025176
 20
34.290664364088123
 30
0.0
 11
151.02744766473549
 21
35.400457626305752
 31
0.0
  0
LINE
  5
1090
  8
TITLE
 10
150.0049392751643
 20
34.290664364088123
 30
0.0
 11
151.1147325373822
 21
35.400457626305752
 31
0.0
  0
LINE
  5
1091
  8
TITLE
 10
150.09222414781101
 20
34.290664364088123
 30
0.0
 11
151.2020174100216
 21
35.400457626305752
 31
0.0
  0
LINE
  5
1092
  8
TITLE
 10
148.59813826869319
 20
37.248106989942698
 30
0.0
 11
150.5367714717076
 21
39.186740192953039
 31
0.0
  0
LINE
  5
1093
  8
TITLE
 10
148.55225994761531
 20
37.114943796219912
 30
0.0
 11
150.49089315062881
 21
39.053576999227062
 31
0.0
  0
LINE
  5
1094
  8
TITLE
 10
148.5063816265355
 20
36.981780602494382
 30
0.0
 11
150.44501482954999
 21
38.920413805505177
 31
0.0
  0
LINE
  5
1095
  8
TITLE
 10
152.0997762186816
 20
34.290664364088123
 30
0.0
 11
153.26018925471359
 21
35.451077400119402
 31
0.0
  0
LINE
  5
1096
  8
TITLE
 10
152.18706109132921
 20
34.290664364088123
 30
0.0
 11
153.2763699981997
 21
35.379973270958999
 31
0.0
  0
LINE
  5
1097
  8
TITLE
 10
152.27434596396961
 20
34.290664364088123
 30
0.0
 11
153.2925507416785
 21
35.308869141797921
 31
0.0
  0
LINE
  5
1098
  8
TITLE
 10
152.36163083661631
 20
34.290664364088123
 30
0.0
 11
153.30873148516551
 21
35.237765012637283
 31
0.0
  0
LINE
  5
1099
  8
TITLE
 10
152.44891570926299
 20
34.290664364088123
 30
0.0
 11
153.3249122286515
 21
35.166660883476652
 31
0.0
  0
LINE
  5
109A
  8
TITLE
 10
152.53620058191061
 20
34.290664364088123
 30
0.0
 11
153.3410929721376
 21
35.095556754315567
 31
0.0
  0
LINE
  5
109B
  8
TITLE
 10
154.45646778013361
 20
34.290664364088123
 30
0.0
 11
155.30889984349591
 21
35.143096427454793
 31
0.0
  0
LINE
  5
109C
  8
TITLE
 10
154.54375265278031
 20
34.290664364088123
 30
0.0
 11
155.39618471614361
 21
35.143096427454793
 31
0.0
  0
LINE
  5
109D
  8
TITLE
 10
154.6310375254279
 20
34.290664364088123
 30
0.0
 11
155.48346958879119
 21
35.143096427454793
 31
0.0
  0
LINE
  5
109E
  8
TITLE
 10
154.71832239807549
 20
34.290664364088123
 30
0.0
 11
155.5707544614379
 21
35.143096427454793
 31
0.0
  0
LINE
  5
109F
  8
TITLE
 10
154.80560727072219
 20
34.290664364088123
 30
0.0
 11
155.65803933408461
 21
35.143096427454793
 31
0.0
  0
LINE
  5
10A0
  8
TITLE
 10
154.8928921433689
 20
34.290664364088123
 30
0.0
 11
155.74532420673219
 21
35.143096427454793
 31
0.0
  0
LINE
  5
10A1
  8
TITLE
 10
154.98017701600841
 20
34.290664364088123
 30
0.0
 11
155.83260907937981
 21
35.143096427454793
 31
0.0
  0
LINE
  5
10A2
  8
TITLE
 10
155.06746188865691
 20
34.290664364088123
 30
0.0
 11
155.91989395202651
 21
35.143096427454793
 31
0.0
  0
LINE
  5
10A3
  8
TITLE
 10
155.15474676130361
 20
34.290664364088123
 30
0.0
 11
156.00717882467319
 21
35.143096427454793
 31
0.0
  0
LINE
  5
10A4
  8
TITLE
 10
155.24203163395029
 20
34.290664364088123
 30
0.0
 11
156.0944636973208
 21
35.143096427454793
 31
0.0
  0
LINE
  5
10A5
  8
TITLE
 10
154.0260794294681
 20
34.820409612534597
 30
0.0
 11
154.3487662443849
 21
35.143096427454793
 31
0.0
  0
LINE
  5
10A6
  8
TITLE
 10
154.0260794294681
 20
34.733124739887451
 30
0.0
 11
154.43605111703161
 21
35.143096427454793
 31
0.0
  0
LINE
  5
10A7
  8
TITLE
 10
154.0260794294681
 20
34.907694485181771
 30
0.0
 11
154.26148137173729
 21
35.143096427454793
 31
0.0
  0
LINE
  5
10A8
  8
TITLE
 10
152.62348545455819
 20
34.290664364088123
 30
0.0
 11
153.35727371562459
 21
35.024452625154943
 31
0.0
  0
LINE
  5
10A9
  8
TITLE
 10
152.7107703272049
 20
34.290664364088123
 30
0.0
 11
153.3734544591116
 21
34.953348495994078
 31
0.0
  0
LINE
  5
10AA
  8
TITLE
 10
152.7980551998516
 20
34.290664364088123
 30
0.0
 11
153.38963520259671
 21
34.88224436683322
 31
0.0
  0
LINE
  5
10AB
  8
TITLE
 10
152.88534007249919
 20
34.290664364088123
 30
0.0
 11
153.40581594608369
 21
34.811140237672817
 31
0.0
  0
LINE
  5
10AC
  8
TITLE
 10
152.97262494514689
 20
34.290664364088123
 30
0.0
 11
153.4219966895698
 21
34.740036108511958
 31
0.0
  0
LINE
  5
10AD
  8
TITLE
 10
153.0599098177936
 20
34.290664364088123
 30
0.0
 11
153.4381774330495
 21
34.66893197935088
 31
0.0
  0
LINE
  5
10AE
  8
TITLE
 10
153.147194690433
 20
34.290664364088123
 30
0.0
 11
153.45435817653561
 21
34.597827850190249
 31
0.0
  0
LINE
  5
10AF
  8
TITLE
 10
153.23447956308061
 20
34.290664364088123
 30
0.0
 11
153.47053892002259
 21
34.526723721029612
 31
0.0
  0
LINE
  5
10B0
  8
TITLE
 10
153.3217644357282
 20
34.290664364088123
 30
0.0
 11
153.48671966350861
 21
34.455619591868981
 31
0.0
  0
LINE
  5
10B1
  8
TITLE
 10
153.4090493083749
 20
34.290664364088123
 30
0.0
 11
153.50290040699471
 21
34.384515462708123
 31
0.0
  0
LINE
  5
10B2
  8
TITLE
 10
153.49633418102161
 20
34.290664364088123
 30
0.0
 11
153.51908115048079
 21
34.313411333547272
 31
0.0
  0
LINE
  5
10B3
  8
TITLE
 10
154.0260794294681
 20
35.082264230472902
 30
0.0
 11
154.08691162645121
 21
35.143096427454793
 31
0.0
  0
LINE
  5
10B4
  8
TITLE
 10
154.0260794294681
 20
34.994979357828932
 30
0.0
 11
154.17419649909789
 21
35.143096427454793
 31
0.0
  0
LINE
  5
10B5
  8
TITLE
 10
154.10732828954491
 20
34.290664364088123
 30
0.0
 11
154.9597603529146
 21
35.143096427454793
 31
0.0
  0
LINE
  5
10B6
  8
TITLE
 10
154.1946131621917
 20
34.290664364088123
 30
0.0
 11
155.04704522556219
 21
35.143096427454793
 31
0.0
  0
LINE
  5
10B7
  8
TITLE
 10
154.28189803483841
 20
34.290664364088123
 30
0.0
 11
155.1343300982098
 21
35.143096427454793
 31
0.0
  0
LINE
  5
10B8
  8
TITLE
 10
154.3691829074869
 20
34.290664364088123
 30
0.0
 11
155.2216149708492
 21
35.143096427454793
 31
0.0
  0
LINE
  5
10B9
  8
TITLE
 10
154.0260794294681
 20
34.296700376655281
 30
0.0
 11
154.87247548026789
 21
35.143096427454793
 31
0.0
  0
LINE
  5
10BA
  8
TITLE
 10
154.0260794294681
 20
34.645839867240277
 30
0.0
 11
154.5233359896792
 21
35.143096427454793
 31
0.0
  0
LINE
  5
10BB
  8
TITLE
 10
154.0260794294681
 20
34.558554994593131
 30
0.0
 11
154.6106208623259
 21
35.143096427454793
 31
0.0
  0
LINE
  5
10BC
  8
TITLE
 10
154.0260794294681
 20
34.471270121945963
 30
0.0
 11
154.69790573497349
 21
35.143096427454793
 31
0.0
  0
LINE
  5
10BD
  8
TITLE
 10
154.0260794294681
 20
34.383985249299258
 30
0.0
 11
154.78519060762119
 21
35.143096427454793
 31
0.0
  0
LINE
  5
10BE
  8
TITLE
 10
149.33219140594429
 20
39.378718089537188
 30
0.0
 11
149.808761567765
 21
39.855288251358161
 31
0.0
  0
LINE
  5
10BF
  8
TITLE
 10
149.42394804810189
 20
39.645044476988907
 30
0.0
 11
149.63419182247159
 21
39.855288251358161
 31
0.0
  0
LINE
  5
10C0
  8
TITLE
 10
149.3780697270231
 20
39.511881283263172
 30
0.0
 11
149.7214766951183
 21
39.855288251358161
 31
0.0
  0
LINE
  5
10C1
  8
TITLE
 10
149.46982636918071
 20
39.778207670714437
 30
0.0
 11
149.54690694982401
 21
39.855288251358161
 31
0.0
  0
LINE
  5
10C2
  8
TITLE
 10
154.20383223845781
 20
39.624260671786942
 30
0.0
 11
154.4348598180286
 21
39.855288251358161
 31
0.0
  0
LINE
  5
10C3
  8
TITLE
 10
154.20383223845781
 20
39.798830417077632
 30
0.0
 11
154.26029007273419
 21
39.855288251358161
 31
0.0
  0
LINE
  5
10C4
  8
TITLE
 10
154.20383223845781
 20
39.711545544430692
 30
0.0
 11
154.34757494538189
 21
39.855288251358161
 31
0.0
  0
LINE
  5
10C5
  8
TITLE
 10
154.20383223845781
 20
39.536975799139782
 30
0.0
 11
154.52214469067621
 21
39.855288251358161
 31
0.0
  0
LINE
  5
10C6
  8
TITLE
 10
154.20383223845781
 20
39.449690926492622
 30
0.0
 11
154.60942956332289
 21
39.855288251358161
 31
0.0
  0
LINE
  5
10C7
  8
TITLE
 10
154.20383223845781
 20
39.362406053845461
 30
0.0
 11
154.6967144359696
 21
39.855288251358161
 31
0.0
  0
LINE
  5
10C8
  8
TITLE
 10
156.2572655143631
 20
38.971862895652521
 30
0.0
 11
157.14069087006919
 21
39.855288251358161
 31
0.0
  0
LINE
  5
10C9
  8
TITLE
 10
156.2572655143631
 20
38.884578023008999
 30
0.0
 11
157.22797574271681
 21
39.855288251358161
 31
0.0
  0
LINE
  5
10CA
  8
TITLE
 10
156.2572655143631
 20
38.797293150361838
 30
0.0
 11
157.31526061536351
 21
39.855288251358161
 31
0.0
  0
LINE
  5
10CB
  8
TITLE
 10
156.2572655143631
 20
38.273583914482522
 30
0.0
 11
157.8389698512392
 21
39.855288251358161
 31
0.0
  0
LINE
  5
10CC
  8
TITLE
 10
156.2572655143631
 20
38.186299041835362
 30
0.0
 11
157.92625472388681
 21
39.855288251358161
 31
0.0
  0
LINE
  5
10CD
  8
TITLE
 10
156.2572655143631
 20
38.099014169188187
 30
0.0
 11
158.01353959653349
 21
39.855288251358161
 31
0.0
  0
LINE
  5
10CE
  8
TITLE
 10
156.2572655143631
 20
38.448153659776608
 30
0.0
 11
157.6644001059521
 21
39.855288251358161
 31
0.0
  0
LINE
  5
10CF
  8
TITLE
 10
156.2572655143631
 20
38.360868787129448
 30
0.0
 11
157.7516849785915
 21
39.855288251358161
 31
0.0
  0
LINE
  5
10D0
  8
TITLE
 10
156.2572655143631
 20
38.710008277715133
 30
0.0
 11
157.40254548801019
 21
39.855288251358161
 31
0.0
  0
LINE
  5
10D1
  8
TITLE
 10
156.2572655143631
 20
38.622723405071163
 30
0.0
 11
157.48983036065781
 21
39.855288251358161
 31
0.0
  0
LINE
  5
10D2
  8
TITLE
 10
156.2572655143631
 20
38.53543853242423
 30
0.0
 11
157.57711523330539
 21
39.855288251358161
 31
0.0
  0
LINE
  5
10D3
  8
TITLE
 10
156.22736796886329
 20
39.029250222799867
 30
0.0
 11
157.05340599742161
 21
39.855288251358161
 31
0.0
  0
LINE
  5
10D4
  8
TITLE
 10
160.15036155797861
 20
38.762569924883337
 30
0.0
 11
161.23812704838741
 21
39.850335415292882
 31
0.0
  0
LINE
  5
10D5
  8
TITLE
 10
160.23764643062529
 20
38.762569924883337
 30
0.0
 11
161.2660825583207
 21
39.79100605257554
 31
0.0
  0
LINE
  5
10D6
  8
TITLE
 10
160.324931303272
 20
38.762569924883337
 30
0.0
 11
161.29403806824661
 21
39.731676689861843
 31
0.0
  0
LINE
  5
10D7
  8
TITLE
 10
160.4122161759187
 20
38.762569924883337
 30
0.0
 11
161.3219935781799
 21
39.672347327144507
 31
0.0
  0
LINE
  5
10D8
  8
TITLE
 10
160.49950104856629
 20
38.762569924883337
 30
0.0
 11
161.3499490881068
 21
39.613017964426952
 31
0.0
  0
LINE
  5
10D9
  8
TITLE
 10
160.5867859212066
 20
38.762569924883337
 30
0.0
 11
161.37790459804091
 21
39.553688601713468
 31
0.0
  0
LINE
  5
10DA
  8
TITLE
 10
160.67407079385339
 20
38.762569924883337
 30
0.0
 11
161.40586010797409
 21
39.494359239000012
 31
0.0
  0
LINE
  5
10DB
  8
TITLE
 10
160.761355666501
 20
38.762569924883337
 30
0.0
 11
161.43381561790011
 21
39.435029876278797
 31
0.0
  0
LINE
  5
10DC
  8
TITLE
 10
160.73022861085241
 20
37.771309270119673
 30
0.0
 11
162.48600672380229
 21
39.527087383069563
 31
0.0
  0
LINE
  5
10DD
  8
TITLE
 10
160.0148037945464
 20
38.976151652037522
 30
0.0
 11
160.45336725117431
 21
39.414715108664723
 31
0.0
  0
LINE
  5
10DE
  8
TITLE
 10
160.0148037945464
 20
38.888866779390128
 30
0.0
 11
160.54065212382099
 21
39.414715108664723
 31
0.0
  0
LINE
  5
10DF
  8
TITLE
 10
160.0148037945464
 20
38.80158190674274
 30
0.0
 11
160.62793699646861
 21
39.414715108664723
 31
0.0
  0
LINE
  5
10E0
  8
TITLE
 10
160.06307668533009
 20
38.762569924883337
 30
0.0
 11
160.71522186911531
 21
39.414715108664723
 31
0.0
  0
LINE
  5
10E1
  8
TITLE
 10
158.58405953032249
 20
39.029250222799867
 30
0.0
 11
159.3061145206147
 21
39.751305213092571
 31
0.0
  0
LINE
  5
10E2
  8
TITLE
 10
158.67134440297011
 20
39.029250222799867
 30
0.0
 11
159.3061145206147
 21
39.664020340445177
 31
0.0
  0
LINE
  5
10E3
  8
TITLE
 10
158.75862927561681
 20
39.029250222799867
 30
0.0
 11
159.3061145206147
 21
39.576735467801662
 31
0.0
  0
LINE
  5
10E4
  8
TITLE
 10
158.8459141482563
 20
39.029250222799867
 30
0.0
 11
159.3061145206147
 21
39.489450595154267
 31
0.0
  0
LINE
  5
10E5
  8
TITLE
 10
158.9331990209038
 20
39.029250222799867
 30
0.0
 11
159.3061145206147
 21
39.402165722507107
 31
0.0
  0
LINE
  5
10E6
  8
TITLE
 10
159.0204838935515
 20
39.029250222799867
 30
0.0
 11
159.3061145206147
 21
39.314880849863592
 31
0.0
  0
LINE
  5
10E7
  8
TITLE
 10
160.0148037945464
 20
39.063436524684221
 30
0.0
 11
160.3660823785267
 21
39.414715108664723
 31
0.0
  0
LINE
  5
10E8
  8
TITLE
 10
160.0148037945464
 20
39.238006269974903
 30
0.0
 11
160.19151263323329
 21
39.414715108664723
 31
0.0
  0
LINE
  5
10E9
  8
TITLE
 10
160.0148037945464
 20
39.150721397331381
 30
0.0
 11
160.27879750587999
 21
39.414715108664723
 31
0.0
  0
LINE
  5
10EA
  8
TITLE
 10
157.27478644062279
 20
39.029250222799867
 30
0.0
 11
158.1008244691802
 21
39.855288251358161
 31
0.0
  0
LINE
  5
10EB
  8
TITLE
 10
157.3620713132695
 20
39.029250222799867
 30
0.0
 11
158.18810934182781
 21
39.855288251358161
 31
0.0
  0
LINE
  5
10EC
  8
TITLE
 10
157.4493561859162
 20
39.029250222799867
 30
0.0
 11
158.2753942144754
 21
39.855288251358161
 31
0.0
  0
LINE
  5
10ED
  8
TITLE
 10
157.5366410585639
 20
39.029250222799867
 30
0.0
 11
158.3626790871221
 21
39.855288251358161
 31
0.0
  0
LINE
  5
10EE
  8
TITLE
 10
157.62392593121149
 20
39.029250222799867
 30
0.0
 11
158.44996395976881
 21
39.855288251358161
 31
0.0
  0
LINE
  5
10EF
  8
TITLE
 10
157.71121080385819
 20
39.029250222799867
 30
0.0
 11
158.53724883241651
 21
39.855288251358161
 31
0.0
  0
LINE
  5
10F0
  8
TITLE
 10
158.4094897850282
 20
39.029250222799867
 30
0.0
 11
159.23552781358649
 21
39.855288251358161
 31
0.0
  0
LINE
  5
10F1
  8
TITLE
 10
158.49677465767491
 20
39.029250222799867
 30
0.0
 11
159.3061145206147
 21
39.838590085739717
 31
0.0
  0
LINE
  5
10F2
  8
TITLE
 10
157.7984956765049
 20
39.029250222799867
 30
0.0
 11
158.62453370505679
 21
39.855288251358161
 31
0.0
  0
LINE
  5
10F3
  8
TITLE
 10
157.88578054914609
 20
39.029250222799867
 30
0.0
 11
158.7118185777035
 21
39.855288251358161
 31
0.0
  0
LINE
  5
10F4
  8
TITLE
 10
157.97306542179189
 20
39.029250222799867
 30
0.0
 11
158.7991034503502
 21
39.855288251358161
 31
0.0
  0
LINE
  5
10F5
  8
TITLE
 10
158.0603502944395
 20
39.029250222799867
 30
0.0
 11
158.88638832299779
 21
39.855288251358161
 31
0.0
  0
LINE
  5
10F6
  8
TITLE
 10
158.14763516708621
 20
39.029250222799867
 30
0.0
 11
158.9736731956454
 21
39.855288251358161
 31
0.0
  0
LINE
  5
10F7
  8
TITLE
 10
158.23492003973379
 20
39.029250222799867
 30
0.0
 11
159.06095806829211
 21
39.855288251358161
 31
0.0
  0
LINE
  5
10F8
  8
TITLE
 10
158.32220491238149
 20
39.029250222799867
 30
0.0
 11
159.14824294093879
 21
39.855288251358161
 31
0.0
  0
LINE
  5
10F9
  8
TITLE
 10
162.68162286472401
 20
38.762569924883337
 30
0.0
 11
163.77434119120241
 21
39.855288251358161
 31
0.0
  0
LINE
  5
10FA
  8
TITLE
 10
162.76890773737071
 20
38.762569924883337
 30
0.0
 11
163.86162606385
 21
39.855288251358161
 31
0.0
  0
LINE
  5
10FB
  8
TITLE
 10
162.8561926100173
 20
38.762569924883337
 30
0.0
 11
163.8775382128442
 21
39.783915527705631
 31
0.0
  0
LINE
  5
10FC
  8
TITLE
 10
162.943477482665
 20
38.762569924883337
 30
0.0
 11
163.8775382128442
 21
39.69663065505847
 31
0.0
  0
LINE
  5
10FD
  8
TITLE
 10
163.03076235531259
 20
38.762569924883337
 30
0.0
 11
163.8775382128442
 21
39.60934578241131
 31
0.0
  0
LINE
  5
10FE
  8
TITLE
 10
163.11804722795929
 20
38.762569924883337
 30
0.0
 11
163.8775382128442
 21
39.522060909763702
 31
0.0
  0
LINE
  5
10FF
  8
TITLE
 10
163.20533210060691
 20
38.762569924883337
 30
0.0
 11
163.8775382128442
 21
39.434776037120628
 31
0.0
  0
LINE
  5
1100
  8
TITLE
 10
163.29261697324731
 20
38.762569924883337
 30
0.0
 11
163.94476215703159
 21
39.414715108664723
 31
0.0
  0
LINE
  5
1101
  8
TITLE
 10
163.37990184589401
 20
38.762569924883337
 30
0.0
 11
164.03204702967921
 21
39.414715108664723
 31
0.0
  0
LINE
  5
1102
  8
TITLE
 10
163.46718671854069
 20
38.762569924883337
 30
0.0
 11
164.11933190232591
 21
39.414715108664723
 31
0.0
  0
LINE
  5
1103
  8
TITLE
 10
163.55447159118739
 20
38.762569924883337
 30
0.0
 11
164.20661677497259
 21
39.414715108664723
 31
0.0
  0
LINE
  5
1104
  8
TITLE
 10
160.84864053914771
 20
38.762569924883337
 30
0.0
 11
161.5007857229329
 21
39.414715108664723
 31
0.0
  0
LINE
  5
1105
  8
TITLE
 10
160.9359254117953
 20
38.762569924883337
 30
0.0
 11
161.5880705955806
 21
39.414715108664723
 31
0.0
  0
LINE
  5
1106
  8
TITLE
 10
161.023210284442
 20
38.762569924883337
 30
0.0
 11
161.67535546822731
 21
39.414715108664723
 31
0.0
  0
LINE
  5
1107
  8
TITLE
 10
161.11049515708871
 20
38.762569924883337
 30
0.0
 11
161.76264034086671
 21
39.414715108664723
 31
0.0
  0
LINE
  5
1108
  8
TITLE
 10
161.17767471993639
 20
38.742464615086881
 30
0.0
 11
162.29049835620751
 21
39.855288251358161
 31
0.0
  0
LINE
  5
1109
  8
TITLE
 10
161.983343883554
 20
38.762569924883337
 30
0.0
 11
162.63548906733189
 21
39.414715108664723
 31
0.0
  0
LINE
  5
110A
  8
TITLE
 10
160.8175134834928
 20
37.771309270119673
 30
0.0
 11
162.48600672380229
 21
39.439802510422851
 31
0.0
  0
LINE
  5
110B
  8
TITLE
 10
160.90479835613951
 20
37.771309270119673
 30
0.0
 11
162.54820419469161
 21
39.414715108664723
 31
0.0
  0
LINE
  5
110C
  8
TITLE
 10
161.23592678136629
 20
38.451577185927363
 30
0.0
 11
162.48600672380229
 21
39.701657128360686
 31
0.0
  0
LINE
  5
110D
  8
TITLE
 10
161.2504897967228
 20
38.378855328637201
 30
0.0
 11
162.48600672380229
 21
39.614372255717171
 31
0.0
  0
LINE
  5
110E
  8
TITLE
 10
161.1922377352939
 20
38.669742757797387
 30
0.0
 11
162.37778322885509
 21
39.855288251358161
 31
0.0
  0
LINE
  5
110F
  8
TITLE
 10
161.20680075065141
 20
38.597020900507232
 30
0.0
 11
162.46506810150271
 21
39.855288251358161
 31
0.0
  0
LINE
  5
1110
  8
TITLE
 10
161.22136376600881
 20
38.524299043217518
 30
0.0
 11
162.48600672380229
 21
39.788942001008309
 31
0.0
  0
LINE
  5
1111
  8
TITLE
 10
162.59433799207719
 20
38.762569924883337
 30
0.0
 11
163.6870563185548
 21
39.855288251358161
 31
0.0
  0
LINE
  5
1112
  8
TITLE
 10
162.41976824678201
 20
38.762569924883337
 30
0.0
 11
163.07191343056729
 21
39.414715108664723
 31
0.0
  0
LINE
  5
1113
  8
TITLE
 10
162.5070531194296
 20
38.762569924883337
 30
0.0
 11
163.159198303214
 21
39.414715108664723
 31
0.0
  0
LINE
  5
1114
  8
TITLE
 10
162.0706287562007
 20
38.762569924883337
 30
0.0
 11
162.72277393997859
 21
39.414715108664723
 31
0.0
  0
LINE
  5
1115
  8
TITLE
 10
162.15791362884741
 20
38.762569924883337
 30
0.0
 11
162.81005881262621
 21
39.414715108664723
 31
0.0
  0
LINE
  5
1116
  8
TITLE
 10
162.24519850149591
 20
38.762569924883337
 30
0.0
 11
162.897343685273
 21
39.414715108664723
 31
0.0
  0
LINE
  5
1117
  8
TITLE
 10
162.33248337414261
 20
38.762569924883337
 30
0.0
 11
162.98462855792059
 21
39.414715108664723
 31
0.0
  0
LINE
  5
1118
  8
TITLE
 10
160.12998434505241
 20
34.290664206992922
 30
0.0
 11
162.12373836457479
 21
36.284418226511661
 31
0.0
  0
LINE
  5
1119
  8
TITLE
 10
160.2178847076257
 20
34.291279696910813
 30
0.0
 11
162.21102323722241
 21
36.284418226511661
 31
0.0
  0
LINE
  5
111A
  8
TITLE
 10
160.0426995914558
 20
34.290664326043043
 30
0.0
 11
160.9916490559317
 21
35.239613790511392
 31
0.0
  0
LINE
  5
111B
  8
TITLE
 10
160.19255660353519
 20
38.019201116620479
 30
0.0
 11
160.51855254333981
 21
38.345197056431289
 31
0.0
  0
LINE
  5
111C
  8
TITLE
 10
160.19255660353519
 20
37.931916243973092
 30
0.0
 11
160.60583741598651
 21
38.345197056431289
 31
0.0
  0
LINE
  5
111D
  8
TITLE
 10
160.19255660353519
 20
37.844631371326159
 30
0.0
 11
160.69312228863421
 21
38.345197056431289
 31
0.0
  0
LINE
  5
111E
  8
TITLE
 10
160.2065193749695
 20
37.771309270119673
 30
0.0
 11
160.78040716128089
 21
38.345197056431289
 31
0.0
  0
LINE
  5
111F
  8
TITLE
 10
160.19255660353519
 20
38.10648598926764
 30
0.0
 11
160.43126767069219
 21
38.345197056431289
 31
0.0
  0
LINE
  5
1120
  8
TITLE
 10
160.19255660353519
 20
38.28105573456196
 30
0.0
 11
160.25669792540521
 21
38.345197056431289
 31
0.0
  0
LINE
  5
1121
  8
TITLE
 10
160.19255660353519
 20
38.193770861914572
 30
0.0
 11
160.34398279805279
 21
38.345197056431289
 31
0.0
  0
LINE
  5
1122
  8
TITLE
 10
160.0148037945464
 20
35.92118110940806
 30
0.0
 11
160.3780409116462
 21
36.284418226511661
 31
0.0
  0
LINE
  5
1123
  8
TITLE
 10
160.0148037945464
 20
35.83389623676112
 30
0.0
 11
160.46532578429279
 21
36.284418226511661
 31
0.0
  0
LINE
  5
1124
  8
TITLE
 10
160.05698039101841
 20
35.788787960585978
 30
0.0
 11
160.55261065694049
 21
36.284418226511661
 31
0.0
  0
LINE
  5
1125
  8
TITLE
 10
160.144265263666
 20
35.788787960585978
 30
0.0
 11
160.6398955295881
 21
36.284418226511661
 31
0.0
  0
LINE
  5
1126
  8
TITLE
 10
160.23155013631359
 20
35.788787960585978
 30
0.0
 11
160.72718040223481
 21
36.284418226511661
 31
0.0
  0
LINE
  5
1127
  8
TITLE
 10
160.0148037945464
 20
34.524623147068269
 30
0.0
 11
160.49168987092889
 21
35.001509223450277
 31
0.0
  0
LINE
  5
1128
  8
TITLE
 10
160.0148037945464
 20
34.437338274420647
 30
0.0
 11
160.60971195709681
 21
35.03224643697127
 31
0.0
  0
LINE
  5
1129
  8
TITLE
 10
160.0148037945464
 20
34.350053401773948
 30
0.0
 11
160.75361888464789
 21
35.088868491874791
 31
0.0
  0
LINE
  5
112A
  8
TITLE
 10
160.0148037945464
 20
34.699192892358951
 30
0.0
 11
160.29421345776419
 21
34.978602555579528
 31
0.0
  0
LINE
  5
112B
  8
TITLE
 10
160.0148037945464
 20
34.611908019715202
 30
0.0
 11
160.38807530412569
 21
34.985179529294328
 31
0.0
  0
LINE
  5
112C
  8
TITLE
 10
160.19255660353519
 20
37.059067517508993
 30
0.0
 11
160.40916809021741
 21
37.275679004193989
 31
0.0
  0
LINE
  5
112D
  8
TITLE
 10
160.19255660353519
 20
36.971782644861833
 30
0.0
 11
160.49645296286499
 21
37.275679004193989
 31
0.0
  0
LINE
  5
112E
  8
TITLE
 10
160.19255660353519
 20
36.884497772214672
 30
0.0
 11
160.58373783551181
 21
37.275679004193989
 31
0.0
  0
LINE
  5
112F
  8
TITLE
 10
160.19255660353519
 20
36.797212899570702
 30
0.0
 11
160.67102270815849
 21
37.275679004193989
 31
0.0
  0
LINE
  5
1130
  8
TITLE
 10
160.23659143377509
 20
36.753962857166933
 30
0.0
 11
160.7583075808061
 21
37.275679004193989
 31
0.0
  0
LINE
  5
1131
  8
TITLE
 10
160.0148037945464
 20
36.008465982055213
 30
0.0
 11
160.2907560389994
 21
36.284418226511661
 31
0.0
  0
LINE
  5
1132
  8
TITLE
 10
160.19255660353519
 20
37.146352390155698
 30
0.0
 11
160.3218832175707
 21
37.275679004193989
 31
0.0
  0
LINE
  5
1133
  8
TITLE
 10
156.2572655143631
 20
37.837159551250352
 30
0.0
 11
157.25268124470219
 21
38.832575281585378
 31
0.0
  0
LINE
  5
1134
  8
TITLE
 10
156.2572655143631
 20
37.74987467860683
 30
0.0
 11
157.25268124470219
 21
38.745290408941862
 31
0.0
  0
LINE
  5
1135
  8
TITLE
 10
156.2572655143631
 20
38.011729296541041
 30
0.0
 11
157.25268124470219
 21
39.007145026879698
 31
0.0
  0
LINE
  5
1136
  8
TITLE
 10
156.2572655143631
 20
37.924444423897278
 30
0.0
 11
157.25268124470219
 21
38.919860154232538
 31
0.0
  0
LINE
  5
1137
  8
TITLE
 10
156.2572655143631
 20
35.567752862442148
 30
0.0
 11
157.25268124470219
 21
36.563168592780592
 31
0.0
  0
LINE
  5
1138
  8
TITLE
 10
156.2572655143631
 20
35.480467989795223
 30
0.0
 11
157.25268124470219
 21
36.475883720133879
 31
0.0
  0
LINE
  5
1139
  8
TITLE
 10
156.2572655143631
 20
35.393183117147601
 30
0.0
 11
157.25268124470219
 21
36.388598847486492
 31
0.0
  0
LINE
  5
113A
  8
TITLE
 10
156.2572655143631
 20
35.305898244500888
 30
0.0
 11
157.25268124470219
 21
36.301313974839111
 31
0.0
  0
LINE
  5
113B
  8
TITLE
 10
156.2572655143631
 20
35.218613371857153
 30
0.0
 11
157.25268124470219
 21
36.214029102192399
 31
0.0
  0
LINE
  5
113C
  8
TITLE
 10
156.2572655143631
 20
35.916892353030789
 30
0.0
 11
157.25268124470219
 21
36.912308083366042
 31
0.0
  0
LINE
  5
113D
  8
TITLE
 10
156.2572655143631
 20
35.829607480383856
 30
0.0
 11
157.25268124470219
 21
36.825023210718427
 31
0.0
  0
LINE
  5
113E
  8
TITLE
 10
156.2572655143631
 20
35.742322607736469
 30
0.0
 11
157.25268124470219
 21
36.73773833807536
 31
0.0
  0
LINE
  5
113F
  8
TITLE
 10
156.2572655143631
 20
35.655037735089081
 30
0.0
 11
157.25268124470219
 21
36.650453465427752
 31
0.0
  0
LINE
  5
1140
  8
TITLE
 10
156.2021652330622
 20
34.290664364088123
 30
0.0
 11
157.25268124470219
 21
35.341180375728072
 31
0.0
  0
LINE
  5
1141
  8
TITLE
 10
156.28945010570891
 20
34.290664364088123
 30
0.0
 11
157.25268124470219
 21
35.253895503080912
 31
0.0
  0
LINE
  5
1142
  8
TITLE
 10
156.37673497835749
 20
34.290664364088123
 30
0.0
 11
157.25268124470219
 21
35.166610630433297
 31
0.0
  0
LINE
  5
1143
  8
TITLE
 10
156.4640198510042
 20
34.290664364088123
 30
0.0
 11
157.3164519143665
 21
35.143096427454793
 31
0.0
  0
LINE
  5
1144
  8
TITLE
 10
156.5513047236509
 20
34.290664364088123
 30
0.0
 11
157.4037367870132
 21
35.143096427454793
 31
0.0
  0
LINE
  5
1145
  8
TITLE
 10
156.63858959629761
 20
34.290664364088123
 30
0.0
 11
157.49102165966079
 21
35.143096427454793
 31
0.0
  0
LINE
  5
1146
  8
TITLE
 10
156.2572655143631
 20
36.702456206847728
 30
0.0
 11
157.25268124470219
 21
37.697871937182981
 31
0.0
  0
LINE
  5
1147
  8
TITLE
 10
156.2572655143631
 20
36.615171334201023
 30
0.0
 11
157.25268124470219
 21
37.610587064539693
 31
0.0
  0
LINE
  5
1148
  8
TITLE
 10
156.2572655143631
 20
36.527886461553862
 30
0.0
 11
157.25268124470219
 21
37.523302191892533
 31
0.0
  0
LINE
  5
1149
  8
TITLE
 10
156.2572655143631
 20
36.440601588906702
 30
0.0
 11
157.25268124470219
 21
37.436017319244911
 31
0.0
  0
LINE
  5
114A
  8
TITLE
 10
156.2572655143631
 20
36.353316716259769
 30
0.0
 11
157.25268124470219
 21
37.348732446597751
 31
0.0
  0
LINE
  5
114B
  8
TITLE
 10
156.2572655143631
 20
36.266031843611927
 30
0.0
 11
157.25268124470219
 21
37.261447573950591
 31
0.0
  0
LINE
  5
114C
  8
TITLE
 10
156.2572655143631
 20
36.178746970968859
 30
0.0
 11
157.25268124470219
 21
37.174162701303892
 31
0.0
  0
LINE
  5
114D
  8
TITLE
 10
156.2572655143631
 20
36.091462098321237
 30
0.0
 11
157.25268124470219
 21
37.086877828656732
 31
0.0
  0
LINE
  5
114E
  8
TITLE
 10
156.2572655143631
 20
36.004177225674312
 30
0.0
 11
157.25268124470219
 21
36.999592956009337
 31
0.0
  0
LINE
  5
114F
  8
TITLE
 10
156.2572655143631
 20
37.662589805959442
 30
0.0
 11
157.25268124470219
 21
38.65800553629424
 31
0.0
  0
LINE
  5
1150
  8
TITLE
 10
156.2572655143631
 20
37.575304933312061
 30
0.0
 11
157.25268124470219
 21
38.570720663647762
 31
0.0
  0
LINE
  5
1151
  8
TITLE
 10
156.2572655143631
 20
37.226165442723868
 30
0.0
 11
157.25268124470219
 21
38.221581173062077
 31
0.0
  0
LINE
  5
1152
  8
TITLE
 10
156.2572655143631
 20
37.138880570076481
 30
0.0
 11
157.25268124470219
 21
38.134296300415372
 31
0.0
  0
LINE
  5
1153
  8
TITLE
 10
156.2572655143631
 20
37.488020060665349
 30
0.0
 11
157.25268124470219
 21
38.483435791004013
 31
0.0
  0
LINE
  5
1154
  8
TITLE
 10
156.2572655143631
 20
37.400735188017741
 30
0.0
 11
157.25268124470219
 21
38.396150918356852
 31
0.0
  0
LINE
  5
1155
  8
TITLE
 10
156.2572655143631
 20
37.313450315370801
 30
0.0
 11
157.25268124470219
 21
38.308866045709472
 31
0.0
  0
LINE
  5
1156
  8
TITLE
 10
156.2572655143631
 20
36.964310824785571
 30
0.0
 11
157.25268124470219
 21
37.959726555120596
 31
0.0
  0
LINE
  5
1157
  8
TITLE
 10
156.2572655143631
 20
36.877025952138872
 30
0.0
 11
157.25268124470219
 21
37.872441682477302
 31
0.0
  0
LINE
  5
1158
  8
TITLE
 10
156.2572655143631
 20
36.789741079494888
 30
0.0
 11
157.25268124470219
 21
37.785156809830369
 31
0.0
  0
LINE
  5
1159
  8
TITLE
 10
156.2572655143631
 20
37.051595697433193
 30
0.0
 11
157.25268124470219
 21
38.047011427768211
 31
0.0
  0
LINE
  5
115A
  8
TITLE
 10
159.10776876619821
 20
39.029250222799867
 30
0.0
 11
159.3061145206147
 21
39.227595977216879
 31
0.0
  0
LINE
  5
115B
  8
TITLE
 10
159.19505363884491
 20
39.029250222799867
 30
0.0
 11
159.3061145206147
 21
39.140311104569719
 31
0.0
  0
LINE
  5
115C
  8
TITLE
 10
159.2823385114925
 20
39.029250222799867
 30
0.0
 11
159.3061145206147
 21
39.053026231922793
 31
0.0
  0
LINE
  5
115D
  8
TITLE
 10
158.55885679452149
 20
34.290664364088123
 30
0.0
 11
159.41128885788379
 21
35.143096427454793
 31
0.0
  0
LINE
  5
115E
  8
TITLE
 10
158.64614166716089
 20
34.290664364088123
 30
0.0
 11
159.4838673296035
 21
35.128390026527541
 31
0.0
  0
LINE
  5
115F
  8
TITLE
 10
158.7334265398076
 20
34.290664364088123
 30
0.0
 11
159.4838673296035
 21
35.04110515388038
 31
0.0
  0
LINE
  5
1160
  8
TITLE
 10
158.82071141245521
 20
34.290664364088123
 30
0.0
 11
159.4838673296035
 21
34.95382028123322
 31
0.0
  0
LINE
  5
1161
  8
TITLE
 10
160.0148037945464
 20
34.786477765006111
 30
0.0
 11
160.2076590933639
 21
34.979333063826743
 31
0.0
  0
LINE
  5
1162
  8
TITLE
 10
160.0148037945464
 20
34.873762637653037
 30
0.0
 11
160.1211690158425
 21
34.98012785894889
 31
0.0
  0
LINE
  5
1163
  8
TITLE
 10
158.9079962851028
 20
34.290664364088123
 30
0.0
 11
159.4838673296035
 21
34.866535408589698
 31
0.0
  0
LINE
  5
1164
  8
TITLE
 10
158.9952811577495
 20
34.290664364088123
 30
0.0
 11
159.4838673296035
 21
34.779250535942538
 31
0.0
  0
LINE
  5
1165
  8
TITLE
 10
159.08256603039629
 20
34.290664364088123
 30
0.0
 11
159.4838673296035
 21
34.691965663295377
 31
0.0
  0
LINE
  5
1166
  8
TITLE
 10
159.16985090304391
 20
34.290664364088123
 30
0.0
 11
159.4838673296035
 21
34.604680790648217
 31
0.0
  0
LINE
  5
1167
  8
TITLE
 10
159.25713577569149
 20
34.290664364088123
 30
0.0
 11
159.4838673296035
 21
34.517395918001057
 31
0.0
  0
LINE
  5
1168
  8
TITLE
 10
159.3444206483382
 20
34.290664364088123
 30
0.0
 11
159.4838673296035
 21
34.430111045353897
 31
0.0
  0
LINE
  5
1169
  8
TITLE
 10
159.43170552098579
 20
34.290664364088123
 30
0.0
 11
159.4838673296035
 21
34.342826172707191
 31
0.0
  0
LINE
  5
116A
  8
TITLE
 10
160.0148037945464
 20
34.961047510296801
 30
0.0
 11
160.0338841431948
 21
34.98012785894889
 31
0.0
  0
LINE
  5
116B
  8
TITLE
 10
160.0148037945464
 20
36.183035727349761
 30
0.0
 11
160.11618629370511
 21
36.284418226511661
 31
0.0
  0
LINE
  5
116C
  8
TITLE
 10
160.0148037945464
 20
36.095750854702601
 30
0.0
 11
160.20347116635179
 21
36.284418226511661
 31
0.0
  0
LINE
  5
116D
  8
TITLE
 10
160.0148037945464
 20
36.270320599996921
 30
0.0
 11
160.0289014210648
 21
36.284418226511661
 31
0.0
  0
LINE
  5
116E
  8
TITLE
 10
160.19255660353519
 20
37.233637262802858
 30
0.0
 11
160.23459834492311
 21
37.275679004193989
 31
0.0
  0
LINE
  5
116F
  8
TITLE
 10
156.72587446894519
 20
34.290664364088123
 30
0.0
 11
157.57830653230849
 21
35.143096427454793
 31
0.0
  0
LINE
  5
1170
  8
TITLE
 10
156.8131593415855
 20
34.290664364088123
 30
0.0
 11
157.66559140495519
 21
35.143096427454793
 31
0.0
  0
LINE
  5
1171
  8
TITLE
 10
156.90044421423221
 20
34.290664364088123
 30
0.0
 11
157.7528762776019
 21
35.143096427454793
 31
0.0
  0
LINE
  5
1172
  8
TITLE
 10
156.98772908687991
 20
34.290664364088123
 30
0.0
 11
157.84016115024949
 21
35.143096427454793
 31
0.0
  0
LINE
  5
1173
  8
TITLE
 10
157.07501395952659
 20
34.290664364088123
 30
0.0
 11
157.9274460228898
 21
35.143096427454793
 31
0.0
  0
LINE
  5
1174
  8
TITLE
 10
157.1622988321742
 20
34.290664364088123
 30
0.0
 11
158.0147308955365
 21
35.143096427454793
 31
0.0
  0
LINE
  5
1175
  8
TITLE
 10
157.24958370482091
 20
34.290664364088123
 30
0.0
 11
158.10201576818321
 21
35.143096427454793
 31
0.0
  0
LINE
  5
1176
  8
TITLE
 10
157.33686857746761
 20
34.290664364088123
 30
0.0
 11
158.18930064083079
 21
35.143096427454793
 31
0.0
  0
LINE
  5
1177
  8
TITLE
 10
157.4241534501152
 20
34.290664364088123
 30
0.0
 11
158.27658551347849
 21
35.143096427454793
 31
0.0
  0
LINE
  5
1178
  8
TITLE
 10
157.51143832276281
 20
34.290664364088123
 30
0.0
 11
158.3638703861252
 21
35.143096427454793
 31
0.0
  0
LINE
  5
1179
  8
TITLE
 10
157.59872319540949
 20
34.290664364088123
 30
0.0
 11
158.45115525877279
 21
35.143096427454793
 31
0.0
  0
LINE
  5
117A
  8
TITLE
 10
157.68600806804989
 20
34.290664364088123
 30
0.0
 11
158.53844013141949
 21
35.143096427454793
 31
0.0
  0
LINE
  5
117B
  8
TITLE
 10
158.3842870492262
 20
34.290664364088123
 30
0.0
 11
159.23671911259041
 21
35.143096427454793
 31
0.0
  0
LINE
  5
117C
  8
TITLE
 10
158.4715719218739
 20
34.290664364088123
 30
0.0
 11
159.32400398523711
 21
35.143096427454793
 31
0.0
  0
LINE
  5
117D
  8
TITLE
 10
157.77329294069659
 20
34.290664364088123
 30
0.0
 11
158.62572500406711
 21
35.143096427454793
 31
0.0
  0
LINE
  5
117E
  8
TITLE
 10
157.86057781334421
 20
34.290664364088123
 30
0.0
 11
158.71300987671381
 21
35.143096427454793
 31
0.0
  0
LINE
  5
117F
  8
TITLE
 10
157.94786268599091
 20
34.290664364088123
 30
0.0
 11
158.80029474936049
 21
35.143096427454793
 31
0.0
  0
LINE
  5
1180
  8
TITLE
 10
158.03514755863759
 20
34.290664364088123
 30
0.0
 11
158.88757962200091
 21
35.143096427454793
 31
0.0
  0
LINE
  5
1181
  8
TITLE
 10
158.1224324312852
 20
34.290664364088123
 30
0.0
 11
158.9748644946485
 21
35.143096427454793
 31
0.0
  0
LINE
  5
1182
  8
TITLE
 10
158.20971730393279
 20
34.290664364088123
 30
0.0
 11
159.06214936729521
 21
35.143096427454793
 31
0.0
  0
LINE
  5
1183
  8
TITLE
 10
158.2970021765795
 20
34.290664364088123
 30
0.0
 11
159.14943423994191
 21
35.143096427454793
 31
0.0
  0
LINE
  5
1184
  8
TITLE
 10
160.29380424761621
 20
37.771309270119673
 30
0.0
 11
160.86769203392851
 21
38.345197056431289
 31
0.0
  0
LINE
  5
1185
  8
TITLE
 10
160.38108912026379
 20
37.771309270119673
 30
0.0
 11
160.95497690657521
 21
38.345197056431289
 31
0.0
  0
LINE
  5
1186
  8
TITLE
 10
160.46837399291141
 20
37.771309270119673
 30
0.0
 11
161.0422617792228
 21
38.345197056431289
 31
0.0
  0
LINE
  5
1187
  8
TITLE
 10
160.55565886555809
 20
37.771309270119673
 30
0.0
 11
161.1295466518695
 21
38.345197056431289
 31
0.0
  0
LINE
  5
1188
  8
TITLE
 10
160.6429437382057
 20
37.771309270119673
 30
0.0
 11
161.21683152451621
 21
38.345197056431289
 31
0.0
  0
LINE
  5
1189
  8
TITLE
 10
160.30949041180239
 20
34.295600528439991
 30
0.0
 11
162.29830810986999
 21
36.284418226511661
 31
0.0
  0
LINE
  5
118A
  8
TITLE
 10
160.40476624130309
 20
34.303591485298512
 30
0.0
 11
162.3855929825167
 21
36.284418226511661
 31
0.0
  0
LINE
  5
118B
  8
TITLE
 10
160.3188350089531
 20
35.788787960585978
 30
0.0
 11
160.81446527488151
 21
36.284418226511661
 31
0.0
  0
LINE
  5
118C
  8
TITLE
 10
160.40611988159981
 20
35.788787960585978
 30
0.0
 11
160.90175014753001
 21
36.284418226511661
 31
0.0
  0
LINE
  5
118D
  8
TITLE
 10
160.49340475424739
 20
35.788787960585978
 30
0.0
 11
160.9890350201695
 21
36.284418226511661
 31
0.0
  0
LINE
  5
118E
  8
TITLE
 10
160.58068962689501
 20
35.788787960585978
 30
0.0
 11
161.07631989281711
 21
36.284418226511661
 31
0.0
  0
LINE
  5
118F
  8
TITLE
 10
160.66797449954171
 20
35.788787960585978
 30
0.0
 11
161.16360476546379
 21
36.284418226511661
 31
0.0
  0
LINE
  5
1190
  8
TITLE
 10
160.75525937218839
 20
35.788787960585978
 30
0.0
 11
161.2508896381114
 21
36.284418226511661
 31
0.0
  0
LINE
  5
1191
  8
TITLE
 10
160.32387630642279
 20
36.753962857166933
 30
0.0
 11
160.84559245345369
 21
37.275679004193989
 31
0.0
  0
LINE
  5
1192
  8
TITLE
 10
160.4111611790704
 20
36.753962857166933
 30
0.0
 11
160.9328773261004
 21
37.275679004193989
 31
0.0
  0
LINE
  5
1193
  8
TITLE
 10
160.49844605171711
 20
36.753962857166933
 30
0.0
 11
161.02016219874071
 21
37.275679004193989
 31
0.0
  0
LINE
  5
1194
  8
TITLE
 10
160.58573092436379
 20
36.753962857166933
 30
0.0
 11
161.10744707138741
 21
37.275679004193989
 31
0.0
  0
LINE
  5
1195
  8
TITLE
 10
160.67301579701049
 20
36.753962857166933
 30
0.0
 11
161.19473194403511
 21
37.275679004193989
 31
0.0
  0
LINE
  5
1196
  8
TITLE
 10
160.76030066965811
 20
36.753962857166933
 30
0.0
 11
161.28201681668179
 21
37.275679004193989
 31
0.0
  0
LINE
  5
1197
  8
TITLE
 10
160.50423453726211
 20
34.31577490860969
 30
0.0
 11
163.4641386328467
 21
37.275679004193989
 31
0.0
  0
LINE
  5
1198
  8
TITLE
 10
160.6085784827246
 20
34.332833981428386
 30
0.0
 11
163.5514235054934
 21
37.275679004193989
 31
0.0
  0
LINE
  5
1199
  8
TITLE
 10
160.71872162912771
 20
34.35569225518384
 30
0.0
 11
163.63870837814099
 21
37.275679004193989
 31
0.0
  0
LINE
  5
119A
  8
TITLE
 10
163.29967983550611
 20
35.62737737186626
 30
0.0
 11
163.95672069015109
 21
36.284418226511661
 31
0.0
  0
LINE
  5
119B
  8
TITLE
 10
163.33104717638159
 20
35.571459840098207
 30
0.0
 11
164.0440055627987
 21
36.284418226511661
 31
0.0
  0
LINE
  5
119C
  8
TITLE
 10
163.36358074300281
 20
35.516708534072222
 30
0.0
 11
164.13129043544541
 21
36.284418226511661
 31
0.0
  0
LINE
  5
119D
  8
TITLE
 10
163.39725859875401
 20
35.46310151716898
 30
0.0
 11
164.21857530809211
 21
36.284418226511661
 31
0.0
  0
LINE
  5
119E
  8
TITLE
 10
163.43206153260959
 20
35.41061957838474
 30
0.0
 11
164.3058601807397
 21
36.284418226511661
 31
0.0
  0
LINE
  5
119F
  8
TITLE
 10
162.66124580890209
 20
34.290664364088123
 30
0.0
 11
163.29115615205859
 21
34.920574707245578
 31
0.0
  0
LINE
  5
11A0
  8
TITLE
 10
162.7485306815488
 20
34.290664364088123
 30
0.0
 11
163.29115615205859
 21
34.833289834598872
 31
0.0
  0
LINE
  5
11A1
  8
TITLE
 10
162.83581555419551
 20
34.290664364088123
 30
0.0
 11
163.29115615205859
 21
34.746004961954903
 31
0.0
  0
LINE
  5
11A2
  8
TITLE
 10
162.92310042684221
 20
34.290664364088123
 30
0.0
 11
163.29115615205859
 21
34.65872008930797
 31
0.0
  0
LINE
  5
11A3
  8
TITLE
 10
163.0103852994898
 20
34.290664364088123
 30
0.0
 11
163.29115615205859
 21
34.571435216660582
 31
0.0
  0
LINE
  5
11A4
  8
TITLE
 10
163.09767017213741
 20
34.290664364088123
 30
0.0
 11
163.29115615205859
 21
34.484150344016832
 31
0.0
  0
LINE
  5
11A5
  8
TITLE
 10
163.1849550447769
 20
34.290664364088123
 30
0.0
 11
163.29115615205859
 21
34.396865471369892
 31
0.0
  0
LINE
  5
11A6
  8
TITLE
 10
163.27223991742451
 20
34.290664364088123
 30
0.0
 11
163.29115615205859
 21
34.309580598722732
 31
0.0
  0
LINE
  5
11A7
  8
TITLE
 10
163.66372972693171
 20
35.118578536827961
 30
0.0
 11
164.3326775665719
 21
35.787526376463802
 31
0.0
  0
LINE
  5
11A8
  8
TITLE
 10
163.70606493347799
 20
35.073628870726907
 30
0.0
 11
164.3550569315957
 21
35.722620868848942
 31
0.0
  0
LINE
  5
11A9
  8
TITLE
 10
163.7279863396397
 20
36.753962857166933
 30
0.0
 11
164.24970248666429
 21
37.275679004193989
 31
0.0
  0
LINE
  5
11AA
  8
TITLE
 10
163.8152712122874
 20
36.753962857166933
 30
0.0
 11
164.336987359311
 21
37.275679004193989
 31
0.0
  0
LINE
  5
11AB
  8
TITLE
 10
163.29156197640441
 20
36.753962857166933
 30
0.0
 11
163.81327812342801
 21
37.275679004193989
 31
0.0
  0
LINE
  5
11AC
  8
TITLE
 10
163.37884684905109
 20
36.753962857166933
 30
0.0
 11
163.90056299607559
 21
37.275679004193989
 31
0.0
  0
LINE
  5
11AD
  8
TITLE
 10
163.4661317216987
 20
36.753962857166933
 30
0.0
 11
163.98784786872241
 21
37.275679004193989
 31
0.0
  0
LINE
  5
11AE
  8
TITLE
 10
163.55341659434541
 20
36.753962857166933
 30
0.0
 11
164.07513274136909
 21
37.275679004193989
 31
0.0
  0
LINE
  5
11AF
  8
TITLE
 10
163.64070146699299
 20
36.753962857166933
 30
0.0
 11
164.1624176140167
 21
37.275679004193989
 31
0.0
  0
LINE
  5
11B0
  8
TITLE
 10
160.9920832287871
 20
37.771309270119673
 30
0.0
 11
161.94853797750781
 21
38.727764018840162
 31
0.0
  0
LINE
  5
11B1
  8
TITLE
 10
161.0793681014338
 20
37.771309270119673
 30
0.0
 11
161.96310099286529
 21
38.655042161550682
 31
0.0
  0
LINE
  5
11B2
  8
TITLE
 10
161.16665297408139
 20
37.771309270119673
 30
0.0
 11
161.97766400822181
 21
38.582320304256882
 31
0.0
  0
LINE
  5
11B3
  8
TITLE
 10
161.25393784672809
 20
37.771309270119673
 30
0.0
 11
161.99222702357841
 21
38.50959844696672
 31
0.0
  0
LINE
  5
11B4
  8
TITLE
 10
161.3412227193748
 20
37.771309270119673
 30
0.0
 11
162.00679003893671
 21
38.436876589676558
 31
0.0
  0
LINE
  5
11B5
  8
TITLE
 10
161.42850759202241
 20
37.771309270119673
 30
0.0
 11
162.02135305428601
 21
38.364154732383213
 31
0.0
  0
LINE
  5
11B6
  8
TITLE
 10
161.51579246467011
 20
37.771309270119673
 30
0.0
 11
162.08968025098139
 21
38.345197056431289
 31
0.0
  0
LINE
  5
11B7
  8
TITLE
 10
161.60307733731679
 20
37.771309270119673
 30
0.0
 11
162.17696512362821
 21
38.345197056431289
 31
0.0
  0
LINE
  5
11B8
  8
TITLE
 10
161.6903622099571
 20
37.771309270119673
 30
0.0
 11
162.26424999627491
 21
38.345197056431289
 31
0.0
  0
LINE
  5
11B9
  8
TITLE
 10
161.77764708260381
 20
37.771309270119673
 30
0.0
 11
162.35153486891431
 21
38.345197056431289
 31
0.0
  0
LINE
  5
11BA
  8
TITLE
 10
161.86493195525139
 20
37.771309270119673
 30
0.0
 11
162.43881974156281
 21
38.345197056431289
 31
0.0
  0
LINE
  5
11BB
  8
TITLE
 10
161.9522168278981
 20
37.771309270119673
 30
0.0
 11
162.52610461420949
 21
38.345197056431289
 31
0.0
  0
LINE
  5
11BC
  8
TITLE
 10
162.03950170054571
 20
37.771309270119673
 30
0.0
 11
162.61338948685619
 21
38.345197056431289
 31
0.0
  0
LINE
  5
11BD
  8
TITLE
 10
160.84254424483601
 20
35.788787960585978
 30
0.0
 11
161.33817451075811
 21
36.284418226511661
 31
0.0
  0
LINE
  5
11BE
  8
TITLE
 10
160.92982911748371
 20
35.788787960585978
 30
0.0
 11
161.42545938340481
 21
36.284418226511661
 31
0.0
  0
LINE
  5
11BF
  8
TITLE
 10
161.01711399013041
 20
35.788787960585978
 30
0.0
 11
161.5127442560524
 21
36.284418226511661
 31
0.0
  0
LINE
  5
11C0
  8
TITLE
 10
161.10439886277709
 20
35.788787960585978
 30
0.0
 11
161.60002912869999
 21
36.284418226511661
 31
0.0
  0
LINE
  5
11C1
  8
TITLE
 10
161.1916837354174
 20
35.788787960585978
 30
0.0
 11
161.68731400134669
 21
36.284418226511661
 31
0.0
  0
LINE
  5
11C2
  8
TITLE
 10
161.27896860806499
 20
35.788787960585978
 30
0.0
 11
161.7745988739934
 21
36.284418226511661
 31
0.0
  0
LINE
  5
11C3
  8
TITLE
 10
161.3589777037532
 20
35.781512183627463
 30
0.0
 11
161.86188374664101
 21
36.284418226511661
 31
0.0
  0
LINE
  5
11C4
  8
TITLE
 10
161.3023556488497
 20
35.637605256076768
 30
0.0
 11
161.94916861928141
 21
36.284418226511661
 31
0.0
  0
LINE
  5
11C5
  8
TITLE
 10
161.15161035021259
 20
35.399575084793021
 30
0.0
 11
162.03645349192811
 21
36.284418226511661
 31
0.0
  0
LINE
  5
11C6
  8
TITLE
 10
161.44498062361521
 20
34.645526886440173
 30
0.0
 11
162.350710421575
 21
35.551256684396783
 31
0.0
  0
LINE
  5
11C7
  8
TITLE
 10
161.71786840926319
 20
34.831129799436887
 30
0.0
 11
162.1651075085756
 21
35.27836889874925
 31
0.0
  0
LINE
  5
11C8
  8
TITLE
 10
160.84758554230569
 20
36.753962857166933
 30
0.0
 11
161.36930168932849
 21
37.275679004193989
 31
0.0
  0
LINE
  5
11C9
  8
TITLE
 10
160.9348704149524
 20
36.753962857166933
 30
0.0
 11
161.45658656197699
 21
37.275679004193989
 31
0.0
  0
LINE
  5
11CA
  8
TITLE
 10
161.02215528759999
 20
36.753962857166933
 30
0.0
 11
161.5438714346237
 21
37.275679004193989
 31
0.0
  0
LINE
  5
11CB
  8
TITLE
 10
161.10944016024681
 20
36.753962857166933
 30
0.0
 11
161.6311563072704
 21
37.275679004193989
 31
0.0
  0
LINE
  5
11CC
  8
TITLE
 10
161.19672503288709
 20
36.753962857166933
 30
0.0
 11
161.71844117991799
 21
37.275679004193989
 31
0.0
  0
LINE
  5
11CD
  8
TITLE
 10
161.28400990553379
 20
36.753962857166933
 30
0.0
 11
161.80572605256469
 21
37.275679004193989
 31
0.0
  0
LINE
  5
11CE
  8
TITLE
 10
161.37129477818141
 20
36.753962857166933
 30
0.0
 11
161.89301092520509
 21
37.275679004193989
 31
0.0
  0
LINE
  5
11CF
  8
TITLE
 10
161.45857965082899
 20
36.753962857166933
 30
0.0
 11
161.9802957978518
 21
37.275679004193989
 31
0.0
  0
LINE
  5
11D0
  8
TITLE
 10
161.5458645234757
 20
36.753962857166933
 30
0.0
 11
162.06758067049941
 21
37.275679004193989
 31
0.0
  0
LINE
  5
11D1
  8
TITLE
 10
161.63314939612241
 20
36.753962857166933
 30
0.0
 11
162.154865543147
 21
37.275679004193989
 31
0.0
  0
LINE
  5
11D2
  8
TITLE
 10
161.72043426876911
 20
36.753962857166933
 30
0.0
 11
162.2421504157937
 21
37.275679004193989
 31
0.0
  0
LINE
  5
11D3
  8
TITLE
 10
161.80771914141769
 20
36.753962857166933
 30
0.0
 11
162.32943528844041
 21
37.275679004193989
 31
0.0
  0
LINE
  5
11D4
  8
TITLE
 10
160.83596690959439
 20
34.385652663004286
 30
0.0
 11
163.72599325078039
 21
37.275679004193989
 31
0.0
  0
LINE
  5
11D5
  8
TITLE
 10
162.40239210711391
 20
34.817374516121163
 30
0.0
 11
163.8694358175035
 21
36.284418226511661
 31
0.0
  0
LINE
  5
11D6
  8
TITLE
 10
160.96226088844739
 20
34.424661769209713
 30
0.0
 11
163.29115615205859
 21
36.753557032821391
 31
0.0
  0
LINE
  5
11D7
  8
TITLE
 10
161.10075752885311
 20
34.47587353697191
 30
0.0
 11
163.29115615205859
 21
36.666272160174692
 31
0.0
  0
LINE
  5
11D8
  8
TITLE
 10
161.25724562885259
 20
34.545076764321038
 30
0.0
 11
163.29115615205859
 21
36.578987287530708
 31
0.0
  0
LINE
  5
11D9
  8
TITLE
 10
162.40239210711391
 20
34.991944261411852
 30
0.0
 11
163.69486607221
 21
36.284418226511661
 31
0.0
  0
LINE
  5
11DA
  8
TITLE
 10
162.40239210711391
 20
34.90465938876833
 30
0.0
 11
163.78215094485671
 21
36.284418226511661
 31
0.0
  0
LINE
  5
11DB
  8
TITLE
 10
162.40239210711391
 20
35.602938369941967
 30
0.0
 11
163.29115615205859
 21
36.491702414883548
 31
0.0
  0
LINE
  5
11DC
  8
TITLE
 10
162.40239210711391
 20
35.515653497294579
 30
0.0
 11
163.29115615205859
 21
36.404417542236388
 31
0.0
  0
LINE
  5
11DD
  8
TITLE
 10
162.40239210711391
 20
35.428368624647653
 30
0.0
 11
163.29115615205859
 21
36.317132669592873
 31
0.0
  0
LINE
  5
11DE
  8
TITLE
 10
162.40239210711391
 20
35.341083752000493
 30
0.0
 11
163.34572658162779
 21
36.284418226511661
 31
0.0
  0
LINE
  5
11DF
  8
TITLE
 10
162.40239210711391
 20
35.253798879352871
 30
0.0
 11
163.4330114542754
 21
36.284418226511661
 31
0.0
  0
LINE
  5
11E0
  8
TITLE
 10
162.40239210711391
 20
35.166514006706173
 30
0.0
 11
163.52029632692211
 21
36.284418226511661
 31
0.0
  0
LINE
  5
11E1
  8
TITLE
 10
162.40239210711391
 20
35.079229134059013
 30
0.0
 11
163.60758119956969
 21
36.284418226511661
 31
0.0
  0
LINE
  5
11E2
  8
TITLE
 10
162.40239210711391
 20
34.730089643477868
 30
0.0
 11
163.29115615205859
 21
35.618853688419222
 31
0.0
  0
LINE
  5
11E3
  8
TITLE
 10
162.40239210711391
 20
34.642804770830708
 30
0.0
 11
163.29115615205859
 21
35.531568815772061
 31
0.0
  0
LINE
  5
11E4
  8
TITLE
 10
162.40239210711391
 20
34.55551989818332
 30
0.0
 11
163.29115615205859
 21
35.444283943124901
 31
0.0
  0
LINE
  5
11E5
  8
TITLE
 10
162.40239210711391
 20
34.46823502553616
 30
0.0
 11
163.29115615205859
 21
35.356999070481152
 31
0.0
  0
LINE
  5
11E6
  8
TITLE
 10
162.40239210711391
 20
34.380950152888772
 30
0.0
 11
163.29115615205859
 21
35.269714197834219
 31
0.0
  0
LINE
  5
11E7
  8
TITLE
 10
162.40239210711391
 20
34.293665280241839
 30
0.0
 11
163.29115615205859
 21
35.182429325187059
 31
0.0
  0
LINE
  5
11E8
  8
TITLE
 10
162.48667606360681
 20
34.290664364088123
 30
0.0
 11
163.29115615205859
 21
35.095144452540133
 31
0.0
  0
LINE
  5
11E9
  8
TITLE
 10
162.57396093625351
 20
34.290664364088123
 30
0.0
 11
163.29115615205859
 21
35.007859579892738
 31
0.0
  0
LINE
  5
11EA
  8
TITLE
 10
162.40239210711391
 20
37.610490440808462
 30
0.0
 11
163.13709872274009
 21
38.345197056431289
 31
0.0
  0
LINE
  5
11EB
  8
TITLE
 10
162.40239210711391
 20
37.523205568161302
 30
0.0
 11
163.22438359537949
 21
38.345197056431289
 31
0.0
  0
LINE
  5
11EC
  8
TITLE
 10
162.40239210711391
 20
37.43592069551778
 30
0.0
 11
163.3116684680262
 21
38.345197056431289
 31
0.0
  0
LINE
  5
11ED
  8
TITLE
 10
162.40239210711391
 20
37.348635822871081
 30
0.0
 11
163.39895334067381
 21
38.345197056431289
 31
0.0
  0
LINE
  5
11EE
  8
TITLE
 10
161.8950040140644
 20
36.753962857166933
 30
0.0
 11
163.48623821332151
 21
38.345197056431289
 31
0.0
  0
LINE
  5
11EF
  8
TITLE
 10
161.9822888867111
 20
36.753962857166933
 30
0.0
 11
163.57352308596819
 21
38.345197056431289
 31
0.0
  0
LINE
  5
11F0
  8
TITLE
 10
162.06957375935141
 20
36.753962857166933
 30
0.0
 11
163.6608079586149
 21
38.345197056431289
 31
0.0
  0
LINE
  5
11F1
  8
TITLE
 10
162.12678657319341
 20
37.771309270119673
 30
0.0
 11
162.70067435950381
 21
38.345197056431289
 31
0.0
  0
LINE
  5
11F2
  8
TITLE
 10
162.21407144584009
 20
37.771309270119673
 30
0.0
 11
162.78795923215151
 21
38.345197056431289
 31
0.0
  0
LINE
  5
11F3
  8
TITLE
 10
162.3013563184868
 20
37.771309270119673
 30
0.0
 11
162.87524410479821
 21
38.345197056431289
 31
0.0
  0
LINE
  5
11F4
  8
TITLE
 10
162.38864119113441
 20
37.771309270119673
 30
0.0
 11
162.96252897744489
 21
38.345197056431289
 31
0.0
  0
LINE
  5
11F5
  8
TITLE
 10
162.40239210711391
 20
37.697775313451977
 30
0.0
 11
163.04981385009339
 21
38.345197056431289
 31
0.0
  0
LINE
  5
11F6
  8
TITLE
 10
162.33142837729241
 20
36.753962857166933
 30
0.0
 11
163.29115615205859
 21
37.713690631932877
 31
0.0
  0
LINE
  5
11F7
  8
TITLE
 10
162.40239210711391
 20
36.737641714344143
 30
0.0
 11
163.29115615205859
 21
37.626405759286172
 31
0.0
  0
LINE
  5
11F8
  8
TITLE
 10
162.40239210711391
 20
36.650356841696748
 30
0.0
 11
163.29115615205859
 21
37.539120886638791
 31
0.0
  0
LINE
  5
11F9
  8
TITLE
 10
162.40239210711391
 20
36.563071969049822
 30
0.0
 11
163.29115615205859
 21
37.451836013995027
 31
0.0
  0
LINE
  5
11FA
  8
TITLE
 10
162.40239210711391
 20
36.4757870964063
 30
0.0
 11
163.29115615205859
 21
37.364551141347881
 31
0.0
  0
LINE
  5
11FB
  8
TITLE
 10
162.40239210711391
 20
36.38850222375936
 30
0.0
 11
163.29115615205859
 21
37.277266268700707
 31
0.0
  0
LINE
  5
11FC
  8
TITLE
 10
162.40239210711391
 20
36.30121735111198
 30
0.0
 11
163.37685376019911
 21
37.275679004193989
 31
0.0
  0
LINE
  5
11FD
  8
TITLE
 10
160.0148037945464
 20
39.412576015269451
 30
0.0
 11
160.016942887938
 21
39.414715108664723
 31
0.0
  0
LINE
  5
11FE
  8
TITLE
 10
160.0148037945464
 20
39.325291142622071
 30
0.0
 11
160.1042277605857
 21
39.414715108664723
 31
0.0
  0
LINE
  5
11FF
  8
TITLE
 10
160.61614987812931
 20
39.664782608266712
 30
0.0
 11
160.80665552122079
 21
39.855288251358161
 31
0.0
  0
LINE
  5
1200
  8
TITLE
 10
160.64410538805529
 20
39.605453245545959
 30
0.0
 11
160.8939403938675
 21
39.855288251358161
 31
0.0
  0
LINE
  5
1201
  8
TITLE
 10
160.6720608979885
 20
39.546123882832042
 30
0.0
 11
160.98122526651511
 21
39.855288251358161
 31
0.0
  0
LINE
  5
1202
  8
TITLE
 10
160.70001640791449
 20
39.48679452011811
 30
0.0
 11
161.0685101391627
 21
39.855288251358161
 31
0.0
  0
LINE
  5
1203
  8
TITLE
 10
160.72797191784861
 20
39.427465157397137
 30
0.0
 11
161.1557950118094
 21
39.855288251358161
 31
0.0
  0
LINE
  5
1204
  8
TITLE
 10
160.53228334833511
 20
39.842770696411208
 30
0.0
 11
160.54480090327979
 21
39.855288251358161
 31
0.0
  0
LINE
  5
1205
  8
TITLE
 10
160.5602388582692
 20
39.783441333693652
 30
0.0
 11
160.6320857759265
 21
39.855288251358161
 31
0.0
  0
LINE
  5
1206
  8
TITLE
 10
160.58819436819519
 20
39.724111970980182
 30
0.0
 11
160.71937064857411
 21
39.855288251358161
 31
0.0
  0
LINE
  5
1207
  8
TITLE
 10
163.20754153537649
 20
39.63762808612114
 30
0.0
 11
163.4252017006138
 21
39.855288251358161
 31
0.0
  0
LINE
  5
1208
  8
TITLE
 10
163.20754153537649
 20
39.550343213474207
 30
0.0
 11
163.51248657326141
 21
39.855288251358161
 31
0.0
  0
LINE
  5
1209
  8
TITLE
 10
163.20754153537649
 20
39.463058340826592
 30
0.0
 11
163.59977144590809
 21
39.855288251358161
 31
0.0
  0
LINE
  5
120A
  8
TITLE
 10
163.20754153537649
 20
39.812197831411822
 30
0.0
 11
163.25063195531939
 21
39.855288251358161
 31
0.0
  0
LINE
  5
120B
  8
TITLE
 10
163.20754153537649
 20
39.724912958764889
 30
0.0
 11
163.33791682796621
 21
39.855288251358161
 31
0.0
  0
LINE
  5
120C
  8
TITLE
 10
161.81601004633561
 20
39.642654559419952
 30
0.0
 11
162.02864373827379
 21
39.855288251358161
 31
0.0
  0
LINE
  5
120D
  8
TITLE
 10
161.81601004633561
 20
39.555369686772792
 30
0.0
 11
162.1159286109214
 21
39.855288251358161
 31
0.0
  0
LINE
  5
120E
  8
TITLE
 10
161.81601004633561
 20
39.468084814125632
 30
0.0
 11
162.20321348356811
 21
39.855288251358161
 31
0.0
  0
LINE
  5
120F
  8
TITLE
 10
161.81601004633561
 20
39.817224304714273
 30
0.0
 11
161.85407399297941
 21
39.855288251358161
 31
0.0
  0
LINE
  5
1210
  8
TITLE
 10
161.81601004633561
 20
39.729939432067113
 30
0.0
 11
161.94135886562611
 21
39.855288251358161
 31
0.0
  0
LINE
  5
1212
  8
TITLE
 10
154.875
 20
67.5
 30
0.0
 11
154.875
 21
52.5
 31
0.0
  0
LINE
  5
1213
  8
TITLE
 10
169.875
 20
52.5
 30
0.0
 11
169.875
 21
42.5
 31
0.0
  0
LINE
  5
1215
  8
TITLE
 10
180.6730384841976
 20
38.773301779179747
 30
0.0
 11
181.7324988401233
 21
39.832762135112489
 31
0.0
  0
LINE
  5
1216
  8
TITLE
 10
179.30763632220351
 20
37.84432398042464
 30
0.0
 11
181.31860059313649
 21
39.855288251358161
 31
0.0
  0
LINE
  5
1217
  8
TITLE
 10
179.98253430844491
 20
38.344652221363958
 30
0.0
 11
181.49317033843181
 21
39.855288251358161
 31
0.0
  0
LINE
  5
1218
  8
TITLE
 10
180.17495661226349
 20
38.449789652542677
 30
0.0
 11
181.58045521107849
 21
39.855288251358161
 31
0.0
  0
LINE
  5
1219
  8
TITLE
 10
179.80890453483059
 20
38.258307320404583
 30
0.0
 11
181.40588546578419
 21
39.855288251358161
 31
0.0
  0
LINE
  5
121A
  8
TITLE
 10
180.39642081793039
 20
38.58396898555975
 30
0.0
 11
181.66774008372519
 21
39.855288251354978
 31
0.0
  0
LINE
  5
121B
  8
TITLE
 10
180.64192957407249
 20
34.290664364088123
 30
0.0
 11
181.35831220650829
 21
35.007046996521701
 31
0.0
  0
LINE
  5
121C
  8
TITLE
 10
180.7292144467192
 20
34.290664364088123
 30
0.0
 11
181.44559707914959
 21
35.007046996521701
 31
0.0
  0
LINE
  5
121D
  8
TITLE
 10
180.6281169843059
 20
36.284403845184897
 30
0.0
 11
181.33196672157919
 21
36.988253582461773
 31
0.0
  0
LINE
  5
121E
  8
TITLE
 10
180.71540185694539
 20
36.284403845184897
 30
0.0
 11
181.4192515942259
 21
36.988253582461773
 31
0.0
  0
LINE
  5
121F
  8
TITLE
 10
180.55314311294839
 20
37.431418190884422
 30
0.0
 11
181.33519837659151
 21
38.213473454524319
 31
0.0
  0
LINE
  5
1220
  8
TITLE
 10
180.64042798559601
 20
37.431418190884422
 30
0.0
 11
181.42248324923179
 21
38.213473454524319
 31
0.0
  0
LINE
  5
1221
  8
TITLE
 10
180.72771285824271
 20
37.431418190884422
 30
0.0
 11
181.50976812187849
 21
38.213473454524319
 31
0.0
  0
LINE
  5
1222
  8
TITLE
 10
179.0937551089992
 20
37.979582257802583
 30
0.0
 11
180.96946110255519
 21
39.855288251358161
 31
0.0
  0
LINE
  5
1223
  8
TITLE
 10
179.22271149789859
 20
38.021253774057868
 30
0.0
 11
181.0567459752028
 21
39.855288251358161
 31
0.0
  0
LINE
  5
1224
  8
TITLE
 10
179.30763632220351
 20
38.018893725715323
 30
0.0
 11
181.14403084784951
 21
39.855288251358161
 31
0.0
  0
LINE
  5
1225
  8
TITLE
 10
179.30763632220351
 20
37.931608853071793
 30
0.0
 11
181.2313157204899
 21
39.855288251358161
 31
0.0
  0
LINE
  5
1226
  8
TITLE
 10
179.42597096264581
 20
35.605967059410887
 30
0.0
 11
180.8082574856962
 21
36.988253582461773
 31
0.0
  0
LINE
  5
1227
  8
TITLE
 10
180.1182203381959
 20
34.290664364088123
 30
0.0
 11
180.83460297062629
 21
35.007046996521701
 31
0.0
  0
LINE
  5
1228
  8
TITLE
 10
180.2055052108426
 20
34.290664364088123
 30
0.0
 11
180.921887843273
 21
35.007046996521701
 31
0.0
  0
LINE
  5
1229
  8
TITLE
 10
180.29279008349019
 20
34.290664364088123
 30
0.0
 11
181.0091727159197
 21
35.007046996521701
 31
0.0
  0
LINE
  5
122A
  8
TITLE
 10
180.3800749561378
 20
34.290664364088123
 30
0.0
 11
181.09645758856729
 21
35.007046996521701
 31
0.0
  0
LINE
  5
122B
  8
TITLE
 10
180.46735982878451
 20
34.290664364088123
 30
0.0
 11
181.18374246121491
 21
35.007046996521701
 31
0.0
  0
LINE
  5
122C
  8
TITLE
 10
180.55464470142491
 20
34.290664364088123
 30
0.0
 11
181.27102733386161
 21
35.007046996521701
 31
0.0
  0
LINE
  5
122D
  8
TITLE
 10
180.54083211165829
 20
36.284403845184897
 30
0.0
 11
181.24468184893161
 21
36.988253582461773
 31
0.0
  0
LINE
  5
122E
  8
TITLE
 10
180.02943387707271
 20
37.431418190884422
 30
0.0
 11
180.8114891407094
 21
38.213473454524319
 31
0.0
  0
LINE
  5
122F
  8
TITLE
 10
180.11671874971941
 20
37.431418190884422
 30
0.0
 11
180.8987740133561
 21
38.213473454524319
 31
0.0
  0
LINE
  5
1230
  8
TITLE
 10
180.204003622367
 20
37.431418190884422
 30
0.0
 11
180.98605888600281
 21
38.213473454524319
 31
0.0
  0
LINE
  5
1231
  8
TITLE
 10
180.29128849500739
 20
37.431418190884422
 30
0.0
 11
181.0733437586504
 21
38.213473454524319
 31
0.0
  0
LINE
  5
1232
  8
TITLE
 10
180.3785733676541
 20
37.431418190884422
 30
0.0
 11
181.1606286312981
 21
38.213473454524319
 31
0.0
  0
LINE
  5
1233
  8
TITLE
 10
180.4658582403008
 20
37.431418190884422
 30
0.0
 11
181.2479135039448
 21
38.213473454524319
 31
0.0
  0
LINE
  5
1234
  8
TITLE
 10
178.8501146317067
 20
37.910511525807117
 30
0.0
 11
180.7948913572618
 21
39.855288251358161
 31
0.0
  0
LINE
  5
1235
  8
TITLE
 10
178.96976362207991
 20
37.942875643533398
 30
0.0
 11
180.88217622990851
 21
39.855288251358161
 31
0.0
  0
LINE
  5
1236
  8
TITLE
 10
178.70729205142919
 20
34.800003275544903
 30
0.0
 11
180.89554235834291
 21
36.988253582461773
 31
0.0
  0
LINE
  5
1237
  8
TITLE
 10
178.70729205142919
 20
34.712718402897728
 30
0.0
 11
180.98282723098961
 21
36.988253582461773
 31
0.0
  0
LINE
  5
1238
  8
TITLE
 10
178.70729205142919
 20
34.62543353025103
 30
0.0
 11
181.07011210363811
 21
36.988253582461773
 31
0.0
  0
LINE
  5
1239
  8
TITLE
 10
178.70729205142919
 20
34.538148657607053
 30
0.0
 11
181.15739697628479
 21
36.988253582461773
 31
0.0
  0
LINE
  5
123A
  8
TITLE
 10
172.46755249781739
 20
38.42345433098194
 30
0.0
 11
173.17186919796671
 21
39.12777103113104
 31
0.0
  0
LINE
  5
123B
  8
TITLE
 10
172.5548373704641
 20
38.42345433098194
 30
0.0
 11
173.25915407061439
 21
39.12777103113104
 31
0.0
  0
LINE
  5
123C
  8
TITLE
 10
172.29475386004381
 20
34.322836424122222
 30
0.0
 11
173.1567077417057
 21
35.184790305784652
 31
0.0
  0
LINE
  5
123D
  8
TITLE
 10
172.35079091551691
 20
34.29158860694816
 30
0.0
 11
173.25261030160979
 21
35.19340799303427
 31
0.0
  0
LINE
  5
123E
  8
TITLE
 10
172.44014668954881
 20
34.293659508329029
 30
0.0
 11
173.34922418261789
 21
35.202737001402511
 31
0.0
  0
LINE
  5
123F
  8
TITLE
 10
172.5302638594367
 20
34.296491805577723
 30
0.0
 11
173.44656687467611
 21
35.212794820813087
 31
0.0
  0
LINE
  5
1240
  8
TITLE
 10
172.4514693816254
 20
37.010813252449907
 30
0.0
 11
173.1597936370917
 21
37.719137507916457
 31
0.0
  0
LINE
  5
1241
  8
TITLE
 10
172.4905901703014
 20
36.962649168478947
 30
0.0
 11
173.2470785097384
 21
37.719137507916457
 31
0.0
  0
LINE
  5
1242
  8
TITLE
 10
172.29475386004381
 20
38.774364929091462
 30
0.0
 11
172.64815996208381
 21
39.12777103113104
 31
0.0
  0
LINE
  5
1243
  8
TITLE
 10
172.29475386004381
 20
38.425225438502821
 30
0.0
 11
172.99729945267239
 21
39.12777103113104
 31
0.0
  0
LINE
  5
1244
  8
TITLE
 10
172.38026762516981
 20
38.42345433098194
 30
0.0
 11
173.0845843253191
 21
39.12777103113104
 31
0.0
  0
LINE
  5
1245
  8
TITLE
 10
172.29475386004381
 20
38.599795183796687
 30
0.0
 11
172.8227297073781
 21
39.12777103113104
 31
0.0
  0
LINE
  5
1246
  8
TITLE
 10
172.29475386004381
 20
38.512510311149747
 30
0.0
 11
172.91001458002481
 21
39.12777103113104
 31
0.0
  0
LINE
  5
1247
  8
TITLE
 10
172.29475386004381
 20
38.687080056444302
 30
0.0
 11
172.73544483473049
 21
39.12777103113104
 31
0.0
  0
LINE
  5
1248
  8
TITLE
 10
172.29475386004381
 20
34.759260787354151
 30
0.0
 11
172.68730457385749
 21
35.151811501164282
 31
0.0
  0
LINE
  5
1249
  8
TITLE
 10
172.29475386004381
 20
34.671975914707218
 30
0.0
 11
172.77988720518081
 21
35.157109259844219
 31
0.0
  0
LINE
  5
124A
  8
TITLE
 10
172.29475386004381
 20
34.584691042060058
 30
0.0
 11
172.8731044927481
 21
35.163041674761637
 31
0.0
  0
LINE
  5
124B
  8
TITLE
 10
172.29475386004381
 20
34.497406169416543
 30
0.0
 11
172.96697047316411
 21
35.169622782536862
 31
0.0
  0
LINE
  5
124C
  8
TITLE
 10
172.29475386004381
 20
34.410121296769383
 30
0.0
 11
173.0614997920747
 21
35.176867228793981
 31
0.0
  0
LINE
  5
124D
  8
TITLE
 10
172.29475386004381
 20
34.846545659997901
 30
0.0
 11
172.59534313633139
 21
35.147134936285973
 31
0.0
  0
LINE
  5
124E
  8
TITLE
 10
172.4514693816254
 20
37.534522488326047
 30
0.0
 11
172.63608440120879
 21
37.719137507916457
 31
0.0
  0
LINE
  5
124F
  8
TITLE
 10
172.4514693816254
 20
37.447237615678659
 30
0.0
 11
172.7233692738555
 21
37.719137507916457
 31
0.0
  0
LINE
  5
1250
  8
TITLE
 10
172.4514693816254
 20
37.359952743031499
 30
0.0
 11
172.8106541465022
 21
37.719137507916457
 31
0.0
  0
LINE
  5
1251
  8
TITLE
 10
172.4514693816254
 20
37.272667870387977
 30
0.0
 11
172.89793901914979
 21
37.719137507916457
 31
0.0
  0
LINE
  5
1252
  8
TITLE
 10
172.4514693816254
 20
37.185382997741272
 30
0.0
 11
172.9852238917974
 21
37.719137507916457
 31
0.0
  0
LINE
  5
1253
  8
TITLE
 10
172.4514693816254
 20
37.098098125093657
 30
0.0
 11
173.07250876444411
 21
37.719137507916457
 31
0.0
  0
LINE
  5
1254
  8
TITLE
 10
164.60189006294689
 20
38.762569924883337
 30
0.0
 11
165.25403524673129
 21
39.414715108664723
 31
0.0
  0
LINE
  5
1255
  8
TITLE
 10
164.68917493559451
 20
38.762569924883337
 30
0.0
 11
165.34132011937891
 21
39.414715108664723
 31
0.0
  0
LINE
  5
1256
  8
TITLE
 10
164.77645980824121
 20
38.762569924883337
 30
0.0
 11
165.42860499201919
 21
39.414715108664723
 31
0.0
  0
LINE
  5
1257
  8
TITLE
 10
164.863744680888
 20
38.762569924883337
 30
0.0
 11
165.51588986466589
 21
39.414715108664723
 31
0.0
  0
LINE
  5
1258
  8
TITLE
 10
168.42128167881489
 20
38.828712016948877
 30
0.0
 11
169.4399319852991
 21
39.847362323440393
 31
0.0
  0
LINE
  5
1259
  8
TITLE
 10
168.42128167881489
 20
38.741427144301497
 30
0.0
 11
169.4399319852991
 21
39.760077450793233
 31
0.0
  0
LINE
  5
125A
  8
TITLE
 10
168.42128167881489
 20
38.479572526363199
 30
0.0
 11
169.4399319852991
 21
39.498222832851752
 31
0.0
  0
LINE
  5
125B
  8
TITLE
 10
168.42128167881489
 20
38.392287653716267
 30
0.0
 11
169.43989151933329
 21
39.41089749423827
 31
0.0
  0
LINE
  5
125C
  8
TITLE
 10
168.42128167881489
 20
38.305002781072751
 30
0.0
 11
169.43609377269601
 21
39.31981487495387
 31
0.0
  0
LINE
  5
125D
  8
TITLE
 10
168.42128167881489
 20
38.654142271654109
 30
0.0
 11
169.4399319852991
 21
39.672792578145618
 31
0.0
  0
LINE
  5
125E
  8
TITLE
 10
168.42128167881489
 20
38.566857399007183
 30
0.0
 11
169.4399319852991
 21
39.585507705498912
 31
0.0
  0
LINE
  5
125F
  8
TITLE
 10
168.654293248187
 20
39.149008458971359
 30
0.0
 11
169.36057304057789
 21
39.855288251358161
 31
0.0
  0
LINE
  5
1260
  8
TITLE
 10
166.88024637822849
 20
38.946089296648097
 30
0.0
 11
167.71606218197121
 21
39.781905100389849
 31
0.0
  0
LINE
  5
1261
  8
TITLE
 10
166.88024637822849
 20
39.120659041938779
 30
0.0
 11
167.61487558764929
 21
39.855288251358161
 31
0.0
  0
LINE
  5
1262
  8
TITLE
 10
166.88024637822849
 20
39.033374169292081
 30
0.0
 11
167.7021604602887
 21
39.855288251358161
 31
0.0
  0
LINE
  5
1263
  8
TITLE
 10
166.88024637822849
 20
39.20794391458594
 30
0.0
 11
167.52759071500159
 21
39.855288251358161
 31
0.0
  0
LINE
  5
1264
  8
TITLE
 10
164.95102955353471
 20
38.762569924883337
 30
0.0
 11
165.6031747373126
 21
39.414715108664723
 31
0.0
  0
LINE
  5
1265
  8
TITLE
 10
165.03831442618321
 20
38.762569924883337
 30
0.0
 11
165.67874446463239
 21
39.402999963329883
 31
0.0
  0
LINE
  5
1266
  8
TITLE
 10
165.12559929882261
 20
38.762569924883337
 30
0.0
 11
165.67874446463239
 21
39.315715090685899
 31
0.0
  0
LINE
  5
1267
  8
TITLE
 10
166.21012421571589
 20
38.188682261491067
 30
0.0
 11
167.71606218197121
 21
39.694620227746327
 31
0.0
  0
LINE
  5
1268
  8
TITLE
 10
166.2974090883626
 20
38.188682261491067
 30
0.0
 11
167.71606218197121
 21
39.607335355098712
 31
0.0
  0
LINE
  5
1269
  8
TITLE
 10
166.38469396101021
 20
38.188682261487429
 30
0.0
 11
167.71606218197121
 21
39.520050482451552
 31
0.0
  0
LINE
  5
126A
  8
TITLE
 10
166.471978833657
 20
38.188682261487429
 30
0.0
 11
167.71606218197121
 21
39.432765609804392
 31
0.0
  0
LINE
  5
126B
  8
TITLE
 10
166.55926370629729
 20
38.188682261487429
 30
0.0
 11
167.71606218197121
 21
39.345480737157693
 31
0.0
  0
LINE
  5
126C
  8
TITLE
 10
169.7533630284633
 20
38.502380786315371
 30
0.0
 11
170.56305938401781
 21
39.31207714186985
 31
0.0
  0
LINE
  5
126D
  8
TITLE
 10
169.1938716242766
 20
38.553883490655153
 30
0.0
 11
170.49527638497599
 21
39.855288251358161
 31
0.0
  0
LINE
  5
126E
  8
TITLE
 10
169.2811564969233
 20
38.553883490655153
 30
0.0
 11
170.56305938401781
 21
39.83578637774599
 31
0.0
  0
LINE
  5
126F
  8
TITLE
 10
169.368441369571
 20
38.553883490655153
 30
0.0
 11
170.56305938401781
 21
39.748501505102013
 31
0.0
  0
LINE
  5
1270
  8
TITLE
 10
169.45572624221859
 20
38.553883490655153
 30
0.0
 11
170.56305938401781
 21
39.661216632454853
 31
0.0
  0
LINE
  5
1271
  8
TITLE
 10
169.54301111486529
 20
38.553883490655153
 30
0.0
 11
170.56305938401781
 21
39.57393175980792
 31
0.0
  0
LINE
  5
1272
  8
TITLE
 10
169.6302959875047
 20
38.553883490655153
 30
0.0
 11
170.56305938401781
 21
39.48664688716417
 31
0.0
  0
LINE
  5
1273
  8
TITLE
 10
169.71758086015319
 20
38.553883490655153
 30
0.0
 11
170.56305938401781
 21
39.39936201451701
 31
0.0
  0
LINE
  5
1274
  8
TITLE
 10
169.7533630284633
 20
39.200659767485831
 30
0.0
 11
170.40799151233659
 21
39.855288251358161
 31
0.0
  0
LINE
  5
1275
  8
TITLE
 10
168.42128167881489
 20
38.043148163131271
 30
0.0
 11
169.50590479264699
 21
39.127771276966541
 31
0.0
  0
LINE
  5
1276
  8
TITLE
 10
168.42128167881489
 20
38.217717908426039
 30
0.0
 11
169.42584509583861
 21
39.222281325453203
 31
0.0
  0
LINE
  5
1277
  8
TITLE
 10
168.42128167881489
 20
38.130433035778417
 30
0.0
 11
169.4186199199994
 21
39.127771276966541
 31
0.0
  0
LINE
  5
1278
  8
TITLE
 10
168.42128167881489
 20
34.551753257273958
 30
0.0
 11
169.71828662300501
 21
35.848758201464079
 31
0.0
  0
LINE
  5
1279
  8
TITLE
 10
168.42128167881489
 20
35.424601983738292
 30
0.0
 11
170.76798896519631
 21
37.771309270119673
 31
0.0
  0
LINE
  5
127A
  8
TITLE
 10
168.42231796777011
 20
37.171335725622157
 30
0.0
 11
169.02229151226129
 21
37.771309270119673
 31
0.0
  0
LINE
  5
127B
  8
TITLE
 10
168.42128167881489
 20
34.988177620502483
 30
0.0
 11
171.20441332842529
 21
37.771309270119673
 31
0.0
  0
LINE
  5
127C
  8
TITLE
 10
168.42128167881489
 20
34.813607875211801
 30
0.0
 11
171.3789830737187
 21
37.771309270119673
 31
0.0
  0
LINE
  5
127D
  8
TITLE
 10
168.42128167881489
 20
34.726323002564641
 30
0.0
 11
171.46626794636629
 21
37.771309270119673
 31
0.0
  0
LINE
  5
127E
  8
TITLE
 10
168.42128167881489
 20
34.639038129921119
 30
0.0
 11
171.5535528190139
 21
37.771309270119673
 31
0.0
  0
LINE
  5
127F
  8
TITLE
 10
168.42128167881489
 20
34.900892747858961
 30
0.0
 11
171.29169820107199
 21
37.771309270119673
 31
0.0
  0
LINE
  5
1280
  8
TITLE
 10
168.42128167881489
 20
35.162747365796797
 30
0.0
 11
171.02984358313
 21
37.771309270119673
 31
0.0
  0
LINE
  5
1281
  8
TITLE
 10
168.42128167881489
 20
35.075462493149651
 30
0.0
 11
171.11712845577759
 21
37.771309270119673
 31
0.0
  0
LINE
  5
1282
  8
TITLE
 10
168.42128167881489
 20
35.337317111091117
 30
0.0
 11
170.85527383783659
 21
37.771309270119673
 31
0.0
  0
LINE
  5
1283
  8
TITLE
 10
168.42128167881489
 20
35.250032238443971
 30
0.0
 11
170.9425587104833
 21
37.771309270119673
 31
0.0
  0
LINE
  5
1284
  8
TITLE
 10
168.42128167881489
 20
37.43215405460478
 30
0.0
 11
168.7604368943266
 21
37.771309270119673
 31
0.0
  0
LINE
  5
1285
  8
TITLE
 10
168.42128167881489
 20
37.344869181961258
 30
0.0
 11
168.84772176697331
 21
37.771309270119673
 31
0.0
  0
LINE
  5
1286
  8
TITLE
 10
168.42128167881489
 20
37.257584309314097
 30
0.0
 11
168.93500663962001
 21
37.771309270119673
 31
0.0
  0
LINE
  5
1287
  8
TITLE
 10
168.42128167881489
 20
37.51943892725194
 30
0.0
 11
168.67315202167899
 21
37.771309270119673
 31
0.0
  0
LINE
  5
1288
  8
TITLE
 10
168.42128167881489
 20
37.694008672542623
 30
0.0
 11
168.4985822763847
 21
37.771309270119673
 31
0.0
  0
LINE
  5
1289
  8
TITLE
 10
168.42128167881489
 20
37.606723799899548
 30
0.0
 11
168.5858671490314
 21
37.771309270119673
 31
0.0
  0
LINE
  5
128A
  8
TITLE
 10
164.39619326200409
 20
37.771309270119673
 30
0.0
 11
164.97008104831539
 21
38.345197056431289
 31
0.0
  0
LINE
  5
128B
  8
TITLE
 10
164.4834781346444
 20
37.771309270119673
 30
0.0
 11
165.05736592095579
 21
38.345197056431289
 31
0.0
  0
LINE
  5
128C
  8
TITLE
 10
164.57076300729199
 20
37.771309270119673
 30
0.0
 11
165.1446507936034
 21
38.345197056431289
 31
0.0
  0
LINE
  5
128D
  8
TITLE
 10
164.65804787993869
 20
37.771309270119673
 30
0.0
 11
165.23193566625011
 21
38.345197056431289
 31
0.0
  0
LINE
  5
128E
  8
TITLE
 10
164.7453327525854
 20
37.771309270119673
 30
0.0
 11
165.31922053889679
 21
38.345197056431289
 31
0.0
  0
LINE
  5
128F
  8
TITLE
 10
164.8326176252321
 20
37.771309270119673
 30
0.0
 11
165.40650541154349
 21
38.345197056431289
 31
0.0
  0
LINE
  5
1290
  8
TITLE
 10
164.42122402334101
 20
35.788787960585978
 30
0.0
 11
164.916854289263
 21
36.284418226511661
 31
0.0
  0
LINE
  5
1291
  8
TITLE
 10
164.50850889598769
 20
35.788787960585978
 30
0.0
 11
165.00413916190971
 21
36.284418226511661
 31
0.0
  0
LINE
  5
1292
  8
TITLE
 10
164.59579376863439
 20
35.788787960585978
 30
0.0
 11
165.09142403455729
 21
36.284418226511661
 31
0.0
  0
LINE
  5
1293
  8
TITLE
 10
164.68307864128201
 20
35.788787960585978
 30
0.0
 11
165.178708907204
 21
36.284418226511661
 31
0.0
  0
LINE
  5
1294
  8
TITLE
 10
164.7703635139296
 20
35.788787960585978
 30
0.0
 11
165.2659937798507
 21
36.284418226511661
 31
0.0
  0
LINE
  5
1295
  8
TITLE
 10
164.857648386569
 20
35.788787960585978
 30
0.0
 11
165.35327865249931
 21
36.284418226511661
 31
0.0
  0
LINE
  5
1296
  8
TITLE
 10
164.41159364817031
 20
34.557169368366431
 30
0.0
 11
164.9422146894903
 21
35.087790409689212
 31
0.0
  0
LINE
  5
1297
  8
TITLE
 10
164.4705597219554
 20
34.528850569508002
 30
0.0
 11
165.0030037934466
 21
35.06129464099422
 31
0.0
  0
LINE
  5
1298
  8
TITLE
 10
164.53079454723041
 20
34.501800522135909
 30
0.0
 11
165.0668009389901
 21
35.037806913895793
 31
0.0
  0
LINE
  5
1299
  8
TITLE
 10
164.5923359918288
 20
34.476057094082989
 30
0.0
 11
165.1338636951977
 21
35.017584797455129
 31
0.0
  0
LINE
  5
129A
  8
TITLE
 10
164.65522661596879
 20
34.451662845584003
 30
0.0
 11
165.2045299025649
 21
35.000966132176472
 31
0.0
  0
LINE
  5
129B
  8
TITLE
 10
164.71951427805291
 20
34.428665635016159
 30
0.0
 11
165.27925029849939
 21
34.988401655463797
 31
0.0
  0
LINE
  5
129C
  8
TITLE
 10
164.78525286217331
 20
34.407119346489708
 30
0.0
 11
165.3586420420306
 21
34.980508526347187
 31
0.0
  0
LINE
  5
129D
  8
TITLE
 10
164.85250315731349
 20
34.387084768982511
 30
0.0
 11
165.44358207260299
 21
34.978163684272658
 31
0.0
  0
LINE
  5
129E
  8
TITLE
 10
164.4262653208097
 20
36.753962857166933
 30
0.0
 11
164.9479814678343
 21
37.275679004193989
 31
0.0
  0
LINE
  5
129F
  8
TITLE
 10
164.51355019345729
 20
36.753962857166933
 30
0.0
 11
165.035266340481
 21
37.275679004193989
 31
0.0
  0
LINE
  5
12A0
  8
TITLE
 10
164.60083506610499
 20
36.753962857166933
 30
0.0
 11
165.12255121312771
 21
37.275679004193989
 31
0.0
  0
LINE
  5
12A1
  8
TITLE
 10
164.6881199387517
 20
36.753962857166933
 30
0.0
 11
165.20983608577529
 21
37.275679004193989
 31
0.0
  0
LINE
  5
12A2
  8
TITLE
 10
164.7754048113984
 20
36.753962857166933
 30
0.0
 11
165.29712095842291
 21
37.275679004193989
 31
0.0
  0
LINE
  5
12A3
  8
TITLE
 10
164.86268968403871
 20
36.753962857166933
 30
0.0
 11
165.3844058310697
 21
37.275679004193989
 31
0.0
  0
LINE
  5
12A4
  8
TITLE
 10
166.82111832423831
 20
38.188682261491067
 30
0.0
 11
167.71606218197121
 21
39.083626119219623
 31
0.0
  0
LINE
  5
12A5
  8
TITLE
 10
167.78125192335031
 20
38.188682261487429
 30
0.0
 11
168.18620851319969
 21
38.593638851333708
 31
0.0
  0
LINE
  5
12A6
  8
TITLE
 10
167.8685367959969
 20
38.188682261487429
 30
0.0
 11
168.18620851319969
 21
38.506353978686548
 31
0.0
  0
LINE
  5
12A7
  8
TITLE
 10
167.9558216686446
 20
38.188682261487429
 30
0.0
 11
168.18620851319969
 21
38.419069106043032
 31
0.0
  0
LINE
  5
12A8
  8
TITLE
 10
168.1303914139389
 20
38.188682261491067
 30
0.0
 11
168.18620851319969
 21
38.24449936074916
 31
0.0
  0
LINE
  5
12A9
  8
TITLE
 10
168.04310654129219
 20
38.188682261487429
 30
0.0
 11
168.18620851319969
 21
38.331784233395872
 31
0.0
  0
LINE
  5
12AA
  8
TITLE
 10
166.88024637822849
 20
37.811385952246383
 30
0.0
 11
167.9357736294387
 21
38.866913203454722
 31
0.0
  0
LINE
  5
12AB
  8
TITLE
 10
166.88024637822849
 20
37.72410107959923
 30
0.0
 11
168.02305850208541
 21
38.866913203454722
 31
0.0
  0
LINE
  5
12AC
  8
TITLE
 10
166.88024637822849
 20
37.985955697537072
 30
0.0
 11
167.7612038841435
 21
38.866913203454722
 31
0.0
  0
LINE
  5
12AD
  8
TITLE
 10
166.88024637822849
 20
37.898670824889912
 30
0.0
 11
167.848488756791
 21
38.866913203454722
 31
0.0
  0
LINE
  5
12AE
  8
TITLE
 10
166.88024637822849
 20
38.073240570183771
 30
0.0
 11
167.71606218197121
 21
38.909056373925303
 31
0.0
  0
LINE
  5
12AF
  8
TITLE
 10
166.88024637822849
 20
38.160525442827293
 30
0.0
 11
167.71606218197121
 21
38.996341246572683
 31
0.0
  0
LINE
  5
12B0
  8
TITLE
 10
165.21288417146931
 20
38.762569924883337
 30
0.0
 11
165.67874446463239
 21
39.228430218039193
 31
0.0
  0
LINE
  5
12B1
  8
TITLE
 10
165.3001690441169
 20
38.762569924883337
 30
0.0
 11
165.67874446463239
 21
39.141145345395209
 31
0.0
  0
LINE
  5
12B2
  8
TITLE
 10
165.38745391676451
 20
38.762569924883337
 30
0.0
 11
165.67874446463239
 21
39.053860472748291
 31
0.0
  0
LINE
  5
12B3
  8
TITLE
 10
165.56202366205801
 20
38.762569924883337
 30
0.0
 11
165.67874446463239
 21
38.879290727453743
 31
0.0
  0
LINE
  5
12B4
  8
TITLE
 10
165.6493085347056
 20
38.762569924883337
 30
0.0
 11
165.67874446463239
 21
38.79200585480703
 31
0.0
  0
LINE
  5
12B5
  8
TITLE
 10
166.1489076667076
 20
38.825744693652723
 30
0.0
 11
166.19007617650999
 21
38.866913203454722
 31
0.0
  0
LINE
  5
12B6
  8
TITLE
 10
166.1489076667076
 20
38.738459821006018
 30
0.0
 11
166.2773610491567
 21
38.866913203454722
 31
0.0
  0
LINE
  5
12B7
  8
TITLE
 10
165.47473878941119
 20
38.762569924883337
 30
0.0
 11
165.67874446463239
 21
38.966575600101123
 31
0.0
  0
LINE
  5
12B8
  8
TITLE
 10
165.00718737052739
 20
37.771309270119673
 30
0.0
 11
165.50099165564461
 21
38.265113555233263
 31
0.0
  0
LINE
  5
12B9
  8
TITLE
 10
165.0944722431741
 20
37.771309270119673
 30
0.0
 11
165.50099165564461
 21
38.177828682585641
 31
0.0
  0
LINE
  5
12BA
  8
TITLE
 10
164.91990249788071
 20
37.771309270119673
 30
0.0
 11
165.49379028419199
 21
38.345197056431289
 31
0.0
  0
LINE
  5
12BB
  8
TITLE
 10
165.1817571158208
 20
37.771309270119673
 30
0.0
 11
165.50099165564461
 21
38.090543809941892
 31
0.0
  0
LINE
  5
12BC
  8
TITLE
 10
165.2690419884693
 20
37.771309270119673
 30
0.0
 11
165.50099165564461
 21
38.003258937294497
 31
0.0
  0
LINE
  5
12BD
  8
TITLE
 10
165.3563268611087
 20
37.771309270119673
 30
0.0
 11
165.50099165564461
 21
37.915974064647799
 31
0.0
  0
LINE
  5
12BE
  8
TITLE
 10
165.4436117337554
 20
37.771309270119673
 30
0.0
 11
165.50099165564461
 21
37.828689192000638
 31
0.0
  0
LINE
  5
12BF
  8
TITLE
 10
166.1489076667076
 20
38.476605203068168
 30
0.0
 11
166.53921566709869
 21
38.866913203454722
 31
0.0
  0
LINE
  5
12C0
  8
TITLE
 10
166.1489076667076
 20
38.389320330420787
 30
0.0
 11
166.62650053973809
 21
38.866913203454722
 31
0.0
  0
LINE
  5
12C1
  8
TITLE
 10
166.1489076667076
 20
38.302035457777272
 30
0.0
 11
166.71378541238479
 21
38.866913203454722
 31
0.0
  0
LINE
  5
12C2
  8
TITLE
 10
166.1489076667076
 20
38.56389007571147
 30
0.0
 11
166.4519307944511
 21
38.866913203454722
 31
0.0
  0
LINE
  5
12C3
  8
TITLE
 10
166.1489076667076
 20
38.651174948358403
 30
0.0
 11
166.3646459218034
 21
38.866913203454722
 31
0.0
  0
LINE
  5
12C4
  8
TITLE
 10
166.6465485789449
 20
38.188682261487429
 30
0.0
 11
167.71606218197121
 21
39.258195864510071
 31
0.0
  0
LINE
  5
12C5
  8
TITLE
 10
166.73383345159161
 20
38.188682261487429
 30
0.0
 11
167.71606218197121
 21
39.170910991863359
 31
0.0
  0
LINE
  5
12C6
  8
TITLE
 10
166.1489076667076
 20
38.214750585130112
 30
0.0
 11
166.80107028503241
 21
38.866913203454722
 31
0.0
  0
LINE
  5
12C7
  8
TITLE
 10
166.88024637822849
 20
35.716549008728627
 30
0.0
 11
167.71606218197121
 21
36.552364812469932
 31
0.0
  0
LINE
  5
12C8
  8
TITLE
 10
166.88024637822849
 20
35.629264136081481
 30
0.0
 11
167.71606218197121
 21
36.465079939822772
 31
0.0
  0
LINE
  5
12C9
  8
TITLE
 10
166.88024637822849
 20
35.541979263434769
 30
0.0
 11
167.71606218197121
 21
36.377795067175612
 31
0.0
  0
LINE
  5
12CA
  8
TITLE
 10
166.88024637822849
 20
35.454694390787147
 30
0.0
 11
167.71606218197121
 21
36.290510194532089
 31
0.0
  0
LINE
  5
12CB
  8
TITLE
 10
166.88024637822849
 20
35.367409518143859
 30
0.0
 11
167.71606218197121
 21
36.203225321884929
 31
0.0
  0
LINE
  5
12CC
  8
TITLE
 10
166.88024637822849
 20
35.280124645496471
 30
0.0
 11
167.71606218197121
 21
36.115940449241862
 31
0.0
  0
LINE
  5
12CD
  8
TITLE
 10
166.88024637822849
 20
35.192839772849311
 30
0.0
 11
167.71606218197121
 21
36.028655576594247
 31
0.0
  0
LINE
  5
12CE
  8
TITLE
 10
166.88024637822849
 20
35.978403626670122
 30
0.0
 11
167.71606218197121
 21
36.814219430411192
 31
0.0
  0
LINE
  5
12CF
  8
TITLE
 10
166.88024637822849
 20
35.891118754023189
 30
0.0
 11
167.71606218197121
 21
36.726934557764253
 31
0.0
  0
LINE
  5
12D0
  8
TITLE
 10
166.88024637822849
 20
35.803833881376249
 30
0.0
 11
167.71606218197121
 21
36.639649685117092
 31
0.0
  0
LINE
  5
12D1
  8
TITLE
 10
166.88024637822849
 20
34.843700282264308
 30
0.0
 11
167.71606218197121
 21
35.67951608600584
 31
0.0
  0
LINE
  5
12D2
  8
TITLE
 10
166.88024637822849
 20
34.756415409617148
 30
0.0
 11
167.71606218197121
 21
35.592231213358453
 31
0.0
  0
LINE
  5
12D3
  8
TITLE
 10
166.88024637822849
 20
34.669130536969988
 30
0.0
 11
167.71606218197121
 21
35.504946340711278
 31
0.0
  0
LINE
  5
12D4
  8
TITLE
 10
166.88024637822849
 20
34.581845664322827
 30
0.0
 11
167.71606218197121
 21
35.417661468067763
 31
0.0
  0
LINE
  5
12D5
  8
TITLE
 10
166.88024637822849
 20
34.494560791675667
 30
0.0
 11
167.71606218197121
 21
35.33037659542083
 31
0.0
  0
LINE
  5
12D6
  8
TITLE
 10
166.88024637822849
 20
34.407275919032152
 30
0.0
 11
167.71606218197121
 21
35.243091722773897
 31
0.0
  0
LINE
  5
12D7
  8
TITLE
 10
166.88024637822849
 20
34.319991046384978
 30
0.0
 11
167.71606218197121
 21
35.155806850130382
 31
0.0
  0
LINE
  5
12D8
  8
TITLE
 10
166.93820456857611
 20
34.290664364088123
 30
0.0
 11
167.71606218197121
 21
35.06852197748276
 31
0.0
  0
LINE
  5
12D9
  8
TITLE
 10
167.02548944122279
 20
34.290664364088123
 30
0.0
 11
167.71606218197121
 21
34.9812371048356
 31
0.0
  0
LINE
  5
12DA
  8
TITLE
 10
167.1127743138704
 20
34.290664364088123
 30
0.0
 11
167.71606218197121
 21
34.89395223218844
 31
0.0
  0
LINE
  5
12DB
  8
TITLE
 10
167.20005918651799
 20
34.290664364088123
 30
0.0
 11
167.71606218197121
 21
34.806667359541507
 31
0.0
  0
LINE
  5
12DC
  8
TITLE
 10
167.2873440591647
 20
34.290664364088123
 30
0.0
 11
167.71606218197121
 21
34.719382486894119
 31
0.0
  0
LINE
  5
12DD
  8
TITLE
 10
167.3746289318114
 20
34.290664364088123
 30
0.0
 11
167.71606218197121
 21
34.632097614246959
 31
0.0
  0
LINE
  5
12DE
  8
TITLE
 10
167.46191380445899
 20
34.290664364088123
 30
0.0
 11
167.71606218197121
 21
34.544812741599799
 31
0.0
  0
LINE
  5
12DF
  8
TITLE
 10
167.54919867710669
 20
34.290664364088123
 30
0.0
 11
167.71606218197121
 21
34.457527868956277
 31
0.0
  0
LINE
  5
12E0
  8
TITLE
 10
167.63648354975339
 20
34.290664364088123
 30
0.0
 11
167.71606218197121
 21
34.370242996309571
 31
0.0
  0
LINE
  5
12E1
  8
TITLE
 10
166.88024637822849
 20
35.105554900205789
 30
0.0
 11
167.71606218197121
 21
35.941370703947094
 31
0.0
  0
LINE
  5
12E2
  8
TITLE
 10
166.88024637822849
 20
35.018270027558628
 30
0.0
 11
167.71606218197121
 21
35.854085831299933
 31
0.0
  0
LINE
  5
12E3
  8
TITLE
 10
166.88024637822849
 20
34.93098515491193
 30
0.0
 11
167.71606218197121
 21
35.766800958652773
 31
0.0
  0
LINE
  5
12E4
  8
TITLE
 10
167.75207853396111
 20
36.850235782398613
 30
0.0
 11
168.18620851319969
 21
37.284365761640863
 31
0.0
  0
LINE
  5
12E5
  8
TITLE
 10
167.80073655151409
 20
36.811608927311227
 30
0.0
 11
168.18620851319969
 21
37.197080888993703
 31
0.0
  0
LINE
  5
12E6
  8
TITLE
 10
167.85035882454761
 20
36.77394632769392
 30
0.0
 11
168.18620851319969
 21
37.109796016346991
 31
0.0
  0
LINE
  5
12E7
  8
TITLE
 10
166.88024637822849
 20
36.152973371960798
 30
0.0
 11
168.18620851319969
 21
37.458935506932001
 31
0.0
  0
LINE
  5
12E8
  8
TITLE
 10
166.88024637822849
 20
36.065688499317282
 30
0.0
 11
168.18620851319969
 21
37.371650634284379
 31
0.0
  0
LINE
  5
12E9
  8
TITLE
 10
167.9009540285351
 20
36.737256659035211
 30
0.0
 11
168.18620851319969
 21
37.02251114369983
 31
0.0
  0
LINE
  5
12EA
  8
TITLE
 10
167.9525323819071
 20
36.70155013976273
 30
0.0
 11
168.18620851319969
 21
36.935226271052223
 31
0.0
  0
LINE
  5
12EB
  8
TITLE
 10
168.00510572374509
 20
36.666838608949767
 30
0.0
 11
168.18620851319969
 21
36.847941398405048
 31
0.0
  0
LINE
  5
12EC
  8
TITLE
 10
168.05868760605151
 20
36.633135618608783
 30
0.0
 11
168.18620851319969
 21
36.76065652575835
 31
0.0
  0
LINE
  5
12ED
  8
TITLE
 10
168.1132934023189
 20
36.60045654223677
 30
0.0
 11
168.18620851319969
 21
36.673371653110742
 31
0.0
  0
LINE
  5
12EE
  8
TITLE
 10
168.1689404345361
 20
36.568818701806322
 30
0.0
 11
168.18620851319969
 21
36.586086780467213
 31
0.0
  0
LINE
  5
12EF
  8
TITLE
 10
164.9449332592157
 20
35.788787960585978
 30
0.0
 11
165.44056352514599
 21
36.284418226511661
 31
0.0
  0
LINE
  5
12F0
  8
TITLE
 10
165.03221813186431
 20
35.788787960585978
 30
0.0
 11
165.52784839778539
 21
36.284418226511661
 31
0.0
  0
LINE
  5
12F1
  8
TITLE
 10
165.11950300451099
 20
35.788787960585978
 30
0.0
 11
165.6151332704321
 21
36.284418226511661
 31
0.0
  0
LINE
  5
12F2
  8
TITLE
 10
165.20678787715769
 20
35.788787960585978
 30
0.0
 11
165.67874446463239
 21
36.260744548060757
 31
0.0
  0
LINE
  5
12F3
  8
TITLE
 10
165.2940727498044
 20
35.788787960585978
 30
0.0
 11
165.67874446463239
 21
36.173459675413817
 31
0.0
  0
LINE
  5
12F4
  8
TITLE
 10
165.38135762245199
 20
35.788787960585978
 30
0.0
 11
165.67874446463239
 21
36.086174802766443
 31
0.0
  0
LINE
  5
12F5
  8
TITLE
 10
165.4686424950996
 20
35.788787960585978
 30
0.0
 11
165.67874446463239
 21
35.998889930119283
 31
0.0
  0
LINE
  5
12F6
  8
TITLE
 10
164.92133392699091
 20
34.36863066601336
 30
0.0
 11
165.5328311199228
 21
34.98012785894889
 31
0.0
  0
LINE
  5
12F7
  8
TITLE
 10
164.99182322103479
 20
34.351835087417392
 30
0.0
 11
165.62011599256951
 21
34.98012785894889
 31
0.0
  0
LINE
  5
12F8
  8
TITLE
 10
165.06405999876179
 20
34.336786992492307
 30
0.0
 11
165.67874446463239
 21
34.951471458360629
 31
0.0
  0
LINE
  5
12F9
  8
TITLE
 10
165.13814615752381
 20
34.323588278610707
 30
0.0
 11
165.67874446463239
 21
34.864186585713242
 31
0.0
  0
LINE
  5
12FA
  8
TITLE
 10
165.21419909690121
 20
34.312356345341868
 30
0.0
 11
165.67874446463239
 21
34.776901713069947
 31
0.0
  0
LINE
  5
12FB
  8
TITLE
 10
165.29235500095999
 20
34.303227376756702
 30
0.0
 11
165.67874446463239
 21
34.689616840422786
 31
0.0
  0
LINE
  5
12FC
  8
TITLE
 10
165.37277310049649
 20
34.296360603642832
 30
0.0
 11
165.67874446463239
 21
34.602331967779257
 31
0.0
  0
LINE
  5
12FD
  8
TITLE
 10
165.45564129791819
 20
34.291943928416913
 30
0.0
 11
165.67874446463239
 21
34.515047095132111
 31
0.0
  0
LINE
  5
12FE
  8
TITLE
 10
165.5416466062361
 20
34.290664364088123
 30
0.0
 11
165.67874446463239
 21
34.427762222485399
 31
0.0
  0
LINE
  5
12FF
  8
TITLE
 10
165.62893147888281
 20
34.290664364088123
 30
0.0
 11
165.67874446463239
 21
34.340477349837784
 31
0.0
  0
LINE
  5
1300
  8
TITLE
 10
165.55592736774631
 20
35.788787960585978
 30
0.0
 11
165.67874446463239
 21
35.911605057472123
 31
0.0
  0
LINE
  5
1301
  8
TITLE
 10
165.64321224039389
 20
35.788787960585978
 30
0.0
 11
165.67874446463239
 21
35.824320184824963
 31
0.0
  0
LINE
  5
1302
  8
TITLE
 10
164.9499745566863
 20
36.753962857166933
 30
0.0
 11
165.4716907037164
 21
37.275679004193989
 31
0.0
  0
LINE
  5
1303
  8
TITLE
 10
165.03725942933301
 20
36.753962857166933
 30
0.0
 11
165.50099165564461
 21
37.217695083474162
 31
0.0
  0
LINE
  5
1304
  8
TITLE
 10
165.1245443019798
 20
36.753962857166933
 30
0.0
 11
165.50099165564461
 21
37.130410210830178
 31
0.0
  0
LINE
  5
1305
  8
TITLE
 10
165.21182917462829
 20
36.753962857166933
 30
0.0
 11
165.50099165564461
 21
37.043125338183238
 31
0.0
  0
LINE
  5
1306
  8
TITLE
 10
165.299114047275
 20
36.753962857166933
 30
0.0
 11
165.50099165564461
 21
36.955840465536092
 31
0.0
  0
LINE
  5
1307
  8
TITLE
 10
165.3863989199217
 20
36.753962857166933
 30
0.0
 11
165.50099165564461
 21
36.868555592888697
 31
0.0
  0
LINE
  5
1308
  8
TITLE
 10
165.47368379256841
 20
36.753962857166933
 30
0.0
 11
165.50099165564461
 21
36.781270720241992
 31
0.0
  0
LINE
  5
1309
  8
TITLE
 10
166.1489076667076
 20
36.643622877491907
 30
0.0
 11
166.2453490475873
 21
36.740064258368882
 31
0.0
  0
LINE
  5
130A
  8
TITLE
 10
166.1489076667076
 20
35.770774151027581
 30
0.0
 11
167.98040322839461
 21
37.602269712715042
 31
0.0
  0
LINE
  5
130B
  8
TITLE
 10
166.1489076667076
 20
35.683489278380868
 30
0.0
 11
168.03230855200209
 21
37.56689016367136
 31
0.0
  0
LINE
  5
130C
  8
TITLE
 10
166.31078574890671
 20
35.758082487936242
 30
0.0
 11
168.08797630903419
 21
37.535273048055842
 31
0.0
  0
LINE
  5
130D
  8
TITLE
 10
166.55378948934501
 20
35.913801355720352
 30
0.0
 11
168.14767444277999
 21
37.507686309158323
 31
0.0
  0
LINE
  5
130E
  8
TITLE
 10
166.1489076667076
 20
35.945343896318271
 30
0.0
 11
167.88727696339259
 21
37.683713193003321
 31
0.0
  0
LINE
  5
130F
  8
TITLE
 10
166.1489076667076
 20
35.858059023671103
 30
0.0
 11
167.93208994968239
 21
37.641241306653463
 31
0.0
  0
LINE
  5
1310
  8
TITLE
 10
166.64848984491979
 20
37.143205055700271
 30
0.0
 11
168.18620851319969
 21
38.680923723981323
 31
0.0
  0
LINE
  5
1311
  8
TITLE
 10
166.1489076667076
 20
36.556338004845202
 30
0.0
 11
167.71606218197121
 21
38.123492520108357
 31
0.0
  0
LINE
  5
1312
  8
TITLE
 10
166.1489076667076
 20
36.469053132201232
 30
0.0
 11
167.71606218197121
 21
38.036207647460742
 31
0.0
  0
LINE
  5
1313
  8
TITLE
 10
166.1489076667076
 20
36.381768259554072
 30
0.0
 11
167.717425092892
 21
37.950285685731622
 31
0.0
  0
LINE
  5
1314
  8
TITLE
 10
166.1489076667076
 20
36.294483386906911
 30
0.0
 11
167.74361771013349
 21
37.889193430325577
 31
0.0
  0
LINE
  5
1315
  8
TITLE
 10
166.1489076667076
 20
36.207198514259737
 30
0.0
 11
167.77395436095139
 21
37.832245208504219
 31
0.0
  0
LINE
  5
1316
  8
TITLE
 10
166.1489076667076
 20
36.119913641612811
 30
0.0
 11
167.8081289049378
 21
37.779134879839148
 31
0.0
  0
LINE
  5
1317
  8
TITLE
 10
166.1489076667076
 20
36.032628768965878
 30
0.0
 11
167.84594176974579
 21
37.729662872007793
 31
0.0
  0
LINE
  5
1318
  8
TITLE
 10
166.87125114582969
 20
37.627820974556023
 30
0.0
 11
168.11034337473211
 21
38.866913203454722
 31
0.0
  0
LINE
  5
1319
  8
TITLE
 10
166.8317516961751
 20
37.501036652250377
 30
0.0
 11
168.18620851319969
 21
38.855493469275189
 31
0.0
  0
LINE
  5
131A
  8
TITLE
 10
166.76888234873871
 20
37.350882432170692
 30
0.0
 11
168.18620851319969
 21
38.768208596628263
 31
0.0
  0
LINE
  5
131B
  8
TITLE
 10
168.5011941101375
 20
38.035775721813707
 30
0.0
 11
169.5931896652946
 21
39.127771276966541
 31
0.0
  0
LINE
  5
131C
  8
TITLE
 10
168.6684176999479
 20
38.115714438969462
 30
0.0
 11
169.68047453794131
 21
39.127771276966541
 31
0.0
  0
LINE
  5
131D
  8
TITLE
 10
168.56234162742749
 20
34.605528333243463
 30
0.0
 11
169.60698555393441
 21
35.650172259746341
 31
0.0
  0
LINE
  5
131E
  8
TITLE
 10
168.8399613945266
 20
34.795863227695008
 30
0.0
 11
169.41665065948291
 21
35.372552492647173
 31
0.0
  0
LINE
  5
131F
  8
TITLE
 10
168.66624012647119
 20
35.756845304045328
 30
0.0
 11
170.68070409254869
 21
37.771309270119673
 31
0.0
  0
LINE
  5
1320
  8
TITLE
 10
168.96920274991501
 20
36.234377672779381
 30
0.0
 11
170.56305938401781
 21
37.82823430687904
 31
0.0
  0
LINE
  5
1321
  8
TITLE
 10
168.85657310276841
 20
36.034463152986291
 30
0.0
 11
170.59341921990199
 21
37.771309270119673
 31
0.0
  0
LINE
  5
1322
  8
TITLE
 10
168.50960284041679
 20
37.171335725622157
 30
0.0
 11
169.109576384908
 21
37.771309270119673
 31
0.0
  0
LINE
  5
1323
  8
TITLE
 10
168.5968877130644
 20
37.171335725622157
 30
0.0
 11
169.1968612575547
 21
37.771309270119673
 31
0.0
  0
LINE
  5
1324
  8
TITLE
 10
168.6841725857048
 20
37.171335725622157
 30
0.0
 11
169.28414613020141
 21
37.771309270119673
 31
0.0
  0
LINE
  5
1325
  8
TITLE
 10
168.77145745835151
 20
37.171335725622157
 30
0.0
 11
169.37143100284899
 21
37.771309270119673
 31
0.0
  0
LINE
  5
1326
  8
TITLE
 10
168.85874233099821
 20
37.171335725622157
 30
0.0
 11
169.45871587549661
 21
37.771309270119673
 31
0.0
  0
LINE
  5
1327
  8
TITLE
 10
168.9460272036458
 20
37.171335725622157
 30
0.0
 11
169.54600074814331
 21
37.771309270119673
 31
0.0
  0
LINE
  5
1328
  8
TITLE
 10
172.29475386004381
 20
38.948934674385328
 30
0.0
 11
172.47359021679671
 21
39.12777103113104
 31
0.0
  0
LINE
  5
1329
  8
TITLE
 10
172.29475386004381
 20
38.861649801738167
 30
0.0
 11
172.5608750894371
 21
39.12777103113104
 31
0.0
  0
LINE
  5
132A
  8
TITLE
 10
170.93956907720531
 20
38.553883490655153
 30
0.0
 11
171.51345686351669
 21
39.127771276966541
 31
0.0
  0
LINE
  5
132B
  8
TITLE
 10
170.8522842045586
 20
38.553883490655153
 30
0.0
 11
171.42617199086999
 21
39.127771276966541
 31
0.0
  0
LINE
  5
132C
  8
TITLE
 10
171.28870856779389
 20
38.553883490655153
 30
0.0
 11
171.84290230430361
 21
39.108077227168913
 31
0.0
  0
LINE
  5
132D
  8
TITLE
 10
171.02685394985201
 20
38.553883490655153
 30
0.0
 11
171.6007417361634
 21
39.127771276966541
 31
0.0
  0
LINE
  5
132E
  8
TITLE
 10
171.1141388224996
 20
38.553883490655153
 30
0.0
 11
171.68802660881099
 21
39.127771276966541
 31
0.0
  0
LINE
  5
132F
  8
TITLE
 10
171.20142369514721
 20
38.553883490655153
 30
0.0
 11
171.7753114814586
 21
39.127771276966541
 31
0.0
  0
LINE
  5
1330
  8
TITLE
 10
171.72513293102199
 20
38.553883490655153
 30
0.0
 11
171.84290230430361
 21
38.67165286394016
 31
0.0
  0
LINE
  5
1331
  8
TITLE
 10
171.8124178036696
 20
38.553883490655153
 30
0.0
 11
171.84290230430361
 21
38.584367991292773
 31
0.0
  0
LINE
  5
1332
  8
TITLE
 10
171.55056318572861
 20
38.553883490655153
 30
0.0
 11
171.84290230430361
 21
38.846222609234253
 31
0.0
  0
LINE
  5
1333
  8
TITLE
 10
171.63784805837531
 20
38.553883490655153
 30
0.0
 11
171.84290230430361
 21
38.758937736587093
 31
0.0
  0
LINE
  5
1334
  8
TITLE
 10
171.3759934404406
 20
38.553883490655153
 30
0.0
 11
171.84290230430361
 21
39.020792354525383
 31
0.0
  0
LINE
  5
1335
  8
TITLE
 10
171.46327831308099
 20
38.553883490655153
 30
0.0
 11
171.84290230430361
 21
38.93350748187823
 31
0.0
  0
LINE
  5
1336
  8
TITLE
 10
172.29475386004381
 20
39.123504419676458
 30
0.0
 11
172.29902047150239
 21
39.12777103113104
 31
0.0
  0
LINE
  5
1337
  8
TITLE
 10
172.29475386004381
 20
39.036219547032943
 30
0.0
 11
172.38630534414909
 21
39.12777103113104
 31
0.0
  0
LINE
  5
1338
  8
TITLE
 10
170.8626113497412
 20
35.421955220565913
 30
0.0
 11
171.4656565218047
 21
36.025000392628961
 31
0.0
  0
LINE
  5
1339
  8
TITLE
 10
170.90008524639589
 20
35.372144244569881
 30
0.0
 11
171.4993828035731
 21
35.971441801750188
 31
0.0
  0
LINE
  5
133A
  8
TITLE
 10
170.9384419205808
 20
35.323216046111163
 30
0.0
 11
171.53400542069991
 21
35.918779546230333
 31
0.0
  0
LINE
  5
133B
  8
TITLE
 10
170.9776750227829
 20
35.275164275665929
 30
0.0
 11
171.569513556582
 21
35.867002809471607
 31
0.0
  0
LINE
  5
133C
  8
TITLE
 10
171.23125812494979
 20
35.005038141950081
 30
0.0
 11
171.80069827838631
 21
35.574478295389333
 31
0.0
  0
LINE
  5
133D
  8
TITLE
 10
171.27653760769499
 20
34.96303275205446
 30
0.0
 11
171.84219738700989
 21
35.528692531370318
 31
0.0
  0
LINE
  5
133E
  8
TITLE
 10
171.41756898201129
 20
34.842209508430642
 30
0.0
 11
171.84290230430361
 21
35.26754283072615
 31
0.0
  0
LINE
  5
133F
  8
TITLE
 10
171.32268044736881
 20
34.921890719081148
 30
0.0
 11
171.84290230430361
 21
35.44211257602047
 31
0.0
  0
LINE
  5
1340
  8
TITLE
 10
171.3696895804878
 20
34.881614979553433
 30
0.0
 11
171.84290230430361
 21
35.354827703373303
 31
0.0
  0
LINE
  5
1341
  8
TITLE
 10
171.01777930280329
 20
35.227983683042567
 30
0.0
 11
171.6058976053564
 21
35.816101985592468
 31
0.0
  0
LINE
  5
1342
  8
TITLE
 10
171.05875057807589
 20
35.181670085664791
 30
0.0
 11
171.6431491125222
 21
35.766068620114773
 31
0.0
  0
LINE
  5
1343
  8
TITLE
 10
171.1005857086447
 20
35.136220343586963
 30
0.0
 11
171.68126072388441
 21
35.716895358825688
 31
0.0
  0
LINE
  5
1344
  8
TITLE
 10
171.14328257862141
 20
35.091632340923752
 30
0.0
 11
171.72022614195521
 21
35.668575904249792
 31
0.0
  0
LINE
  5
1345
  8
TITLE
 10
171.18684008375379
 20
35.04790497340764
 30
0.0
 11
171.76004008932981
 21
35.621104978976753
 31
0.0
  0
LINE
  5
1346
  8
TITLE
 10
171.46632368907191
 20
34.803679342843679
 30
0.0
 11
171.84290230430361
 21
35.18025795808262
 31
0.0
  0
LINE
  5
1347
  8
TITLE
 10
171.5159598313094
 20
34.766030612433269
 30
0.0
 11
171.84290230430361
 21
35.09297308543546
 31
0.0
  0
LINE
  5
1348
  8
TITLE
 10
171.56648466835389
 20
34.729270576834551
 30
0.0
 11
171.84290230430361
 21
35.0056882127883
 31
0.0
  0
LINE
  5
1349
  8
TITLE
 10
171.6702353943474
 20
34.65845155753459
 30
0.0
 11
171.84290230430361
 21
34.83111846749398
 31
0.0
  0
LINE
  5
134A
  8
TITLE
 10
171.72348190099731
 20
34.624413191532987
 30
0.0
 11
171.84290230430361
 21
34.743833594846819
 31
0.0
  0
LINE
  5
134B
  8
TITLE
 10
171.8327788769511
 20
34.559140422195931
 30
0.0
 11
171.84290230430361
 21
34.569263849552499
 31
0.0
  0
LINE
  5
134C
  8
TITLE
 10
171.7776584731491
 20
34.591304891044501
 30
0.0
 11
171.84290230430361
 21
34.656548722199659
 31
0.0
  0
LINE
  5
134D
  8
TITLE
 10
171.61790663494321
 20
34.693407670773929
 30
0.0
 11
171.84290230430361
 21
34.91840334014114
 31
0.0
  0
LINE
  5
134E
  8
TITLE
 10
172.29475386004381
 20
35.108400277939381
 30
0.0
 11
172.32305931261359
 21
35.13670573050922
 31
0.0
  0
LINE
  5
134F
  8
TITLE
 10
172.29475386004381
 20
35.021115405292221
 30
0.0
 11
172.413232672352
 21
35.139594217600461
 31
0.0
  0
LINE
  5
1350
  8
TITLE
 10
172.29475386004381
 20
34.933830532645061
 30
0.0
 11
172.5039899720459
 21
35.143066644650851
 31
0.0
  0
LINE
  5
1351
  8
TITLE
 10
171.302718765105
 20
37.171335725622157
 30
0.0
 11
171.84290230430361
 21
37.711519264828439
 31
0.0
  0
LINE
  5
1352
  8
TITLE
 10
171.39000363774539
 20
37.171335725622157
 30
0.0
 11
171.84290230430361
 21
37.624234392181727
 31
0.0
  0
LINE
  5
1353
  8
TITLE
 10
171.4772885103921
 20
37.171335725622157
 30
0.0
 11
171.84290230430361
 21
37.536949519534119
 31
0.0
  0
LINE
  5
1354
  8
TITLE
 10
171.56457338303881
 20
37.171335725622157
 30
0.0
 11
171.84290230430361
 21
37.449664646886959
 31
0.0
  0
LINE
  5
1355
  8
TITLE
 10
171.65185825568639
 20
37.171335725622157
 30
0.0
 11
171.84290230430361
 21
37.362379774240253
 31
0.0
  0
LINE
  5
1356
  8
TITLE
 10
171.82642800098071
 20
37.171335725622157
 30
0.0
 11
171.84290230430361
 21
37.187810028949343
 31
0.0
  0
LINE
  5
1357
  8
TITLE
 10
171.73914312833401
 20
37.171335725622157
 30
0.0
 11
171.84290230430361
 21
37.275094901592873
 31
0.0
  0
LINE
  5
1358
  8
TITLE
 10
172.4514693816254
 20
37.70909223362014
 30
0.0
 11
172.46151465592081
 21
37.719137507916457
 31
0.0
  0
LINE
  5
1359
  8
TITLE
 10
172.4514693816254
 20
37.621807360973207
 30
0.0
 11
172.5487995285693
 21
37.719137507916457
 31
0.0
  0
LINE
  5
135A
  8
TITLE
 10
171.21543389245741
 20
37.171335725622157
 30
0.0
 11
171.81540743694759
 21
37.771309270119673
 31
0.0
  0
LINE
  5
135B
  8
TITLE
 10
171.040864147164
 20
37.171335725622157
 30
0.0
 11
171.64083769166061
 21
37.771309270119673
 31
0.0
  0
LINE
  5
135C
  8
TITLE
 10
171.12814901981071
 20
37.171335725622157
 30
0.0
 11
171.72812256430731
 21
37.771309270119673
 31
0.0
  0
LINE
  5
135D
  8
TITLE
 10
169.7533630284633
 20
38.065956423079342
 30
0.0
 11
170.81517788234669
 21
39.127771276966541
 31
0.0
  0
LINE
  5
135E
  8
TITLE
 10
169.7533630284633
 20
38.41509591366821
 30
0.0
 11
170.56305938401781
 21
39.224792269222689
 31
0.0
  0
LINE
  5
135F
  8
TITLE
 10
169.7533630284633
 20
38.327811041021278
 30
0.0
 11
170.56305938401781
 21
39.137507396575757
 31
0.0
  0
LINE
  5
1360
  8
TITLE
 10
169.7533630284633
 20
38.240526168374117
 30
0.0
 11
170.64060813705331
 21
39.127771276966541
 31
0.0
  0
LINE
  5
1361
  8
TITLE
 10
169.7533630284633
 20
38.153241295726957
 30
0.0
 11
170.72789300970001
 21
39.127771276966541
 31
0.0
  0
LINE
  5
1362
  8
TITLE
 10
169.7533630284633
 20
34.836416135163752
 30
0.0
 11
170.56305938401781
 21
35.646112490718217
 31
0.0
  0
LINE
  5
1363
  8
TITLE
 10
169.7533630284633
 20
34.749131262516592
 30
0.0
 11
170.56305938401781
 21
35.558827618070843
 31
0.0
  0
LINE
  5
1364
  8
TITLE
 10
169.7533630284633
 20
34.661846389869197
 30
0.0
 11
170.56305938401781
 21
35.471542745423683
 31
0.0
  0
LINE
  5
1365
  8
TITLE
 10
169.7533630284633
 20
34.574561517222257
 30
0.0
 11
170.56305938401781
 21
35.384257872776523
 31
0.0
  0
LINE
  5
1366
  8
TITLE
 10
169.7533630284633
 20
34.487276644575111
 30
0.0
 11
170.56305938401781
 21
35.296973000129128
 31
0.0
  0
LINE
  5
1367
  8
TITLE
 10
169.7533630284633
 20
34.399991771931582
 30
0.0
 11
170.56305938401781
 21
35.209688127485613
 31
0.0
  0
LINE
  5
1368
  8
TITLE
 10
169.7533630284633
 20
34.312706899284422
 30
0.0
 11
170.56305938401781
 21
35.1224032548389
 31
0.0
  0
LINE
  5
1369
  8
TITLE
 10
169.818605365911
 20
34.290664364088123
 30
0.0
 11
170.56305938401781
 21
35.035118382191513
 31
0.0
  0
LINE
  5
136A
  8
TITLE
 10
169.9058902385577
 20
34.290664364088123
 30
0.0
 11
170.56305938401781
 21
34.947833509548218
 31
0.0
  0
LINE
  5
136B
  8
TITLE
 10
169.7533630284633
 20
34.923701007810912
 30
0.0
 11
170.56305938401781
 21
35.733397363365157
 31
0.0
  0
LINE
  5
136C
  8
TITLE
 10
169.99317511120529
 20
34.290664364088123
 30
0.0
 11
170.56305938401781
 21
34.860548636901058
 31
0.0
  0
LINE
  5
136D
  8
TITLE
 10
170.08045998385199
 20
34.290664364088123
 30
0.0
 11
170.56305938401781
 21
34.773263764253898
 31
0.0
  0
LINE
  5
136E
  8
TITLE
 10
170.1677448564987
 20
34.290664364088123
 30
0.0
 11
170.56305938401781
 21
34.685978891606972
 31
0.0
  0
LINE
  5
136F
  8
TITLE
 10
170.2550297291472
 20
34.290664364088123
 30
0.0
 11
170.56305938401781
 21
34.598694018959577
 31
0.0
  0
LINE
  5
1370
  8
TITLE
 10
170.34231460179399
 20
34.290664364088123
 30
0.0
 11
170.56305938401781
 21
34.511409146311962
 31
0.0
  0
LINE
  5
1371
  8
TITLE
 10
170.42959947444069
 20
34.290664364088123
 30
0.0
 11
170.56305938401781
 21
34.424124273664802
 31
0.0
  0
LINE
  5
1372
  8
TITLE
 10
170.51688434708009
 20
34.290664364088123
 30
0.0
 11
170.56305938401781
 21
34.336839401017869
 31
0.0
  0
LINE
  5
1373
  8
TITLE
 10
169.7533630284633
 20
35.098270753101588
 30
0.0
 11
170.56305938401781
 21
35.907967108659712
 31
0.0
  0
LINE
  5
1374
  8
TITLE
 10
169.7533630284633
 20
35.010985880458058
 30
0.0
 11
170.56305938401781
 21
35.82068223601209
 31
0.0
  0
LINE
  5
1375
  8
TITLE
 10
169.2078818215877
 20
37.171335725622157
 30
0.0
 11
170.56305938401781
 21
38.526513288052691
 31
0.0
  0
LINE
  5
1376
  8
TITLE
 10
169.23370010085091
 20
36.935299386951101
 30
0.0
 11
170.56305938401781
 21
38.264658670111203
 31
0.0
  0
LINE
  5
1377
  8
TITLE
 10
169.2014597069246
 20
36.815774120378137
 30
0.0
 11
170.56305938401781
 21
38.177373797464043
 31
0.0
  0
LINE
  5
1378
  8
TITLE
 10
169.28071145862671
 20
37.156880490022097
 30
0.0
 11
170.56305938401781
 21
38.439228415405523
 31
0.0
  0
LINE
  5
1379
  8
TITLE
 10
169.25978908588871
 20
37.048673244629761
 30
0.0
 11
170.56305938401781
 21
38.35194354275837
 31
0.0
  0
LINE
  5
137A
  8
TITLE
 10
169.1616872806444
 20
36.68871682145118
 30
0.0
 11
170.56305938401781
 21
38.090088924816882
 31
0.0
  0
LINE
  5
137B
  8
TITLE
 10
169.11233770585019
 20
36.552082374001657
 30
0.0
 11
170.56305938401781
 21
38.002804052169722
 31
0.0
  0
LINE
  5
137C
  8
TITLE
 10
169.05013835564199
 20
36.402598151154052
 30
0.0
 11
170.56305938401781
 21
37.915519179526648
 31
0.0
  0
LINE
  5
137D
  8
TITLE
 10
169.03331207629341
 20
37.171335725622157
 30
0.0
 11
169.63328562078999
 21
37.771309270119673
 31
0.0
  0
LINE
  5
137E
  8
TITLE
 10
169.12059694894009
 20
37.171335725622157
 30
0.0
 11
169.72057049343761
 21
37.771309270119673
 31
0.0
  0
LINE
  5
137F
  8
TITLE
 10
169.7533630284633
 20
37.978671550436047
 30
0.0
 11
170.90246275499339
 21
39.127771276966541
 31
0.0
  0
LINE
  5
1380
  8
TITLE
 10
169.7533630284633
 20
37.891386677788887
 30
0.0
 11
170.98974762764101
 21
39.127771276966541
 31
0.0
  0
LINE
  5
1381
  8
TITLE
 10
169.7533630284633
 20
37.804101805145358
 30
0.0
 11
171.07703250028129
 21
39.127771276966541
 31
0.0
  0
LINE
  5
1382
  8
TITLE
 10
170.76499933191189
 20
38.553883490655153
 30
0.0
 11
171.33888711822331
 21
39.127771276966541
 31
0.0
  0
LINE
  5
1383
  8
TITLE
 10
170.59042958661661
 20
38.553883490655153
 30
0.0
 11
171.164317372928
 21
39.127771276966541
 31
0.0
  0
LINE
  5
1384
  8
TITLE
 10
170.67771445926331
 20
38.553883490655153
 30
0.0
 11
171.2516022455757
 21
39.127771276966541
 31
0.0
  0
LINE
  5
1385
  8
TITLE
 10
169.7533630284633
 20
35.883834606922392
 30
0.0
 11
171.0343297850213
 21
37.164801363480372
 31
0.0
  0
LINE
  5
1386
  8
TITLE
 10
169.7533630284633
 20
35.796549734275231
 30
0.0
 11
171.04796205820909
 21
37.09114876402078
 31
0.0
  0
LINE
  5
1387
  8
TITLE
 10
169.7533630284633
 20
35.709264861628071
 30
0.0
 11
171.06305517110101
 21
37.018957004265758
 31
0.0
  0
LINE
  5
1388
  8
TITLE
 10
169.7533630284633
 20
35.621979988980911
 30
0.0
 11
171.07954485204391
 21
36.948161812561011
 31
0.0
  0
LINE
  5
1389
  8
TITLE
 10
169.7533630284633
 20
35.534695116333523
 30
0.0
 11
171.09737342765939
 21
36.878705515537149
 31
0.0
  0
LINE
  5
138A
  8
TITLE
 10
169.7533630284633
 20
35.447410243686591
 30
0.0
 11
171.1164889783667
 21
36.810536193593407
 31
0.0
  0
LINE
  5
138B
  8
TITLE
 10
169.7533630284633
 20
35.360125371039203
 30
0.0
 11
171.13684463262871
 21
36.743606975211613
 31
0.0
  0
LINE
  5
138C
  8
TITLE
 10
169.7533630284633
 20
35.272840498395908
 30
0.0
 11
171.1583979733586
 21
36.677875443295306
 31
0.0
  0
LINE
  5
138D
  8
TITLE
 10
170.6568119217591
 20
35.73986502845878
 30
0.0
 11
171.2828997317356
 21
36.365952838435533
 31
0.0
  0
LINE
  5
138E
  8
TITLE
 10
170.6887883011895
 20
35.684556535250067
 30
0.0
 11
171.31094301496429
 21
36.30671124901756
 31
0.0
  0
LINE
  5
138F
  8
TITLE
 10
170.72171140923999
 20
35.630194770646092
 30
0.0
 11
171.3399775892903
 21
36.248460950695751
 31
0.0
  0
LINE
  5
1390
  8
TITLE
 10
170.75556718291679
 20
35.576765671683013
 30
0.0
 11
171.36998352719269
 21
36.191182015958702
 31
0.0
  0
LINE
  5
1391
  8
TITLE
 10
170.79034302516439
 20
35.524256641282591
 30
0.0
 11
171.4009427056771
 21
36.134856321796178
 31
0.0
  0
LINE
  5
1392
  8
TITLE
 10
170.82602771841081
 20
35.472656461883162
 30
0.0
 11
171.43283867123131
 21
36.079467414699138
 31
0.0
  0
LINE
  5
1393
  8
TITLE
 10
169.7533630284633
 20
35.185555625748748
 30
0.0
 11
171.18111053549001
 21
36.613303132779947
 31
0.0
  0
LINE
  5
1394
  8
TITLE
 10
170.56672796720699
 20
35.911635691849597
 30
0.0
 11
171.20494737851641
 21
36.549855103161917
 31
0.0
  0
LINE
  5
1395
  8
TITLE
 10
170.59576354154339
 20
35.853386393538592
 30
0.0
 11
171.2298767209268
 21
36.487499572921251
 31
0.0
  0
LINE
  5
1396
  8
TITLE
 10
170.62579789924709
 20
35.796135878594441
 30
0.0
 11
171.255869626144
 21
36.426207605491527
 31
0.0
  0
LINE
  5
1397
  8
TITLE
 10
164.366734627516
 20
39.662117833854609
 30
0.0
 11
164.55990504502
 21
39.855288251358161
 31
0.0
  0
LINE
  5
1398
  8
TITLE
 10
164.44450936371501
 20
39.827177442700759
 30
0.0
 11
164.4726201723733
 21
39.855288251358161
 31
0.0
  0
LINE
  5
1399
  8
TITLE
 10
166.88024637822849
 20
39.557083405174581
 30
0.0
 11
167.17845122441301
 21
39.855288251358161
 31
0.0
  0
LINE
  5
139A
  8
TITLE
 10
166.88024637822849
 20
39.46979853252742
 30
0.0
 11
167.2657360970606
 21
39.855288251358161
 31
0.0
  0
LINE
  5
139B
  8
TITLE
 10
166.88024637822849
 20
39.38251365988026
 30
0.0
 11
167.3530209697073
 21
39.855288251358161
 31
0.0
  0
LINE
  5
139C
  8
TITLE
 10
166.88024637822849
 20
39.644368277821741
 30
0.0
 11
167.09116635176539
 21
39.855288251358161
 31
0.0
  0
LINE
  5
139D
  8
TITLE
 10
166.88024637822849
 20
39.818938023112878
 30
0.0
 11
166.91659660647201
 21
39.855288251358161
 31
0.0
  0
LINE
  5
139E
  8
TITLE
 10
166.88024637822849
 20
39.731653150465718
 30
0.0
 11
167.00388147911869
 21
39.855288251358161
 31
0.0
  0
LINE
  5
139F
  8
TITLE
 10
166.88024637822849
 20
39.295228787233562
 30
0.0
 11
167.44030584235401
 21
39.855288251358161
 31
0.0
  0
LINE
  5
13A0
  8
TITLE
 10
168.73471248846181
 20
39.578567189831567
 30
0.0
 11
169.01143354998931
 21
39.855288251358161
 31
0.0
  0
LINE
  5
13A1
  8
TITLE
 10
168.73471248846181
 20
39.491282317184869
 30
0.0
 11
169.09871842263601
 21
39.855288251358161
 31
0.0
  0
LINE
  5
13A2
  8
TITLE
 10
168.730410541114
 20
39.399695497188993
 30
0.0
 11
169.18600329528269
 21
39.855288251358161
 31
0.0
  0
LINE
  5
13A3
  8
TITLE
 10
168.73471248846181
 20
39.665852062478741
 30
0.0
 11
168.92414867734169
 21
39.855288251358161
 31
0.0
  0
LINE
  5
13A4
  8
TITLE
 10
168.73471248846181
 20
39.840421807769651
 30
0.0
 11
168.7495789320474
 21
39.855288251358161
 31
0.0
  0
LINE
  5
13A5
  8
TITLE
 10
168.73471248846181
 20
39.753136935122711
 30
0.0
 11
168.83686380469399
 21
39.855288251358161
 31
0.0
  0
LINE
  5
13A6
  8
TITLE
 10
169.7533630284633
 20
39.637084130721178
 30
0.0
 11
169.97156714910031
 21
39.855288251358161
 31
0.0
  0
LINE
  5
13A7
  8
TITLE
 10
169.7533630284633
 20
39.549799258074017
 30
0.0
 11
170.0588520217479
 21
39.855288251358161
 31
0.0
  0
LINE
  5
13A8
  8
TITLE
 10
169.7533630284633
 20
39.462514385426857
 30
0.0
 11
170.1461368943946
 21
39.855288251358161
 31
0.0
  0
LINE
  5
13A9
  8
TITLE
 10
169.7533630284633
 20
39.375229512779697
 30
0.0
 11
170.23342176704131
 21
39.855288251358161
 31
0.0
  0
LINE
  5
13AA
  8
TITLE
 10
169.7533630284633
 20
39.81165387601186
 30
0.0
 11
169.79699740380599
 21
39.855288251358161
 31
0.0
  0
LINE
  5
13AB
  8
TITLE
 10
169.7533630284633
 20
39.724369003365162
 30
0.0
 11
169.88428227645269
 21
39.855288251358161
 31
0.0
  0
LINE
  5
13AC
  8
TITLE
 10
168.70820579424071
 20
39.290205877672179
 30
0.0
 11
169.27328816792939
 21
39.855288251358161
 31
0.0
  0
LINE
  5
13AD
  8
TITLE
 10
169.7533630284633
 20
39.287944640132991
 30
0.0
 11
170.32070663968901
 21
39.855288251358161
 31
0.0
  0
LINE
  5
13AE
  8
TITLE
 10
175.08609867720949
 20
38.42345433098194
 30
0.0
 11
176.51793259758691
 21
39.855288251358161
 31
0.0
  0
LINE
  5
13AF
  8
TITLE
 10
175.17338354985711
 20
38.42345433098194
 30
0.0
 11
176.5521900557724
 21
39.802260836899677
 31
0.0
  0
LINE
  5
13B0
  8
TITLE
 10
175.26066842250469
 20
38.42345433098194
 30
0.0
 11
176.5521900557724
 21
39.714975964252972
 31
0.0
  0
LINE
  5
13B1
  8
TITLE
 10
175.3479532951514
 20
38.42345433098194
 30
0.0
 11
176.5521900557724
 21
39.627691091609002
 31
0.0
  0
LINE
  5
13B2
  8
TITLE
 10
175.43523816779179
 20
38.42345433098194
 30
0.0
 11
176.5521900557724
 21
39.540406218961827
 31
0.0
  0
LINE
  5
13B3
  8
TITLE
 10
175.5225230404385
 20
38.42345433098194
 30
0.0
 11
176.5521900557724
 21
39.453121346314681
 31
0.0
  0
LINE
  5
13B4
  8
TITLE
 10
175.60980791308609
 20
38.42345433098194
 30
0.0
 11
176.5521900557724
 21
39.365836473667507
 31
0.0
  0
LINE
  5
13B5
  8
TITLE
 10
175.71637448553969
 20
39.141015011958189
 30
0.0
 11
176.43064772493921
 21
39.855288251358161
 31
0.0
  0
LINE
  5
13B6
  8
TITLE
 10
175.71637448553969
 20
39.228299884605583
 30
0.0
 11
176.3433628522925
 21
39.855288251358161
 31
0.0
  0
LINE
  5
13B7
  8
TITLE
 10
178.62195175007221
 20
37.856918389459217
 30
0.0
 11
180.171437896226
 21
39.406404535614001
 31
0.0
  0
LINE
  5
13B8
  8
TITLE
 10
178.7343118213102
 20
37.881993588050143
 30
0.0
 11
180.70760648461419
 21
39.855288251358161
 31
0.0
  0
LINE
  5
13B9
  8
TITLE
 10
176.56994151219709
 20
38.42345433098194
 30
0.0
 11
177.2742582123465
 21
39.12777103113104
 31
0.0
  0
LINE
  5
13BA
  8
TITLE
 10
176.65722638484471
 20
38.42345433098194
 30
0.0
 11
177.361543084994
 21
39.12777103113104
 31
0.0
  0
LINE
  5
13BB
  8
TITLE
 10
175.71637448553969
 20
37.831741922261926
 30
0.0
 11
177.0124035944136
 21
39.12777103113104
 31
0.0
  0
LINE
  5
13BC
  8
TITLE
 10
175.71637448553969
 20
37.744457049618177
 30
0.0
 11
177.099688467053
 21
39.12777103113104
 31
0.0
  0
LINE
  5
13BD
  8
TITLE
 10
175.71637448553969
 20
38.093596540199542
 30
0.0
 11
176.7505489764707
 21
39.12777103113104
 31
0.0
  0
LINE
  5
13BE
  8
TITLE
 10
175.71637448553969
 20
38.00631166755602
 30
0.0
 11
176.8378338491184
 21
39.12777103113104
 31
0.0
  0
LINE
  5
13BF
  8
TITLE
 10
175.71637448553969
 20
37.919026794908859
 30
0.0
 11
176.9251187217651
 21
39.12777103113104
 31
0.0
  0
LINE
  5
13C0
  8
TITLE
 10
176.4410397807705
 20
35.501436674867357
 30
0.0
 11
177.00200967509221
 21
36.062406569188617
 31
0.0
  0
LINE
  5
13C1
  8
TITLE
 10
176.4778115624303
 20
35.45092358387592
 30
0.0
 11
177.03825805769699
 21
36.011370079147127
 31
0.0
  0
LINE
  5
13C2
  8
TITLE
 10
176.5153009055802
 20
35.401128054383207
 30
0.0
 11
177.07559288524411
 21
35.961420034046803
 31
0.0
  0
LINE
  5
13C3
  8
TITLE
 10
176.55350294982421
 20
35.352045225980191
 30
0.0
 11
177.11400278758629
 21
35.9125450637423
 31
0.0
  0
LINE
  5
13C4
  8
TITLE
 10
176.59241343422761
 20
35.303670837743987
 30
0.0
 11
177.15347845267749
 21
35.864735856185689
 31
0.0
  0
LINE
  5
13C5
  8
TITLE
 10
176.63202868031649
 20
35.256001211177818
 30
0.0
 11
177.1940125419714
 21
35.817985072836109
 31
0.0
  0
LINE
  5
13C6
  8
TITLE
 10
176.17349727554031
 20
35.932173150807103
 30
0.0
 11
176.75328605962659
 21
36.511961934897052
 31
0.0
  0
LINE
  5
13C7
  8
TITLE
 10
176.2042737075098
 20
35.87566471013043
 30
0.0
 11
176.78013936494509
 21
36.45153036756529
 31
0.0
  0
LINE
  5
13C8
  8
TITLE
 10
176.2358311975149
 20
35.819937327488333
 30
0.0
 11
176.80826264368349
 21
36.392368773656237
 31
0.0
  0
LINE
  5
13C9
  8
TITLE
 10
176.26815910569891
 20
35.764980363027917
 30
0.0
 11
176.83762182390089
 21
36.334443081230802
 31
0.0
  0
LINE
  5
13CA
  8
TITLE
 10
176.30124764501849
 20
35.710784029703973
 30
0.0
 11
176.8681866166535
 21
36.277723001335751
 31
0.0
  0
LINE
  5
13CB
  8
TITLE
 10
176.33508783528671
 20
35.65733934732566
 30
0.0
 11
176.89993015214259
 21
36.222181664181342
 31
0.0
  0
LINE
  5
13CC
  8
TITLE
 10
176.36967146210731
 20
35.604638101494857
 30
0.0
 11
176.93282867236209
 21
36.16779531175348
 31
0.0
  0
LINE
  5
13CD
  8
TITLE
 10
176.4049910402054
 20
35.552672806949893
 30
0.0
 11
176.9668612712376
 21
36.114543037981093
 31
0.0
  0
LINE
  5
13CE
  8
TITLE
 10
176.11433472331549
 20
36.047580343876923
 30
0.0
 11
176.70354724378279
 21
36.63679286434467
 31
0.0
  0
LINE
  5
13CF
  8
TITLE
 10
176.14351344561689
 20
35.98947419353135
 30
0.0
 11
176.72774101430329
 21
36.573701762217752
 31
0.0
  0
LINE
  5
13D0
  8
TITLE
 10
176.08597463990191
 20
36.106505133110197
 30
0.0
 11
176.68075310505631
 21
36.701283598265043
 31
0.0
  0
LINE
  5
13D1
  8
TITLE
 10
175.71748810799539
 20
37.658285799423084
 30
0.0
 11
177.1869733396997
 21
39.12777103113104
 31
0.0
  0
LINE
  5
13D2
  8
TITLE
 10
172.6421222431108
 20
38.42345433098194
 30
0.0
 11
173.34643894326109
 21
39.12777103113104
 31
0.0
  0
LINE
  5
13D3
  8
TITLE
 10
172.7294071157512
 20
38.42345433098194
 30
0.0
 11
173.4337238159078
 21
39.12777103113104
 31
0.0
  0
LINE
  5
13D4
  8
TITLE
 10
172.81669198839879
 20
38.42345433098194
 30
0.0
 11
173.52100868854811
 21
39.12777103113104
 31
0.0
  0
LINE
  5
13D5
  8
TITLE
 10
172.90397686104549
 20
38.42345433098194
 30
0.0
 11
173.60829356119569
 21
39.12777103113104
 31
0.0
  0
LINE
  5
13D6
  8
TITLE
 10
172.9912617336922
 20
38.42345433098194
 30
0.0
 11
173.6955784338424
 21
39.12777103113104
 31
0.0
  0
LINE
  5
13D7
  8
TITLE
 10
173.07854660633981
 20
38.42345433098194
 30
0.0
 11
173.78286330648911
 21
39.12777103113104
 31
0.0
  0
LINE
  5
13D8
  8
TITLE
 10
172.6211628459441
 20
34.30010591943438
 30
0.0
 11
173.54465669864291
 21
35.223599772133639
 31
0.0
  0
LINE
  5
13D9
  8
TITLE
 10
172.71286516917101
 20
34.30452337001725
 30
0.0
 11
174.3581739212141
 21
35.949832122056712
 31
0.0
  0
LINE
  5
13DA
  8
TITLE
 10
172.80539353300171
 20
34.309766861197659
 30
0.0
 11
174.3581739212141
 21
35.862547249409317
 31
0.0
  0
LINE
  5
13DB
  8
TITLE
 10
172.89877191799681
 20
34.315860373551921
 30
0.0
 11
174.3581739212141
 21
35.77526237676193
 31
0.0
  0
LINE
  5
13DC
  8
TITLE
 10
172.99302568404889
 20
34.322829266958252
 30
0.0
 11
174.3581739212141
 21
35.687977504115231
 31
0.0
  0
LINE
  5
13DD
  8
TITLE
 10
173.0881816838928
 20
34.330700394146788
 30
0.0
 11
174.3581739212141
 21
35.600692631471247
 31
0.0
  0
LINE
  5
13DE
  8
TITLE
 10
172.57787504294899
 20
36.962649168478947
 30
0.0
 11
173.3343633823861
 21
37.719137507916457
 31
0.0
  0
LINE
  5
13DF
  8
TITLE
 10
172.66515991559569
 20
36.962649168478947
 30
0.0
 11
173.42164825503281
 21
37.719137507916457
 31
0.0
  0
LINE
  5
13E0
  8
TITLE
 10
172.7524447882424
 20
36.962649168478947
 30
0.0
 11
173.50893312767309
 21
37.719137507916457
 31
0.0
  0
LINE
  5
13E1
  8
TITLE
 10
172.83972966088999
 20
36.962649168478947
 30
0.0
 11
173.59621800031979
 21
37.719137507916457
 31
0.0
  0
LINE
  5
13E2
  8
TITLE
 10
172.92701453353041
 20
36.962649168478947
 30
0.0
 11
173.68350287296741
 21
37.719137507916457
 31
0.0
  0
LINE
  5
13E3
  8
TITLE
 10
173.01429940617709
 20
36.962649168478947
 30
0.0
 11
173.77078774561409
 21
37.719137507916457
 31
0.0
  0
LINE
  5
13E4
  8
TITLE
 10
173.10158427882379
 20
36.962649168478947
 30
0.0
 11
173.8580726182617
 21
37.719137507916457
 31
0.0
  0
LINE
  5
13E5
  8
TITLE
 10
175.69709278573279
 20
38.42345433098194
 30
0.0
 11
176.5521900557724
 21
39.278551601020808
 31
0.0
  0
LINE
  5
13E6
  8
TITLE
 10
175.71637448553969
 20
38.355451158141022
 30
0.0
 11
176.5521900557724
 21
39.191266728373201
 31
0.0
  0
LINE
  5
13E7
  8
TITLE
 10
175.71637448553969
 20
38.268166285493862
 30
0.0
 11
176.5759792311764
 21
39.12777103113104
 31
0.0
  0
LINE
  5
13E8
  8
TITLE
 10
174.99881380456279
 20
38.42345433098194
 30
0.0
 11
175.70313050471299
 21
39.12777103113104
 31
0.0
  0
LINE
  5
13E9
  8
TITLE
 10
173.5149709695761
 20
38.42345433098194
 30
0.0
 11
174.21928766972451
 21
39.12777103113104
 31
0.0
  0
LINE
  5
13EA
  8
TITLE
 10
173.6022558422155
 20
38.42345433098194
 30
0.0
 11
174.306572542373
 21
39.12777103113104
 31
0.0
  0
LINE
  5
13EB
  8
TITLE
 10
173.6895407148622
 20
38.42345433098194
 30
0.0
 11
174.39385741501241
 21
39.12777103113104
 31
0.0
  0
LINE
  5
13EC
  8
TITLE
 10
173.77682558750979
 20
38.42345433098194
 30
0.0
 11
174.48114228765999
 21
39.12777103113104
 31
0.0
  0
LINE
  5
13ED
  8
TITLE
 10
173.86411046015741
 20
38.42345433098194
 30
0.0
 11
174.56842716030681
 21
39.12777103113104
 31
0.0
  0
LINE
  5
13EE
  8
TITLE
 10
173.95139533280411
 20
38.42345433098194
 30
0.0
 11
174.6557120329544
 21
39.12777103113104
 31
0.0
  0
LINE
  5
13EF
  8
TITLE
 10
174.0386802054509
 20
38.42345433098194
 30
0.0
 11
174.7429969056011
 21
39.12777103113104
 31
0.0
  0
LINE
  5
13F0
  8
TITLE
 10
174.12596507809849
 20
38.42345433098194
 30
0.0
 11
174.83028177824781
 21
39.12777103113104
 31
0.0
  0
LINE
  5
13F1
  8
TITLE
 10
173.34040122428081
 20
38.42345433098194
 30
0.0
 11
174.0447179244311
 21
39.12777103113104
 31
0.0
  0
LINE
  5
13F2
  8
TITLE
 10
173.42768609692851
 20
38.42345433098194
 30
0.0
 11
174.1320027970778
 21
39.12777103113104
 31
0.0
  0
LINE
  5
13F3
  8
TITLE
 10
173.1658314789874
 20
38.42345433098194
 30
0.0
 11
173.87014817913669
 21
39.12777103113104
 31
0.0
  0
LINE
  5
13F4
  8
TITLE
 10
173.25311635163411
 20
38.42345433098194
 30
0.0
 11
173.95743305178439
 21
39.12777103113104
 31
0.0
  0
LINE
  5
13F5
  8
TITLE
 10
174.2132499507461
 20
38.42345433098194
 30
0.0
 11
174.9175666508954
 21
39.12777103113104
 31
0.0
  0
LINE
  5
13F6
  8
TITLE
 10
174.30053482339281
 20
38.42345433098194
 30
0.0
 11
175.00485152354301
 21
39.12777103113104
 31
0.0
  0
LINE
  5
13F7
  8
TITLE
 10
174.38781969603949
 20
38.42345433098194
 30
0.0
 11
175.09213639618969
 21
39.12777103113104
 31
0.0
  0
LINE
  5
13F8
  8
TITLE
 10
174.4751045686798
 20
38.42345433098194
 30
0.0
 11
175.17942126883639
 21
39.12777103113104
 31
0.0
  0
LINE
  5
13F9
  8
TITLE
 10
174.56238944132741
 20
38.42345433098194
 30
0.0
 11
175.26670614148401
 21
39.12777103113104
 31
0.0
  0
LINE
  5
13FA
  8
TITLE
 10
174.6496743139742
 20
38.42345433098194
 30
0.0
 11
175.3539910141244
 21
39.12777103113104
 31
0.0
  0
LINE
  5
13FB
  8
TITLE
 10
174.73695918662091
 20
38.42345433098194
 30
0.0
 11
175.44127588677111
 21
39.12777103113104
 31
0.0
  0
LINE
  5
13FC
  8
TITLE
 10
174.82424405926849
 20
38.42345433098194
 30
0.0
 11
175.52856075941779
 21
39.12777103113104
 31
0.0
  0
LINE
  5
13FD
  8
TITLE
 10
174.91152893191611
 20
38.42345433098194
 30
0.0
 11
175.61584563206631
 21
39.12777103113104
 31
0.0
  0
LINE
  5
13FE
  8
TITLE
 10
175.24365830818169
 20
34.74047956550703
 30
0.0
 11
175.71637448553969
 21
35.21319574286872
 31
0.0
  0
LINE
  5
13FF
  8
TITLE
 10
175.3690118717368
 20
34.778548256414979
 30
0.0
 11
175.71637448553969
 21
35.12591087022156
 31
0.0
  0
LINE
  5
1400
  8
TITLE
 10
175.49681557712751
 20
34.819067089162672
 30
0.0
 11
175.71637448553969
 21
35.03862599757781
 31
0.0
  0
LINE
  5
1401
  8
TITLE
 10
175.6272506006689
 20
34.862217240053042
 30
0.0
 11
175.71637448553969
 21
34.951341124930877
 31
0.0
  0
LINE
  5
1402
  8
TITLE
 10
175.8003916933412
 20
36.95562553094851
 30
0.0
 11
176.55127000115499
 21
37.706503838769322
 31
0.0
  0
LINE
  5
1403
  8
TITLE
 10
175.8162312859786
 20
36.884180250945292
 30
0.0
 11
176.5464481994095
 21
37.614397164376904
 31
0.0
  0
LINE
  5
1404
  8
TITLE
 10
175.83320787739009
 20
36.813871969706732
 30
0.0
 11
176.5449293008914
 21
37.525593393203962
 31
0.0
  0
LINE
  5
1405
  8
TITLE
 10
175.85128325036749
 20
36.744662470040574
 30
0.0
 11
176.5463763816897
 21
37.439755601363231
 31
0.0
  0
LINE
  5
1406
  8
TITLE
 10
175.87042235499661
 20
36.676516702022582
 30
0.0
 11
176.55051492869461
 21
37.356609275716437
 31
0.0
  0
LINE
  5
1407
  8
TITLE
 10
175.2837060949887
 20
36.962649168478947
 30
0.0
 11
175.42906265706
 21
37.108005730550758
 31
0.0
  0
LINE
  5
1408
  8
TITLE
 10
175.89059298556359
 20
36.60940245994243
 30
0.0
 11
176.55711787864311
 21
37.275927353022333
 31
0.0
  0
LINE
  5
1409
  8
TITLE
 10
175.9117655004747
 20
36.543290102213177
 30
0.0
 11
176.565995004592
 21
37.19751960633085
 31
0.0
  0
LINE
  5
140A
  8
TITLE
 10
175.93391257849001
 20
36.478152307574867
 30
0.0
 11
176.57698519728731
 21
37.121224926371731
 31
0.0
  0
LINE
  5
140B
  8
TITLE
 10
175.95700900562579
 20
36.413963862063611
 30
0.0
 11
176.58995073047839
 21
37.046905586915727
 31
0.0
  0
LINE
  5
140C
  8
TITLE
 10
175.98103148839249
 20
36.350701472185847
 30
0.0
 11
176.6047729202601
 21
36.974442904049283
 31
0.0
  0
LINE
  5
140D
  8
TITLE
 10
176.0059584894297
 20
36.288343600572261
 30
0.0
 11
176.6213487853492
 21
36.90373389649244
 31
0.0
  0
LINE
  5
140E
  8
TITLE
 10
176.0317700824771
 20
36.226870320979742
 30
0.0
 11
176.6395884403218
 21
36.834688678824932
 31
0.0
  0
LINE
  5
140F
  8
TITLE
 10
176.05844782411069
 20
36.16626318996282
 30
0.0
 11
176.65941303471661
 21
36.767228400568911
 31
0.0
  0
LINE
  5
1410
  8
TITLE
 10
175.37099096763629
 20
36.962649168478947
 30
0.0
 11
175.42906265706
 21
37.02072085790315
 31
0.0
  0
LINE
  5
1411
  8
TITLE
 10
174.99967796823049
 20
34.671068970850463
 30
0.0
 11
175.71637448553969
 21
35.38776548815941
 31
0.0
  0
LINE
  5
1412
  8
TITLE
 10
175.12059456887249
 20
34.704700698852783
 30
0.0
 11
175.71637448553969
 21
35.300480615512242
 31
0.0
  0
LINE
  5
1413
  8
TITLE
 10
175.0218514770477
 20
36.962649168478947
 30
0.0
 11
175.42906265706
 21
37.369860348492239
 31
0.0
  0
LINE
  5
1414
  8
TITLE
 10
175.10913634969441
 20
36.962649168478947
 30
0.0
 11
175.42906265706
 21
37.282575475844617
 31
0.0
  0
LINE
  5
1415
  8
TITLE
 10
175.196421222342
 20
36.962649168478947
 30
0.0
 11
175.42906265706
 21
37.195290603197918
 31
0.0
  0
LINE
  5
1416
  8
TITLE
 10
173.60071599501401
 20
35.803368304383639
 30
0.0
 11
174.3581739212141
 21
36.560826230582961
 31
0.0
  0
LINE
  5
1417
  8
TITLE
 10
173.60071599501401
 20
35.716083431740117
 30
0.0
 11
174.3581739212141
 21
36.473541357935581
 31
0.0
  0
LINE
  5
1418
  8
TITLE
 10
173.60071599501401
 20
35.628798559092957
 30
0.0
 11
174.3581739212141
 21
36.386256485288868
 31
0.0
  0
LINE
  5
1419
  8
TITLE
 10
173.60071599501401
 20
35.541513686445803
 30
0.0
 11
174.3581739212141
 21
36.298971612645353
 31
0.0
  0
LINE
  5
141A
  8
TITLE
 10
173.60071599501401
 20
35.454228813798643
 30
0.0
 11
174.3581739212141
 21
36.211686739998193
 31
0.0
  0
LINE
  5
141B
  8
TITLE
 10
173.60071599501401
 20
35.366943941151483
 30
0.0
 11
174.3581739212141
 21
36.124401867350571
 31
0.0
  0
LINE
  5
141C
  8
TITLE
 10
173.60071599501401
 20
35.279659068504323
 30
0.0
 11
174.3581739212141
 21
36.03711699470341
 31
0.0
  0
LINE
  5
141D
  8
TITLE
 10
173.60071599501401
 20
35.977938049677498
 30
0.0
 11
174.3581739212141
 21
36.735395975873871
 31
0.0
  0
LINE
  5
141E
  8
TITLE
 10
173.60071599501401
 20
35.890653177030799
 30
0.0
 11
174.3581739212141
 21
36.648111103226491
 31
0.0
  0
LINE
  5
141F
  8
TITLE
 10
173.2813160296773
 20
34.349264994645189
 30
0.0
 11
174.3581739212141
 21
35.42612288618102
 31
0.0
  0
LINE
  5
1420
  8
TITLE
 10
173.37935675094741
 20
34.3600208432606
 30
0.0
 11
174.35879457702589
 21
35.339458669346193
 31
0.0
  0
LINE
  5
1421
  8
TITLE
 10
173.47842478709211
 20
34.371804006765622
 30
0.0
 11
174.46460263840709
 21
35.357981858079263
 31
0.0
  0
LINE
  5
1422
  8
TITLE
 10
173.5785566571258
 20
34.384651004147827
 30
0.0
 11
174.5714021776102
 21
35.377496524635717
 31
0.0
  0
LINE
  5
1423
  8
TITLE
 10
173.6797913845275
 20
34.39860085890632
 30
0.0
 11
174.6792258417463
 21
35.39803531612506
 31
0.0
  0
LINE
  5
1424
  8
TITLE
 10
173.7821707452058
 20
34.413695346936947
 30
0.0
 11
174.7881082927469
 21
35.419632894478582
 31
0.0
  0
LINE
  5
1425
  8
TITLE
 10
173.8857395479281
 20
34.42997927701208
 30
0.0
 11
174.8980863865936
 21
35.442326115678043
 31
0.0
  0
LINE
  5
1426
  8
TITLE
 10
173.18426838901721
 20
34.339502226623608
 30
0.0
 11
174.3581739212141
 21
35.513407758824542
 31
0.0
  0
LINE
  5
1427
  8
TITLE
 10
173.27615402411899
 20
36.962649168478947
 30
0.0
 11
174.03264236355611
 21
37.719137507916457
 31
0.0
  0
LINE
  5
1428
  8
TITLE
 10
173.3634388967657
 20
36.962649168478947
 30
0.0
 11
174.11992723620281
 21
37.719137507916457
 31
0.0
  0
LINE
  5
1429
  8
TITLE
 10
173.45072376941241
 20
36.962649168478947
 30
0.0
 11
174.20721210884949
 21
37.719137507916457
 31
0.0
  0
LINE
  5
142A
  8
TITLE
 10
173.53800864205999
 20
36.962649168478947
 30
0.0
 11
174.29449698149801
 21
37.719137507916457
 31
0.0
  0
LINE
  5
142B
  8
TITLE
 10
173.60071599501401
 20
36.938071648785808
 30
0.0
 11
174.38178185414469
 21
37.719137507916457
 31
0.0
  0
LINE
  5
142C
  8
TITLE
 10
173.60071599501401
 20
36.850786776142293
 30
0.0
 11
174.46906672678409
 21
37.719137507916457
 31
0.0
  0
LINE
  5
142D
  8
TITLE
 10
173.60071599501401
 20
36.763501903495133
 30
0.0
 11
174.55635159943171
 21
37.719137507916457
 31
0.0
  0
LINE
  5
142E
  8
TITLE
 10
173.60071599501401
 20
36.67621703084842
 30
0.0
 11
174.64363647207941
 21
37.719137507916457
 31
0.0
  0
LINE
  5
142F
  8
TITLE
 10
173.1888691514705
 20
36.962649168478947
 30
0.0
 11
173.94535749090841
 21
37.719137507916457
 31
0.0
  0
LINE
  5
1430
  8
TITLE
 10
173.60071599501401
 20
36.58893215820445
 30
0.0
 11
174.73092134472611
 21
37.719137507916457
 31
0.0
  0
LINE
  5
1431
  8
TITLE
 10
173.60071599501401
 20
36.501647285557283
 30
0.0
 11
174.81820621737279
 21
37.719137507916457
 31
0.0
  0
LINE
  5
1432
  8
TITLE
 10
173.60071599501401
 20
36.414362412909888
 30
0.0
 11
174.9054910900204
 21
37.719137507916457
 31
0.0
  0
LINE
  5
1433
  8
TITLE
 10
173.60071599501401
 20
36.152507794968642
 30
0.0
 11
174.3581739212141
 21
36.909965721168192
 31
0.0
  0
LINE
  5
1434
  8
TITLE
 10
173.60071599501401
 20
36.065222922321482
 30
0.0
 11
174.3581739212141
 21
36.822680848521031
 31
0.0
  0
LINE
  5
1435
  8
TITLE
 10
174.09664183483429
 20
34.466311818631539
 30
0.0
 11
175.12148912362221
 21
35.491159107419207
 31
0.0
  0
LINE
  5
1436
  8
TITLE
 10
174.2040831984541
 20
34.48646830960115
 30
0.0
 11
175.23500037744631
 21
35.517385488596346
 31
0.0
  0
LINE
  5
1437
  8
TITLE
 10
173.9905459528982
 20
34.4475008093425
 30
0.0
 11
175.009199373716
 21
35.466154230157137
 31
0.0
  0
LINE
  5
1438
  8
TITLE
 10
174.41085736852429
 20
36.962649168478947
 30
0.0
 11
175.1673457079614
 21
37.719137507916457
 31
0.0
  0
LINE
  5
1439
  8
TITLE
 10
173.60071599501401
 20
36.239792667615802
 30
0.0
 11
175.0800608353147
 21
37.719137507916457
 31
0.0
  0
LINE
  5
143A
  8
TITLE
 10
173.60071599501401
 20
36.32707754026319
 30
0.0
 11
174.99277596266799
 21
37.719137507916457
 31
0.0
  0
LINE
  5
143B
  8
TITLE
 10
174.3129306559585
 20
34.508030894457988
 30
0.0
 11
175.34978103284081
 21
35.544881271343677
 31
0.0
  0
LINE
  5
143C
  8
TITLE
 10
174.4232499782392
 20
34.531065344095168
 30
0.0
 11
175.4658824663729
 21
35.573697832227943
 31
0.0
  0
LINE
  5
143D
  8
TITLE
 10
174.5351127341973
 20
34.55564322740566
 30
0.0
 11
175.5833598996669
 21
35.603890392875201
 31
0.0
  0
LINE
  5
143E
  8
TITLE
 10
174.64859703605541
 20
34.581842656620211
 30
0.0
 11
175.70227281683029
 21
35.635518437391511
 31
0.0
  0
LINE
  5
143F
  8
TITLE
 10
174.76378841308079
 20
34.609749160994852
 30
0.0
 11
175.71637448553969
 21
35.56233523345373
 31
0.0
  0
LINE
  5
1440
  8
TITLE
 10
174.8807808417514
 20
34.639456717018682
 30
0.0
 11
175.71637448553969
 21
35.475050360806563
 31
0.0
  0
LINE
  5
1441
  8
TITLE
 10
174.49814224117111
 20
36.962649168478947
 30
0.0
 11
175.25463058060899
 21
37.719137507916457
 31
0.0
  0
LINE
  5
1442
  8
TITLE
 10
174.5854271138187
 20
36.962649168478947
 30
0.0
 11
175.34191545324941
 21
37.719137507916457
 31
0.0
  0
LINE
  5
1443
  8
TITLE
 10
174.6727119864654
 20
36.962649168478947
 30
0.0
 11
175.42906265706
 21
37.718999839073149
 31
0.0
  0
LINE
  5
1444
  8
TITLE
 10
174.75999685910571
 20
36.962649168478947
 30
0.0
 11
175.42906265706
 21
37.631714966429627
 31
0.0
  0
LINE
  5
1445
  8
TITLE
 10
174.84728173175239
 20
36.962649168478947
 30
0.0
 11
175.42906265706
 21
37.544430093782921
 31
0.0
  0
LINE
  5
1446
  8
TITLE
 10
174.9345666044
 20
36.962649168478947
 30
0.0
 11
175.42906265706
 21
37.457145221135313
 31
0.0
  0
LINE
  5
1447
  8
TITLE
 10
175.73187928229339
 20
37.410822355783921
 30
0.0
 11
176.5521900557724
 21
38.231133129262162
 31
0.0
  0
LINE
  5
1448
  8
TITLE
 10
175.73986084330861
 20
37.331519044151719
 30
0.0
 11
176.5521900557724
 21
38.143848256614767
 31
0.0
  0
LINE
  5
1449
  8
TITLE
 10
175.7206034077517
 20
37.574116226535807
 30
0.0
 11
176.5521900557724
 21
38.405702874556027
 31
0.0
  0
LINE
  5
144A
  8
TITLE
 10
175.72543203368059
 20
37.491659979818003
 30
0.0
 11
176.5521900557724
 21
38.318418001909102
 31
0.0
  0
LINE
  5
144B
  8
TITLE
 10
175.78573085827881
 20
37.028249568540787
 30
0.0
 11
176.5521900557724
 21
37.794708766033182
 31
0.0
  0
LINE
  5
144C
  8
TITLE
 10
175.7493012988561
 20
37.253674627056171
 30
0.0
 11
176.5521900557724
 21
38.056563383970797
 31
0.0
  0
LINE
  5
144D
  8
TITLE
 10
175.760132893427
 20
37.177221348979863
 30
0.0
 11
176.5521900557724
 21
37.969278511323857
 31
0.0
  0
LINE
  5
144E
  8
TITLE
 10
175.77229451706441
 20
37.102098099970142
 30
0.0
 11
176.5521900557724
 21
37.881993638676711
 31
0.0
  0
LINE
  5
144F
  8
TITLE
 10
175.71637448553969
 20
38.180881412846702
 30
0.0
 11
176.66326410382399
 21
39.12777103113104
 31
0.0
  0
LINE
  5
1450
  8
TITLE
 10
176.74451125749141
 20
38.42345433098194
 30
0.0
 11
177.4488279576417
 21
39.12777103113104
 31
0.0
  0
LINE
  5
1451
  8
TITLE
 10
176.83179613013911
 20
38.42345433098194
 30
0.0
 11
177.5361128302884
 21
39.12777103113104
 31
0.0
  0
LINE
  5
1452
  8
TITLE
 10
176.91908100278579
 20
38.42345433098194
 30
0.0
 11
177.62339770293511
 21
39.12777103113104
 31
0.0
  0
LINE
  5
1453
  8
TITLE
 10
177.0063658754334
 20
38.42345433098194
 30
0.0
 11
177.71068257558269
 21
39.12777103113104
 31
0.0
  0
LINE
  5
1454
  8
TITLE
 10
177.09365074808011
 20
38.42345433098194
 30
0.0
 11
177.79796744823031
 21
39.12777103113104
 31
0.0
  0
LINE
  5
1455
  8
TITLE
 10
177.18093562072681
 20
38.42345433098194
 30
0.0
 11
177.85815195723259
 21
39.100670667491393
 31
0.0
  0
LINE
  5
1456
  8
TITLE
 10
176.67234557749359
 20
35.209033235707473
 30
0.0
 11
177.23559962488071
 21
35.772287283102287
 31
0.0
  0
LINE
  5
1457
  8
TITLE
 10
176.713361570909
 20
35.162764356482967
 30
0.0
 11
177.27823613090459
 21
35.727638916471278
 31
0.0
  0
LINE
  5
1458
  8
TITLE
 10
176.75507465156619
 20
35.117192564493507
 30
0.0
 11
177.32192031843991
 21
35.684038231366692
 31
0.0
  0
LINE
  5
1459
  8
TITLE
 10
176.7974833485786
 20
35.072316388858781
 30
0.0
 11
177.36665225971231
 21
35.6414852999917
 31
0.0
  0
LINE
  5
145A
  8
TITLE
 10
176.84058672354061
 20
35.028134891173067
 30
0.0
 11
177.41243384134029
 21
35.599982008968709
 31
0.0
  0
LINE
  5
145B
  8
TITLE
 10
176.88438436696379
 20
34.984647661949573
 30
0.0
 11
177.4592687807617
 21
35.559532075747029
 31
0.0
  0
LINE
  5
145C
  8
TITLE
 10
176.9288763967206
 20
34.941854819059252
 30
0.0
 11
177.5071626586969
 21
35.520141081035042
 31
0.0
  0
LINE
  5
145D
  8
TITLE
 10
177.06652791646039
 20
34.817651720860802
 30
0.0
 11
177.65728283968929
 21
35.408406644090071
 31
0.0
  0
LINE
  5
145E
  8
TITLE
 10
177.11380927535259
 20
34.777648207109912
 30
0.0
 11
177.70950765132869
 21
35.373346583081911
 31
0.0
  0
LINE
  5
145F
  8
TITLE
 10
177.16179360682139
 20
34.73834766593086
 30
0.0
 11
177.76284963274611
 21
35.339403691852119
 31
0.0
  0
LINE
  5
1460
  8
TITLE
 10
177.21048427373989
 20
34.69975346020238
 30
0.0
 11
177.817327260268
 21
35.306596446726651
 31
0.0
  0
LINE
  5
1461
  8
TITLE
 10
176.97406345847409
 20
34.899757008168308
 30
0.0
 11
177.5561229683735
 21
35.481816518064079
 31
0.0
  0
LINE
  5
1462
  8
TITLE
 10
177.01994672816181
 20
34.858355405212251
 30
0.0
 11
177.60615918254729
 21
35.444567859590741
 31
0.0
  0
LINE
  5
1463
  8
TITLE
 10
179.30763632220351
 20
37.757039107777473
 30
0.0
 11
179.76407066895081
 21
38.213473454524319
 31
0.0
  0
LINE
  5
1464
  8
TITLE
 10
179.54787736159591
 20
35.90244320365241
 30
0.0
 11
180.63368774040831
 21
36.988253582461773
 31
0.0
  0
LINE
  5
1465
  8
TITLE
 10
179.50456043923441
 20
35.771841408644377
 30
0.0
 11
180.72097261304859
 21
36.988253582461773
 31
0.0
  0
LINE
  5
1466
  8
TITLE
 10
179.07080186643719
 20
34.290664364088123
 30
0.0
 11
180.2896936921579
 21
35.509556189809253
 31
0.0
  0
LINE
  5
1467
  8
TITLE
 10
179.15808673908481
 20
34.290664364088123
 30
0.0
 11
180.20073237026369
 21
35.333309995270611
 31
0.0
  0
LINE
  5
1468
  8
TITLE
 10
179.24537161173151
 20
34.290664364088123
 30
0.0
 11
180.03758041283521
 21
35.082873165192268
 31
0.0
  0
LINE
  5
1469
  8
TITLE
 10
179.33265648437921
 20
34.290664364088123
 30
0.0
 11
180.0490391168087
 21
35.007046996521701
 31
0.0
  0
LINE
  5
146A
  8
TITLE
 10
179.41994135702589
 20
34.290664364088123
 30
0.0
 11
180.13632398945629
 21
35.007046996521701
 31
0.0
  0
LINE
  5
146B
  8
TITLE
 10
179.5072262296726
 20
34.290664364088123
 30
0.0
 11
180.22360886210299
 21
35.007046996521701
 31
0.0
  0
LINE
  5
146C
  8
TITLE
 10
179.05698927666339
 20
36.284403845184897
 30
0.0
 11
179.76083901393761
 21
36.988253582461773
 31
0.0
  0
LINE
  5
146D
  8
TITLE
 10
179.144274149311
 20
36.284403845184897
 30
0.0
 11
179.84812388658429
 21
36.988253582461773
 31
0.0
  0
LINE
  5
146E
  8
TITLE
 10
179.2315590219587
 20
36.284403845184897
 30
0.0
 11
179.935408759231
 21
36.988253582461773
 31
0.0
  0
LINE
  5
146F
  8
TITLE
 10
179.31884389460529
 20
36.284403845184897
 30
0.0
 11
180.02269363187861
 21
36.988253582461773
 31
0.0
  0
LINE
  5
1470
  8
TITLE
 10
179.40612876725211
 20
36.284403845184897
 30
0.0
 11
180.1099785045262
 21
36.988253582461773
 31
0.0
  0
LINE
  5
1471
  8
TITLE
 10
179.4934136398997
 20
36.284403845184897
 30
0.0
 11
180.1972633771729
 21
36.988253582461773
 31
0.0
  0
LINE
  5
1472
  8
TITLE
 10
179.59451110231291
 20
34.290664364088123
 30
0.0
 11
180.3108937347497
 21
35.007046996521701
 31
0.0
  0
LINE
  5
1473
  8
TITLE
 10
179.68179597496049
 20
34.290664364088123
 30
0.0
 11
180.39817860739731
 21
35.007046996521701
 31
0.0
  0
LINE
  5
1474
  8
TITLE
 10
179.7690808476072
 20
34.290664364088123
 30
0.0
 11
180.4854634800449
 21
35.007046996521701
 31
0.0
  0
LINE
  5
1475
  8
TITLE
 10
179.8563657202539
 20
34.290664364088123
 30
0.0
 11
180.5727483526843
 21
35.007046996521701
 31
0.0
  0
LINE
  5
1476
  8
TITLE
 10
179.94365059290249
 20
34.290664364088123
 30
0.0
 11
180.66003322533101
 21
35.007046996521701
 31
0.0
  0
LINE
  5
1477
  8
TITLE
 10
180.03093546554919
 20
34.290664364088123
 30
0.0
 11
180.74731809797871
 21
35.007046996521701
 31
0.0
  0
LINE
  5
1478
  8
TITLE
 10
179.58069851254729
 20
36.284403845184897
 30
0.0
 11
180.28454824981961
 21
36.988253582461773
 31
0.0
  0
LINE
  5
1479
  8
TITLE
 10
179.5941752098588
 20
36.210595669849909
 30
0.0
 11
180.37183312246719
 21
36.988253582461773
 31
0.0
  0
LINE
  5
147A
  8
TITLE
 10
179.58800011549101
 20
36.117135702838823
 30
0.0
 11
180.45911799511489
 21
36.988253582461773
 31
0.0
  0
LINE
  5
147B
  8
TITLE
 10
179.573601728207
 20
36.015452442911283
 30
0.0
 11
180.54640286776149
 21
36.988253582461773
 31
0.0
  0
LINE
  5
147C
  8
TITLE
 10
179.30763632220351
 20
37.669754235130313
 30
0.0
 11
179.85135554159751
 21
38.213473454524319
 31
0.0
  0
LINE
  5
147D
  8
TITLE
 10
179.30763632220351
 20
37.582469362483153
 30
0.0
 11
179.93864041424419
 21
38.213473454524319
 31
0.0
  0
LINE
  5
147E
  8
TITLE
 10
179.30763632220351
 20
37.495184489835992
 30
0.0
 11
180.02592528689181
 21
38.213473454524319
 31
0.0
  0
LINE
  5
147F
  8
TITLE
 10
179.33115489589539
 20
37.431418190884422
 30
0.0
 11
180.11321015953851
 21
38.213473454524319
 31
0.0
  0
LINE
  5
1480
  8
TITLE
 10
179.4184397685421
 20
37.431418190884422
 30
0.0
 11
180.2004950321861
 21
38.213473454524319
 31
0.0
  0
LINE
  5
1481
  8
TITLE
 10
179.50572464118969
 20
37.431418190884422
 30
0.0
 11
180.2877799048328
 21
38.213473454524319
 31
0.0
  0
LINE
  5
1482
  8
TITLE
 10
179.59300951383739
 20
37.431418190884422
 30
0.0
 11
180.37506477747959
 21
38.213473454524319
 31
0.0
  0
LINE
  5
1483
  8
TITLE
 10
179.68029438648409
 20
37.431418190884422
 30
0.0
 11
180.46234965012809
 21
38.213473454524319
 31
0.0
  0
LINE
  5
1484
  8
TITLE
 10
179.7675792591308
 20
37.431418190884422
 30
0.0
 11
180.54963452276749
 21
38.213473454524319
 31
0.0
  0
LINE
  5
1485
  8
TITLE
 10
179.8548641317775
 20
37.431418190884422
 30
0.0
 11
180.6369193954142
 21
38.213473454524319
 31
0.0
  0
LINE
  5
1486
  8
TITLE
 10
179.942149004426
 20
37.431418190884422
 30
0.0
 11
180.72420426806181
 21
38.213473454524319
 31
0.0
  0
LINE
  5
1487
  8
TITLE
 10
177.61735998395579
 20
38.42345433098194
 30
0.0
 11
177.85815195723259
 21
38.664246304259223
 31
0.0
  0
LINE
  5
1488
  8
TITLE
 10
177.70464485660341
 20
38.42345433098194
 30
0.0
 11
177.85815195723259
 21
38.576961431611842
 31
0.0
  0
LINE
  5
1489
  8
TITLE
 10
177.79192972925011
 20
38.42345433098194
 30
0.0
 11
177.85815195723259
 21
38.489676558964682
 31
0.0
  0
LINE
  5
148A
  8
TITLE
 10
178.42017100028261
 20
38.615271238782043
 30
0.0
 11
178.5058177253531
 21
38.700917963855773
 31
0.0
  0
LINE
  5
148B
  8
TITLE
 10
178.42017100028261
 20
38.527986366134883
 30
0.0
 11
178.6134336205869
 21
38.721248986442788
 31
0.0
  0
LINE
  5
148C
  8
TITLE
 10
178.42017100028261
 20
38.440701493491588
 30
0.0
 11
178.7250497232871
 21
38.745580216496371
 31
0.0
  0
LINE
  5
148D
  8
TITLE
 10
178.42017100028261
 20
38.3534166208442
 30
0.0
 11
178.8412384816192
 21
38.77448410218085
 31
0.0
  0
LINE
  5
148E
  8
TITLE
 10
177.44279023866139
 20
38.42345433098194
 30
0.0
 11
177.85815195723259
 21
38.838816049552861
 31
0.0
  0
LINE
  5
148F
  8
TITLE
 10
177.53007511130821
 20
38.42345433098194
 30
0.0
 11
177.85815195723259
 21
38.751531176906148
 31
0.0
  0
LINE
  5
1490
  8
TITLE
 10
178.42017100028261
 20
38.266131748196813
 30
0.0
 11
178.96273860190189
 21
38.808699349816379
 31
0.0
  0
LINE
  5
1491
  8
TITLE
 10
177.26822049336801
 20
38.42345433098194
 30
0.0
 11
177.85815195723259
 21
39.013385794843771
 31
0.0
  0
LINE
  5
1492
  8
TITLE
 10
177.35550536601471
 20
38.42345433098194
 30
0.0
 11
177.85815195723259
 21
38.926100922200483
 31
0.0
  0
LINE
  5
1493
  8
TITLE
 10
177.25988521308679
 20
34.661869526898727
 30
0.0
 11
177.85815195723259
 21
35.26013627104885
 31
0.0
  0
LINE
  5
1494
  8
TITLE
 10
177.31000095156281
 20
34.624700392730801
 30
0.0
 11
177.85815195723259
 21
35.172851398401242
 31
0.0
  0
LINE
  5
1495
  8
TITLE
 10
177.36083662384041
 20
34.588251192358257
 30
0.0
 11
177.85815195723259
 21
35.085566525753848
 31
0.0
  0
LINE
  5
1496
  8
TITLE
 10
177.41239799349569
 20
34.552527689373171
 30
0.0
 11
177.85815195723259
 21
34.998281653107142
 31
0.0
  0
LINE
  5
1497
  8
TITLE
 10
178.70729205142919
 20
34.887288148192063
 30
0.0
 11
178.92447534009801
 21
35.104471436859512
 31
0.0
  0
LINE
  5
1498
  8
TITLE
 10
177.6813393473048
 20
34.385044679946759
 30
0.0
 11
177.85815195723259
 21
34.561857289874979
 31
0.0
  0
LINE
  5
1499
  8
TITLE
 10
177.7374145998119
 20
34.353835059810081
 30
0.0
 11
177.85815195723259
 21
34.474572417227591
 31
0.0
  0
LINE
  5
149A
  8
TITLE
 10
177.79427595704689
 20
34.323411544398141
 30
0.0
 11
177.85815195723259
 21
34.387287544584517
 31
0.0
  0
LINE
  5
149B
  8
TITLE
 10
177.8519353854935
 20
34.293786100193302
 30
0.0
 11
177.85815195723259
 21
34.300002671936909
 31
0.0
  0
LINE
  5
149C
  8
TITLE
 10
177.4646914769919
 20
34.51753630021858
 30
0.0
 11
177.85815195723259
 21
34.910996780459747
 31
0.0
  0
LINE
  5
149D
  8
TITLE
 10
177.51772417073701
 20
34.483284121316728
 30
0.0
 11
177.85815195723259
 21
34.823711907812822
 31
0.0
  0
LINE
  5
149E
  8
TITLE
 10
177.57150388175981
 20
34.449778959692139
 30
0.0
 11
177.85815195723259
 21
34.736427035165441
 31
0.0
  0
LINE
  5
149F
  8
TITLE
 10
177.62603916207991
 20
34.417029367365103
 30
0.0
 11
177.85815195723259
 21
34.649142162521912
 31
0.0
  0
LINE
  5
14A0
  8
TITLE
 10
178.70729205142919
 20
34.974573020839223
 30
0.0
 11
178.75860099086091
 21
35.025881960273637
 31
0.0
  0
LINE
  5
14A1
  8
TITLE
 10
178.42017100028261
 20
36.433149422620772
 30
0.0
 11
178.9752751601209
 21
36.988253582461773
 31
0.0
  0
LINE
  5
14A2
  8
TITLE
 10
178.42017100028261
 20
36.69500404055907
 30
0.0
 11
178.71342054218621
 21
36.988253582461773
 31
0.0
  0
LINE
  5
14A3
  8
TITLE
 10
178.42017100028261
 20
36.607719167915093
 30
0.0
 11
178.80070541483289
 21
36.988253582461773
 31
0.0
  0
LINE
  5
14A4
  8
TITLE
 10
178.42017100028261
 20
36.52043429526794
 30
0.0
 11
178.88799028747229
 21
36.988253582461773
 31
0.0
  0
LINE
  5
14A5
  8
TITLE
 10
178.42017100028261
 20
36.95685865849692
 30
0.0
 11
178.45156592424419
 21
36.988253582461773
 31
0.0
  0
LINE
  5
14A6
  8
TITLE
 10
178.42017100028261
 20
36.869573785849532
 30
0.0
 11
178.5388507968909
 21
36.988253582461773
 31
0.0
  0
LINE
  5
14A7
  8
TITLE
 10
178.42017100028261
 20
36.78228891320623
 30
0.0
 11
178.6261356695386
 21
36.988253582461773
 31
0.0
  0
LINE
  5
14A8
  8
TITLE
 10
178.42017100028261
 20
37.916992257607937
 30
0.0
 11
179.52877310758771
 21
39.025594364917197
 31
0.0
  0
LINE
  5
14A9
  8
TITLE
 10
178.42017100028261
 20
37.829707384960791
 30
0.0
 11
179.70443841008819
 21
39.113974794770002
 31
0.0
  0
LINE
  5
14AA
  8
TITLE
 10
178.5127011256327
 20
37.834952637663719
 30
0.0
 11
179.9086611793791
 21
39.23091269141014
 31
0.0
  0
LINE
  5
14AB
  8
TITLE
 10
178.70729205142919
 20
34.450863784960347
 30
0.0
 11
180.47909126485229
 21
36.222662998378837
 31
0.0
  0
LINE
  5
14AC
  8
TITLE
 10
178.70729205142919
 20
34.36357891231637
 30
0.0
 11
180.4674022030249
 21
36.123689063912032
 31
0.0
  0
LINE
  5
14AD
  8
TITLE
 10
178.72166237584861
 20
34.290664364088123
 30
0.0
 11
180.45021234783229
 21
36.019214336071862
 31
0.0
  0
LINE
  5
14AE
  8
TITLE
 10
178.80894724849529
 20
34.290664364088123
 30
0.0
 11
180.42631676081049
 21
35.908033876402897
 31
0.0
  0
LINE
  5
14AF
  8
TITLE
 10
178.8962321211429
 20
34.290664364088123
 30
0.0
 11
180.39392155695711
 21
35.788353799902332
 31
0.0
  0
LINE
  5
14B0
  8
TITLE
 10
178.98351699379049
 20
34.290664364088123
 30
0.0
 11
180.35013511005849
 21
35.657282480356571
 31
0.0
  0
LINE
  5
14B1
  8
TITLE
 10
178.88241953137
 20
36.284403845184897
 30
0.0
 11
179.5862692686496
 21
36.988253582461773
 31
0.0
  0
LINE
  5
14B2
  8
TITLE
 10
178.96970440401671
 20
36.284403845184897
 30
0.0
 11
179.67355414129719
 21
36.988253582461773
 31
0.0
  0
LINE
  5
14B3
  8
TITLE
 10
178.79513465872969
 20
36.284403845184897
 30
0.0
 11
179.4989843960029
 21
36.988253582461773
 31
0.0
  0
LINE
  5
14B4
  8
TITLE
 10
178.42017100028261
 20
36.345864549974067
 30
0.0
 11
179.06256003276761
 21
36.988253582461773
 31
0.0
  0
LINE
  5
14B5
  8
TITLE
 10
178.445995168141
 20
36.284403845184897
 30
0.0
 11
179.14984490541431
 21
36.988253582461773
 31
0.0
  0
LINE
  5
14B6
  8
TITLE
 10
178.53328004078861
 20
36.284403845184897
 30
0.0
 11
179.2371297780619
 21
36.988253582461773
 31
0.0
  0
LINE
  5
14B7
  8
TITLE
 10
178.6205649134354
 20
36.284403845184897
 30
0.0
 11
179.3244146507086
 21
36.988253582461773
 31
0.0
  0
LINE
  5
14B8
  8
TITLE
 10
178.70784978608211
 20
36.284403845184897
 30
0.0
 11
179.41169952335619
 21
36.988253582461773
 31
0.0
  0
LINE
  5
14B9
  8
TITLE
 10
178.42017100028261
 20
38.178846875549652
 30
0.0
 11
179.09053220582419
 21
38.849208081094268
 31
0.0
  0
LINE
  5
14BA
  8
TITLE
 10
178.42017100028261
 20
38.09156200290272
 30
0.0
 11
179.22597544339439
 21
38.897366446014978
 31
0.0
  0
LINE
  5
14BB
  8
TITLE
 10
178.42017100028261
 20
38.004277130256021
 30
0.0
 11
179.3710363945865
 21
38.955142524559051
 31
0.0
  0
LINE
  5
14BC
  8
TITLE
 10
175.71637448553969
 20
39.402869629899669
 30
0.0
 11
176.1687931069973
 21
39.855288251358161
 31
0.0
  0
LINE
  5
14BD
  8
TITLE
 10
175.71637448553969
 20
39.315584757252509
 30
0.0
 11
176.2560779796458
 21
39.855288251358161
 31
0.0
  0
LINE
  5
14BE
  8
TITLE
 10
175.71637448553969
 20
39.664724247837739
 30
0.0
 11
175.9069384890563
 21
39.855288251358161
 31
0.0
  0
LINE
  5
14BF
  8
TITLE
 10
175.71637448553969
 20
39.577439375193762
 30
0.0
 11
175.99422336170389
 21
39.855288251358161
 31
0.0
  0
LINE
  5
14C0
  8
TITLE
 10
175.71637448553969
 20
39.490154502546829
 30
0.0
 11
176.08150823435059
 21
39.855288251358161
 31
0.0
  0
LINE
  5
14C1
  8
TITLE
 10
175.71637448553969
 20
39.839293993131832
 30
0.0
 11
175.7323687437692
 21
39.855288251358161
 31
0.0
  0
LINE
  5
14C2
  8
TITLE
 10
175.71637448553969
 20
39.752009120484672
 30
0.0
 11
175.81965361641679
 21
39.855288251358161
 31
0.0
  0
LINE
  5
14C3
  8
TITLE
 10
176.97009795764549
 20
39.609174630247708
 30
0.0
 11
177.21621157875691
 21
39.855288251358161
 31
0.0
  0
LINE
  5
14C4
  8
TITLE
 10
176.97009795764549
 20
39.52188975760032
 30
0.0
 11
177.30349645140359
 21
39.855288251358161
 31
0.0
  0
LINE
  5
14C5
  8
TITLE
 10
176.97009795764549
 20
39.43460488495316
 30
0.0
 11
177.3907813240512
 21
39.855288251358161
 31
0.0
  0
LINE
  5
14C6
  8
TITLE
 10
177.037492931081
 20
39.414714985748788
 30
0.0
 11
177.47806619669791
 21
39.855288251358161
 31
0.0
  0
LINE
  5
14C7
  8
TITLE
 10
177.12477780372859
 20
39.414714985748788
 30
0.0
 11
177.56535106934459
 21
39.855288251358161
 31
0.0
  0
LINE
  5
14C8
  8
TITLE
 10
177.2120626763753
 20
39.414714985748788
 30
0.0
 11
177.6526359419922
 21
39.855288251358161
 31
0.0
  0
LINE
  5
14C9
  8
TITLE
 10
176.97009795764549
 20
39.78374437553839
 30
0.0
 11
177.04164183346251
 21
39.855288251358161
 31
0.0
  0
LINE
  5
14CA
  8
TITLE
 10
176.97009795764549
 20
39.69645950289123
 30
0.0
 11
177.12892670610921
 21
39.855288251358161
 31
0.0
  0
LINE
  5
14CB
  8
TITLE
 10
177.29934754902291
 20
39.414714985748788
 30
0.0
 11
177.73992081463979
 21
39.855288251358161
 31
0.0
  0
LINE
  5
14CC
  8
TITLE
 10
177.38663242166959
 20
39.414714985748788
 30
0.0
 11
177.82720568727919
 21
39.855288251358161
 31
0.0
  0
LINE
  5
14CD
  8
TITLE
 10
177.47391729431729
 20
39.414714985748788
 30
0.0
 11
177.85815195723259
 21
39.798949648664802
 31
0.0
  0
LINE
  5
14CE
  8
TITLE
 10
177.56120216696399
 20
39.414714985748788
 30
0.0
 11
177.85815195723259
 21
39.711664776017642
 31
0.0
  0
LINE
  5
14CF
  8
TITLE
 10
177.64848703961161
 20
39.414714985748788
 30
0.0
 11
177.85815195723259
 21
39.624379903370937
 31
0.0
  0
LINE
  5
14D0
  8
TITLE
 10
177.7357719122592
 20
39.414714985748788
 30
0.0
 11
177.85815195723259
 21
39.537095030723322
 31
0.0
  0
LINE
  5
14D1
  8
TITLE
 10
177.8230567849059
 20
39.414714985748788
 30
0.0
 11
177.85815195723259
 21
39.449810158075941
 31
0.0
  0
LINE
  5
14D2
  8
TITLE
 10
188.672137857553
 20
34.290664364088123
 30
0.0
 11
189.52437755531901
 21
35.142904061858637
 31
0.0
  0
LINE
  5
14D3
  8
TITLE
 10
188.7594227301924
 20
34.290664364088123
 30
0.0
 11
189.61166242796659
 21
35.142904061858637
 31
0.0
  0
LINE
  5
14D4
  8
TITLE
 10
188.84670760284001
 20
34.290664364088123
 30
0.0
 11
189.69894730061421
 21
35.142904061858637
 31
0.0
  0
LINE
  5
14D5
  8
TITLE
 10
188.9339924754868
 20
34.290664364088123
 30
0.0
 11
189.78623217325369
 21
35.142904061858637
 31
0.0
  0
LINE
  5
14D6
  8
TITLE
 10
188.25084515361871
 20
37.27348169337165
 30
0.0
 11
189.554292226413
 21
38.576928766166247
 31
0.0
  0
LINE
  5
14D7
  8
TITLE
 10
188.25084515361871
 20
37.186196820724952
 30
0.0
 11
189.6415770990597
 21
38.576928766166247
 31
0.0
  0
LINE
  5
14D8
  8
TITLE
 10
188.25084515361871
 20
37.098911948077792
 30
0.0
 11
189.72886197170729
 21
38.576928766166247
 31
0.0
  0
LINE
  5
14D9
  8
TITLE
 10
188.25084515361871
 20
37.011627075430617
 30
0.0
 11
189.81614684435411
 21
38.576928766166247
 31
0.0
  0
LINE
  5
14DA
  8
TITLE
 10
188.25084515361871
 20
36.924342202783471
 30
0.0
 11
189.90343171699439
 21
38.576928766166247
 31
0.0
  0
LINE
  5
14DB
  8
TITLE
 10
188.25084515361871
 20
39.019179146300758
 30
0.0
 11
189.086954258677
 21
39.855288251358161
 31
0.0
  0
LINE
  5
14DC
  8
TITLE
 10
188.25084515361871
 20
38.931894273653832
 30
0.0
 11
189.12927505564039
 21
39.810324175678943
 31
0.0
  0
LINE
  5
14DD
  8
TITLE
 10
188.25084515361871
 20
38.844609401006892
 30
0.0
 11
189.12927505564039
 21
39.723039303031783
 31
0.0
  0
LINE
  5
14DE
  8
TITLE
 10
188.25084515361871
 20
38.757324528359511
 30
0.0
 11
189.12927505564039
 21
39.635754430387813
 31
0.0
  0
LINE
  5
14DF
  8
TITLE
 10
187.4800643115932
 20
37.724689068395492
 30
0.0
 11
189.12927505564039
 21
39.373899812446332
 31
0.0
  0
LINE
  5
14E0
  8
TITLE
 10
187.56734918424081
 20
37.724689068395492
 30
0.0
 11
189.12927505564039
 21
39.28661493979962
 31
0.0
  0
LINE
  5
14E1
  8
TITLE
 10
187.65463405688749
 20
37.724689068395492
 30
0.0
 11
189.12927505564039
 21
39.199330067152232
 31
0.0
  0
LINE
  5
14E2
  8
TITLE
 10
187.74191892953419
 20
37.724689068395492
 30
0.0
 11
189.12927505564039
 21
39.112045194505299
 31
0.0
  0
LINE
  5
14E3
  8
TITLE
 10
187.8292038021809
 20
37.724689068395492
 30
0.0
 11
189.12927505564039
 21
39.024760321858373
 31
0.0
  0
LINE
  5
14E4
  8
TITLE
 10
188.25084515361871
 20
38.670039655712117
 30
0.0
 11
189.12927505564039
 21
39.548469557740653
 31
0.0
  0
LINE
  5
14E5
  8
TITLE
 10
188.25084515361871
 20
38.582754783065191
 30
0.0
 11
189.12927505564039
 21
39.461184685093492
 31
0.0
  0
LINE
  5
14E6
  8
TITLE
 10
188.1783432927632
 20
37.724689068395492
 30
0.0
 11
189.12927505564039
 21
38.675620831276319
 31
0.0
  0
LINE
  5
14E7
  8
TITLE
 10
188.00377354746891
 20
37.724689068395492
 30
0.0
 11
189.12927505564039
 21
38.850190576567464
 31
0.0
  0
LINE
  5
14E8
  8
TITLE
 10
188.09105842011559
 20
37.724689068395492
 30
0.0
 11
189.12927505564039
 21
38.762905703919841
 31
0.0
  0
LINE
  5
14E9
  8
TITLE
 10
187.91648867482121
 20
37.724689068395492
 30
0.0
 11
189.12927505564039
 21
38.937475449214162
 31
0.0
  0
LINE
  5
14EA
  8
TITLE
 10
188.25084515361871
 20
39.10646401894769
 30
0.0
 11
188.99966938602941
 21
39.855288251358161
 31
0.0
  0
LINE
  5
14EB
  8
TITLE
 10
188.25084515361871
 20
35.702353985734142
 30
0.0
 11
189.12927505564039
 21
36.580783887759033
 31
0.0
  0
LINE
  5
14EC
  8
TITLE
 10
188.25084515361871
 20
35.615069113086967
 30
0.0
 11
189.12927505564039
 21
36.493499015111858
 31
0.0
  0
LINE
  5
14ED
  8
TITLE
 10
188.25084515361871
 20
35.527784240439821
 30
0.0
 11
189.12927505564039
 21
36.406214142464712
 31
0.0
  0
LINE
  5
14EE
  8
TITLE
 10
188.25084515361871
 20
35.440499367796292
 30
0.0
 11
189.12927505564039
 21
36.318929269817552
 31
0.0
  0
LINE
  5
14EF
  8
TITLE
 10
188.25084515361871
 20
35.353214495149359
 30
0.0
 11
189.12927505564039
 21
36.231644397174023
 31
0.0
  0
LINE
  5
14F0
  8
TITLE
 10
188.25084515361871
 20
35.265929622501972
 30
0.0
 11
189.12927505564039
 21
36.144359524527317
 31
0.0
  0
LINE
  5
14F1
  8
TITLE
 10
188.25084515361871
 20
35.178644749854811
 30
0.0
 11
189.12927505564039
 21
36.057074651879709
 31
0.0
  0
LINE
  5
14F2
  8
TITLE
 10
188.25084515361871
 20
35.96420860367175
 30
0.0
 11
189.12927505564039
 21
36.842638505700513
 31
0.0
  0
LINE
  5
14F3
  8
TITLE
 10
188.25084515361871
 20
35.876923731024817
 30
0.0
 11
189.12927505564039
 21
36.755353633053353
 31
0.0
  0
LINE
  5
14F4
  8
TITLE
 10
188.25084515361871
 20
35.789638858377657
 30
0.0
 11
189.12927505564039
 21
36.668068760406641
 31
0.0
  0
LINE
  5
14F5
  8
TITLE
 10
187.45014964049909
 20
34.290664364088123
 30
0.0
 11
189.12927505564039
 21
35.96978977923618
 31
0.0
  0
LINE
  5
14F6
  8
TITLE
 10
187.53743451314671
 20
34.290664364088123
 30
0.0
 11
189.12927505564039
 21
35.882504906589247
 31
0.0
  0
LINE
  5
14F7
  8
TITLE
 10
187.62471938579441
 20
34.290664364088123
 30
0.0
 11
189.12927505564039
 21
35.79522003394186
 31
0.0
  0
LINE
  5
14F8
  8
TITLE
 10
187.71200425844111
 20
34.290664364088123
 30
0.0
 11
189.12927505564039
 21
35.707935161295161
 31
0.0
  0
LINE
  5
14F9
  8
TITLE
 10
187.79928913108051
 20
34.290664364088123
 30
0.0
 11
189.12927505564039
 21
35.620650288647767
 31
0.0
  0
LINE
  5
14FA
  8
TITLE
 10
187.8865740037281
 20
34.290664364088123
 30
0.0
 11
189.12927505564039
 21
35.533365416000379
 31
0.0
  0
LINE
  5
14FB
  8
TITLE
 10
187.97385887637569
 20
34.290664364088123
 30
0.0
 11
189.12927505564039
 21
35.446080543353219
 31
0.0
  0
LINE
  5
14FC
  8
TITLE
 10
188.06114374902239
 20
34.290664364088123
 30
0.0
 11
189.12927505564039
 21
35.358795670706058
 31
0.0
  0
LINE
  5
14FD
  8
TITLE
 10
188.1484286216691
 20
34.290664364088123
 30
0.0
 11
189.12927505564039
 21
35.271510798062771
 31
0.0
  0
LINE
  5
14FE
  8
TITLE
 10
188.2357134943168
 20
34.290664364088123
 30
0.0
 11
189.12927505564039
 21
35.184225925415831
 31
0.0
  0
LINE
  5
14FF
  8
TITLE
 10
188.3229983669643
 20
34.290664364088123
 30
0.0
 11
189.17523806473039
 21
35.142904061858637
 31
0.0
  0
LINE
  5
1500
  8
TITLE
 10
188.41028323961109
 20
34.290664364088123
 30
0.0
 11
189.26252293737801
 21
35.142904061858637
 31
0.0
  0
LINE
  5
1501
  8
TITLE
 10
188.4975681122578
 20
34.290664364088123
 30
0.0
 11
189.3498078100256
 21
35.142904061858637
 31
0.0
  0
LINE
  5
1502
  8
TITLE
 10
188.58485298490541
 20
34.290664364088123
 30
0.0
 11
189.4370926826723
 21
35.142904061858637
 31
0.0
  0
LINE
  5
1503
  8
TITLE
 10
188.25084515361871
 20
36.837057330136297
 30
0.0
 11
189.12927505564039
 21
37.715487232164833
 31
0.0
  0
LINE
  5
1504
  8
TITLE
 10
188.25084515361871
 20
36.749772457489151
 30
0.0
 11
189.12927505564039
 21
37.6282023595179
 31
0.0
  0
LINE
  5
1505
  8
TITLE
 10
188.25084515361871
 20
36.662487584841983
 30
0.0
 11
189.12927505564039
 21
37.540917486870967
 31
0.0
  0
LINE
  5
1506
  8
TITLE
 10
188.25084515361871
 20
36.575202712198013
 30
0.0
 11
189.12927505564039
 21
37.453632614223352
 31
0.0
  0
LINE
  5
1507
  8
TITLE
 10
188.25084515361871
 20
36.487917839551301
 30
0.0
 11
189.12927505564039
 21
37.366347741576192
 31
0.0
  0
LINE
  5
1508
  8
TITLE
 10
188.25084515361871
 20
36.400632966907779
 30
0.0
 11
189.12927505564039
 21
37.279062868929032
 31
0.0
  0
LINE
  5
1509
  8
TITLE
 10
188.25084515361871
 20
36.313348094260618
 30
0.0
 11
189.12927505564039
 21
37.191777996282333
 31
0.0
  0
LINE
  5
150A
  8
TITLE
 10
188.25084515361871
 20
36.226063221613231
 30
0.0
 11
189.12927505564039
 21
37.104493123638349
 31
0.0
  0
LINE
  5
150B
  8
TITLE
 10
188.25084515361871
 20
36.138778348966298
 30
0.0
 11
189.12927505564039
 21
37.017208250991189
 31
0.0
  0
LINE
  5
150C
  8
TITLE
 10
188.25084515361871
 20
36.051493476319138
 30
0.0
 11
189.12927505564039
 21
36.929923378347667
 31
0.0
  0
LINE
  5
150D
  8
TITLE
 10
188.25084515361871
 20
37.70990605660063
 30
0.0
 11
189.12927505564039
 21
38.588335958629159
 31
0.0
  0
LINE
  5
150E
  8
TITLE
 10
188.25084515361871
 20
37.622621183953932
 30
0.0
 11
189.2051527358235
 21
38.576928766166247
 31
0.0
  0
LINE
  5
150F
  8
TITLE
 10
188.25084515361871
 20
37.535336311309948
 30
0.0
 11
189.292437608472
 21
38.576928766166247
 31
0.0
  0
LINE
  5
1510
  8
TITLE
 10
188.25084515361871
 20
37.448051438662787
 30
0.0
 11
189.3797224811187
 21
38.576928766166247
 31
0.0
  0
LINE
  5
1511
  8
TITLE
 10
188.25084515361871
 20
37.360766566015627
 30
0.0
 11
189.46700735376541
 21
38.576928766166247
 31
0.0
  0
LINE
  5
1512
  8
TITLE
 10
181.29070441303151
 20
39.129113090078818
 30
0.0
 11
181.86563779457529
 21
39.704046471619449
 31
0.0
  0
LINE
  5
1513
  8
TITLE
 10
181.2001762442878
 20
39.213154666626679
 30
0.0
 11
181.77620622039831
 21
39.789184642736252
 31
0.0
  0
LINE
  5
1514
  8
TITLE
 10
181.2451882639179
 20
39.170881813608503
 30
0.0
 11
181.8205856969762
 21
39.746279246667882
 31
0.0
  0
LINE
  5
1515
  8
TITLE
 10
184.93086735857381
 20
38.317747530649292
 30
0.0
 11
186.41517726554409
 21
39.802057437618707
 31
0.0
  0
LINE
  5
1516
  8
TITLE
 10
185.01815223122139
 20
38.317747530649292
 30
0.0
 11
186.41517726554409
 21
39.714772564971561
 31
0.0
  0
LINE
  5
1517
  8
TITLE
 10
185.10543710386079
 20
38.317747530649292
 30
0.0
 11
186.41517726554409
 21
39.627487692324848
 31
0.0
  0
LINE
  5
1518
  8
TITLE
 10
185.19272197650841
 20
38.317747530649292
 30
0.0
 11
186.41517726554409
 21
39.540202819677241
 31
0.0
  0
LINE
  5
1519
  8
TITLE
 10
185.280006849156
 20
38.317747530649292
 30
0.0
 11
186.41517726554409
 21
39.452917947030301
 31
0.0
  0
LINE
  5
151A
  8
TITLE
 10
185.3672917218027
 20
38.317747530649292
 30
0.0
 11
186.41517726554409
 21
39.365633074382913
 31
0.0
  0
LINE
  5
151B
  8
TITLE
 10
181.4302861585038
 20
39.006840217613899
 30
0.0
 11
182.0048422895816
 21
39.581396348687122
 31
0.0
  0
LINE
  5
151C
  8
TITLE
 10
181.47782837584049
 20
38.96709756229621
 30
0.0
 11
182.0525997903714
 21
39.541868976827118
 31
0.0
  0
LINE
  5
151D
  8
TITLE
 10
181.5258805350804
 20
38.927864848896213
 30
0.0
 11
182.10103983979289
 21
39.503024153601018
 31
0.0
  0
LINE
  5
151E
  8
TITLE
 10
181.5744444305565
 20
38.889143871721899
 30
0.0
 11
182.150165934483
 21
39.464865375644422
 31
0.0
  0
LINE
  5
151F
  8
TITLE
 10
181.6235220747576
 20
38.850936643279063
 30
0.0
 11
182.19998210041101
 21
39.427396668932033
 31
0.0
  0
LINE
  5
1520
  8
TITLE
 10
181.67311570255791
 20
38.813245398431953
 30
0.0
 11
182.2504929079814
 21
39.390622603855718
 31
0.0
  0
LINE
  5
1521
  8
TITLE
 10
181.72322777587399
 20
38.776072599101099
 30
0.0
 11
182.30170348939831
 21
39.354548312624281
 31
0.0
  0
LINE
  5
1522
  8
TITLE
 10
181.77386098891839
 20
38.739420939498132
 30
0.0
 11
182.35361955848381
 21
39.31917950906336
 31
0.0
  0
LINE
  5
1523
  8
TITLE
 10
181.33672544146879
 20
39.08784924586962
 30
0.0
 11
181.9113635182766
 21
39.662487322676952
 31
0.0
  0
LINE
  5
1524
  8
TITLE
 10
181.38325230324969
 20
39.047091235002661
 30
0.0
 11
181.95776435715379
 21
39.621603288911047
 31
0.0
  0
LINE
  5
1525
  8
TITLE
 10
188.25084515361871
 20
39.281033764238828
 30
0.0
 11
188.825099640735
 21
39.855288251358161
 31
0.0
  0
LINE
  5
1526
  8
TITLE
 10
188.25084515361871
 20
39.193748891591667
 30
0.0
 11
188.91238451338171
 21
39.855288251358161
 31
0.0
  0
LINE
  5
1527
  8
TITLE
 10
185.5799160470651
 20
39.141365964434733
 30
0.0
 11
186.2938383339887
 21
39.855288251358161
 31
0.0
  0
LINE
  5
1528
  8
TITLE
 10
185.5799160470651
 20
39.054081091787339
 30
0.0
 11
186.3811232066364
 21
39.855288251358161
 31
0.0
  0
LINE
  5
1529
  8
TITLE
 10
185.5799160470651
 20
39.228650837078249
 30
0.0
 11
186.20655346134211
 21
39.855288251358161
 31
0.0
  0
LINE
  5
152A
  8
TITLE
 10
184.7562976132794
 20
38.317747530649292
 30
0.0
 11
185.416532722993
 21
38.977982640358732
 31
0.0
  0
LINE
  5
152B
  8
TITLE
 10
184.84358248592611
 20
38.317747530649292
 30
0.0
 11
185.5038175956324
 21
38.977982640358732
 31
0.0
  0
LINE
  5
152C
  8
TITLE
 10
184.53583911532399
 20
35.827882343885449
 30
0.0
 11
187.23669575390161
 21
38.528738982458442
 31
0.0
  0
LINE
  5
152D
  8
TITLE
 10
184.70650526894039
 20
35.736693879563973
 30
0.0
 11
187.18987184564591
 21
38.220060456265863
 31
0.0
  0
LINE
  5
152E
  8
TITLE
 10
184.8185934087432
 20
35.761497146719648
 30
0.0
 11
187.16506857848981
 21
38.107972316465982
 31
0.0
  0
LINE
  5
152F
  8
TITLE
 10
184.53583911532399
 20
35.740597471242147
 30
0.0
 11
187.22506325416359
 21
38.429821610074441
 31
0.0
  0
LINE
  5
1530
  8
TITLE
 10
184.59945646041251
 20
35.716929943683233
 30
0.0
 11
187.2096357815262
 21
38.327109264789669
 31
0.0
  0
LINE
  5
1531
  8
TITLE
 10
184.6690127406327
 20
38.317747530649292
 30
0.0
 11
185.32924785034629
 21
38.977982640358732
 31
0.0
  0
LINE
  5
1532
  8
TITLE
 10
184.53583911532399
 20
38.446428523282059
 30
0.0
 11
185.0673932324043
 21
38.977982640358732
 31
0.0
  0
LINE
  5
1533
  8
TITLE
 10
184.53583911532399
 20
38.359143650635133
 30
0.0
 11
185.154678105051
 21
38.977982640358732
 31
0.0
  0
LINE
  5
1534
  8
TITLE
 10
184.58172786798599
 20
38.317747530649292
 30
0.0
 11
185.24196297769871
 21
38.977982640358732
 31
0.0
  0
LINE
  5
1535
  8
TITLE
 10
184.53583911532399
 20
38.62099826857321
 30
0.0
 11
184.89282348711001
 21
38.977982640358732
 31
0.0
  0
LINE
  5
1536
  8
TITLE
 10
184.53583911532399
 20
38.533713395926043
 30
0.0
 11
184.98010835975759
 21
38.977982640358732
 31
0.0
  0
LINE
  5
1537
  8
TITLE
 10
184.53583911532399
 20
35.915167216532609
 30
0.0
 11
185.36061468119991
 21
36.739942782404803
 31
0.0
  0
LINE
  5
1538
  8
TITLE
 10
184.53583911532399
 20
36.089736961823519
 30
0.0
 11
184.97922932032989
 21
36.533127166828763
 31
0.0
  0
LINE
  5
1539
  8
TITLE
 10
184.53583911532399
 20
36.002452089179769
 30
0.0
 11
185.14253615227241
 21
36.609149126124073
 31
0.0
  0
LINE
  5
153A
  8
TITLE
 10
181.25292368260119
 20
34.290664364088123
 30
0.0
 11
182.933841181155
 21
35.9715818626496
 31
0.0
  0
LINE
  5
153B
  8
TITLE
 10
181.16563880995449
 20
34.290664364088123
 30
0.0
 11
182.8465563085083
 21
35.9715818626496
 31
0.0
  0
LINE
  5
153C
  8
TITLE
 10
180.8164993193659
 20
34.290664364088123
 30
0.0
 11
181.5328819517963
 21
35.007046996521701
 31
0.0
  0
LINE
  5
153D
  8
TITLE
 10
180.90378419201261
 20
34.290664364088123
 30
0.0
 11
181.6242289278307
 21
35.011109099906207
 31
0.0
  0
LINE
  5
153E
  8
TITLE
 10
180.99106906466019
 20
34.290664364088123
 30
0.0
 11
181.73148138608121
 21
35.031076685508431
 31
0.0
  0
LINE
  5
153F
  8
TITLE
 10
181.07835393730781
 20
34.290664364088123
 30
0.0
 11
181.86956489406839
 21
35.081875320848212
 31
0.0
  0
LINE
  5
1540
  8
TITLE
 10
180.80268672959301
 20
36.284403845184897
 30
0.0
 11
181.50653646687351
 21
36.988253582461773
 31
0.0
  0
LINE
  5
1541
  8
TITLE
 10
180.88997160224059
 20
36.284403845184897
 30
0.0
 11
181.59382133951291
 21
36.988253582461773
 31
0.0
  0
LINE
  5
1542
  8
TITLE
 10
180.9772564748873
 20
36.284403845184897
 30
0.0
 11
181.68110621215959
 21
36.988253582461773
 31
0.0
  0
LINE
  5
1543
  8
TITLE
 10
181.064541347534
 20
36.284403845184897
 30
0.0
 11
181.7683910848082
 21
36.988253582461773
 31
0.0
  0
LINE
  5
1544
  8
TITLE
 10
181.15182622018071
 20
36.284403845184897
 30
0.0
 11
181.85567595745491
 21
36.988253582461773
 31
0.0
  0
LINE
  5
1545
  8
TITLE
 10
181.23911109282921
 20
36.284403845184897
 30
0.0
 11
181.94296083010161
 21
36.988253582461773
 31
0.0
  0
LINE
  5
1546
  8
TITLE
 10
180.81499773088939
 20
37.431418190884422
 30
0.0
 11
181.59705299452611
 21
38.213473454524319
 31
0.0
  0
LINE
  5
1547
  8
TITLE
 10
180.902282603537
 20
37.431418190884422
 30
0.0
 11
181.6843378671729
 21
38.213473454524319
 31
0.0
  0
LINE
  5
1548
  8
TITLE
 10
180.9895674761847
 20
37.431418190884422
 30
0.0
 11
181.77162273981949
 21
38.213473454524319
 31
0.0
  0
LINE
  5
1549
  8
TITLE
 10
181.0768523488313
 20
37.431418190884422
 30
0.0
 11
181.8589076124681
 21
38.213473454524319
 31
0.0
  0
LINE
  5
154A
  8
TITLE
 10
181.16413722147081
 20
37.431418190884422
 30
0.0
 11
181.94619248511481
 21
38.213473454524319
 31
0.0
  0
LINE
  5
154B
  8
TITLE
 10
181.2514220941184
 20
37.431418190884422
 30
0.0
 11
182.03347735776151
 21
38.213473454524319
 31
0.0
  0
LINE
  5
154C
  8
TITLE
 10
184.53583911532399
 20
38.970137759158213
 30
0.0
 11
184.54368399652861
 21
38.977982640358732
 31
0.0
  0
LINE
  5
154D
  8
TITLE
 10
184.53583911532399
 20
38.882852886510818
 30
0.0
 11
184.63096886916901
 21
38.977982640358732
 31
0.0
  0
LINE
  5
154E
  8
TITLE
 10
184.53583911532399
 20
38.795568013863893
 30
0.0
 11
184.71825374181569
 21
38.977982640358732
 31
0.0
  0
LINE
  5
154F
  8
TITLE
 10
183.15732368283531
 20
38.028046689904841
 30
0.0
 11
183.8400505491372
 21
38.710773556205822
 31
0.0
  0
LINE
  5
1550
  8
TITLE
 10
183.2227347411162
 20
38.006172875538823
 30
0.0
 11
183.91406439253021
 21
38.697502526952583
 31
0.0
  0
LINE
  5
1551
  8
TITLE
 10
183.28885476830871
 20
37.985008030084153
 30
0.0
 11
183.97987964601629
 21
38.67603290779175
 31
0.0
  0
LINE
  5
1552
  8
TITLE
 10
183.3556981151705
 20
37.964566504295362
 30
0.0
 11
183.97987964601629
 21
38.588748035144363
 31
0.0
  0
LINE
  5
1553
  8
TITLE
 10
183.63062360672569
 20
37.890352505265128
 30
0.0
 11
183.97987964601629
 21
38.23960854455936
 31
0.0
  0
LINE
  5
1554
  8
TITLE
 10
183.70133171111951
 20
37.873775737012238
 30
0.0
 11
183.97987964601629
 21
38.152323671915838
 31
0.0
  0
LINE
  5
1555
  8
TITLE
 10
183.42328000347609
 20
37.94486351995284
 30
0.0
 11
183.97987964601629
 21
38.501463162497203
 31
0.0
  0
LINE
  5
1556
  8
TITLE
 10
183.49161659070879
 20
37.925915234538031
 30
0.0
 11
183.97987964601629
 21
38.41417828985368
 31
0.0
  0
LINE
  5
1557
  8
TITLE
 10
183.56072504150691
 20
37.907738812692742
 30
0.0
 11
183.97987964601629
 21
38.326893417206747
 31
0.0
  0
LINE
  5
1558
  8
TITLE
 10
183.77287005082141
 20
37.858029204074228
 30
0.0
 11
183.97987964601629
 21
38.065038799268677
 31
0.0
  0
LINE
  5
1559
  8
TITLE
 10
183.84526070198081
 20
37.84313498258598
 30
0.0
 11
183.97987964601629
 21
37.977753926621517
 31
0.0
  0
LINE
  5
155A
  8
TITLE
 10
183.91852724209269
 20
37.82911665005031
 30
0.0
 11
183.97987964601629
 21
37.890469053974591
 31
0.0
  0
LINE
  5
155B
  8
TITLE
 10
184.53583911532399
 20
38.708283141219908
 30
0.0
 11
184.80553861446239
 21
38.977982640358732
 31
0.0
  0
LINE
  5
155C
  8
TITLE
 10
182.14316343267819
 20
38.497729274735093
 30
0.0
 11
182.7373995581292
 21
39.091965400186382
 31
0.0
  0
LINE
  5
155D
  8
TITLE
 10
182.19809282005639
 20
38.465373789466192
 30
0.0
 11
182.79524385877991
 21
39.062524828189233
 31
0.0
  0
LINE
  5
155E
  8
TITLE
 10
182.25357921022439
 20
38.433575306990861
 30
0.0
 11
182.85387601333241
 21
39.033872110094762
 31
0.0
  0
LINE
  5
155F
  8
TITLE
 10
181.92891801792121
 20
38.632623350563328
 30
0.0
 11
182.5136670454558
 21
39.217372378097927
 31
0.0
  0
LINE
  5
1560
  8
TITLE
 10
181.98166759199739
 20
38.598088051996228
 30
0.0
 11
182.5684746822262
 21
39.184895142216881
 31
0.0
  0
LINE
  5
1561
  8
TITLE
 10
182.0349554842287
 20
38.564091071579703
 30
0.0
 11
182.62402598976769
 21
39.15316157711846
 31
0.0
  0
LINE
  5
1562
  8
TITLE
 10
182.08878592542979
 20
38.530636640134162
 30
0.0
 11
182.68033075128551
 21
39.122181465988888
 31
0.0
  0
LINE
  5
1563
  8
TITLE
 10
181.82501827393301
 20
38.703293351865803
 30
0.0
 11
182.4062474331167
 21
39.28452251105
 31
0.0
  0
LINE
  5
1564
  8
TITLE
 10
181.876702807589
 20
38.667693012874231
 30
0.0
 11
182.45959406049221
 21
39.250584265777661
 31
0.0
  0
LINE
  5
1565
  8
TITLE
 10
182.3662451093987
 20
38.371671460866992
 30
0.0
 11
182.97355825412069
 21
38.978984605592359
 31
0.0
  0
LINE
  5
1566
  8
TITLE
 10
182.42343652560339
 20
38.341578004427447
 30
0.0
 11
183.03463820121209
 21
38.952779680040287
 31
0.0
  0
LINE
  5
1567
  8
TITLE
 10
182.48120878989721
 20
38.312065396074331
 30
0.0
 11
183.09656588409501
 21
38.927422490268782
 31
0.0
  0
LINE
  5
1568
  8
TITLE
 10
182.30962804709091
 20
38.402339271206984
 30
0.0
 11
182.91330935425501
 21
39.006020578374319
 31
0.0
  0
LINE
  5
1569
  8
TITLE
 10
183.09260805502981
 20
38.050615934739653
 30
0.0
 11
183.76722887495089
 21
38.725236754659818
 31
0.0
  0
LINE
  5
156A
  8
TITLE
 10
182.5985237740706
 20
38.25481063494999
 30
0.0
 11
183.2230377924061
 21
38.879324653292322
 31
0.0
  0
LINE
  5
156B
  8
TITLE
 10
182.6580814751014
 20
38.227083463337301
 30
0.0
 11
183.28762230785651
 21
38.856624296096022
 31
0.0
  0
LINE
  5
156C
  8
TITLE
 10
182.53956877960621
 20
38.283140513136011
 30
0.0
 11
183.15935928626089
 21
38.90293101979114
 31
0.0
  0
LINE
  5
156D
  8
TITLE
 10
183.1731908808178
 20
34.290664364088123
 30
0.0
 11
183.6805173432422
 21
34.797990826511978
 31
0.0
  0
LINE
  5
156E
  8
TITLE
 10
183.2604757534645
 20
34.290664364088123
 30
0.0
 11
183.71290877051609
 21
34.743097381139251
 31
0.0
  0
LINE
  5
156F
  8
TITLE
 10
183.34776062611121
 20
34.290664364088123
 30
0.0
 11
183.74530019779741
 21
34.688203935773352
 31
0.0
  0
LINE
  5
1570
  8
TITLE
 10
183.43504549875891
 20
34.290664364088123
 30
0.0
 11
183.77769162507141
 21
34.633310490400618
 31
0.0
  0
LINE
  5
1571
  8
TITLE
 10
183.5223303714065
 20
34.290664364088123
 30
0.0
 11
183.81008305235261
 21
34.578417045031081
 31
0.0
  0
LINE
  5
1572
  8
TITLE
 10
183.6096152440532
 20
34.290664364088123
 30
0.0
 11
183.84247447962659
 21
34.523523599661978
 31
0.0
  0
LINE
  5
1573
  8
TITLE
 10
183.69690011670079
 20
34.290664364088123
 30
0.0
 11
183.8748659069015
 21
34.468630154292669
 31
0.0
  0
LINE
  5
1574
  8
TITLE
 10
183.78418498934749
 20
34.290664364088123
 30
0.0
 11
183.9072573341827
 21
34.413736708923132
 31
0.0
  0
LINE
  5
1575
  8
TITLE
 10
183.87146986199511
 20
34.290664364088123
 30
0.0
 11
183.93964876145759
 21
34.358843263554043
 31
0.0
  0
LINE
  5
1576
  8
TITLE
 10
183.95875473464179
 20
34.290664364088123
 30
0.0
 11
183.9720401887316
 21
34.303949818184719
 31
0.0
  0
LINE
  5
1577
  8
TITLE
 10
183.68308752692701
 20
36.284403845184897
 30
0.0
 11
183.97987964601629
 21
36.58119596427764
 31
0.0
  0
LINE
  5
1578
  8
TITLE
 10
183.1593782910513
 20
36.284403845184897
 30
0.0
 11
183.8632280283245
 21
36.988253582461773
 31
0.0
  0
LINE
  5
1579
  8
TITLE
 10
183.24666316369891
 20
36.284403845184897
 30
0.0
 11
183.95051290097209
 21
36.988253582461773
 31
0.0
  0
LINE
  5
157A
  8
TITLE
 10
183.3339480363465
 20
36.284403845184897
 30
0.0
 11
183.97987964601629
 21
36.93033545486287
 31
0.0
  0
LINE
  5
157B
  8
TITLE
 10
183.42123290898601
 20
36.284403845184897
 30
0.0
 11
183.97987964601629
 21
36.84305058221571
 31
0.0
  0
LINE
  5
157C
  8
TITLE
 10
183.50851778163269
 20
36.284403845184897
 30
0.0
 11
183.97987964601629
 21
36.75576570956855
 31
0.0
  0
LINE
  5
157D
  8
TITLE
 10
183.59580265428031
 20
36.284403845184897
 30
0.0
 11
183.97987964601629
 21
36.66848083692139
 31
0.0
  0
LINE
  5
157E
  8
TITLE
 10
183.7703723995746
 20
36.284403845184897
 30
0.0
 11
183.97987964601629
 21
36.493911091630707
 31
0.0
  0
LINE
  5
157F
  8
TITLE
 10
183.8576572722213
 20
36.284403845184897
 30
0.0
 11
183.97987964601629
 21
36.406626218983547
 31
0.0
  0
LINE
  5
1580
  8
TITLE
 10
184.53583911532399
 20
36.177021834470906
 30
0.0
 11
184.84011984590691
 21
36.481302565056922
 31
0.0
  0
LINE
  5
1581
  8
TITLE
 10
184.53583911532399
 20
36.351591579765
 30
0.0
 11
184.6017558515486
 21
36.417508315989153
 31
0.0
  0
LINE
  5
1582
  8
TITLE
 10
184.53583911532399
 20
36.264306707117839
 30
0.0
 11
184.7157710607689
 21
36.44423865256249
 31
0.0
  0
LINE
  5
1583
  8
TITLE
 10
183.94494214486889
 20
36.284403845184897
 30
0.0
 11
183.97987964601629
 21
36.319341346340032
 31
0.0
  0
LINE
  5
1584
  8
TITLE
 10
181.34020855524881
 20
34.290664364088123
 30
0.0
 11
183.00029737042399
 21
35.950753179271032
 31
0.0
  0
LINE
  5
1585
  8
TITLE
 10
181.4274934278892
 20
34.290664364088123
 30
0.0
 11
183.032688797698
 21
35.895859733897851
 31
0.0
  0
LINE
  5
1586
  8
TITLE
 10
181.51477830053591
 20
34.290664364088123
 30
0.0
 11
183.06508022498019
 21
35.840966288531952
 31
0.0
  0
LINE
  5
1587
  8
TITLE
 10
181.60206317318259
 20
34.290664364088123
 30
0.0
 11
183.0974716522542
 21
35.786072843159218
 31
0.0
  0
LINE
  5
1588
  8
TITLE
 10
181.6893480458302
 20
34.290664364088123
 30
0.0
 11
183.1298630795354
 21
35.731179397790129
 31
0.0
  0
LINE
  5
1589
  8
TITLE
 10
182.24782212488211
 20
35.721987169608383
 30
0.0
 11
182.4974168179269
 21
35.9715818626496
 31
0.0
  0
LINE
  5
158A
  8
TITLE
 10
182.2802135521633
 20
35.667093724239287
 30
0.0
 11
182.58470169057361
 21
35.9715818626496
 31
0.0
  0
LINE
  5
158B
  8
TITLE
 10
182.27556520902181
 20
35.575160508452882
 30
0.0
 11
182.6719865632212
 21
35.9715818626496
 31
0.0
  0
LINE
  5
158C
  8
TITLE
 10
182.22476657368861
 20
35.437077000469351
 30
0.0
 11
182.75927143586881
 21
35.9715818626496
 31
0.0
  0
LINE
  5
158D
  8
TITLE
 10
182.11825641577889
 20
35.941560951085201
 30
0.0
 11
182.14827732733829
 21
35.9715818626496
 31
0.0
  0
LINE
  5
158E
  8
TITLE
 10
182.15064784305281
 20
35.886667505716332
 30
0.0
 11
182.235562199985
 21
35.9715818626496
 31
0.0
  0
LINE
  5
158F
  8
TITLE
 10
182.18303927033409
 20
35.831774060347023
 30
0.0
 11
182.32284707263349
 21
35.9715818626496
 31
0.0
  0
LINE
  5
1590
  8
TITLE
 10
182.2154306976081
 20
35.776880614977472
 30
0.0
 11
182.4101319452802
 21
35.9715818626496
 31
0.0
  0
LINE
  5
1591
  8
TITLE
 10
181.8501052013516
 20
36.284403845184897
 30
0.0
 11
182.55395493862491
 21
36.988253582461773
 31
0.0
  0
LINE
  5
1592
  8
TITLE
 10
181.9373900739983
 20
36.284403845184897
 30
0.0
 11
182.6412398112715
 21
36.988253582461773
 31
0.0
  0
LINE
  5
1593
  8
TITLE
 10
182.02467494664589
 20
36.284403845184897
 30
0.0
 11
182.72852468391829
 21
36.988253582461773
 31
0.0
  0
LINE
  5
1594
  8
TITLE
 10
182.11195981929271
 20
36.284403845184897
 30
0.0
 11
182.81580955656591
 21
36.988253582461773
 31
0.0
  0
LINE
  5
1595
  8
TITLE
 10
182.286529564587
 20
36.284403845184897
 30
0.0
 11
182.9903793018602
 21
36.988253582461773
 31
0.0
  0
LINE
  5
1596
  8
TITLE
 10
182.37381443723461
 20
36.284403845184897
 30
0.0
 11
183.07766417450691
 21
36.988253582461773
 31
0.0
  0
LINE
  5
1597
  8
TITLE
 10
182.1992446919393
 20
36.284403845184897
 30
0.0
 11
182.9030944292135
 21
36.988253582461773
 31
0.0
  0
LINE
  5
1598
  8
TITLE
 10
181.32639596547591
 20
36.284403845184897
 30
0.0
 11
182.03024570274829
 21
36.988253582461773
 31
0.0
  0
LINE
  5
1599
  8
TITLE
 10
181.4136808381227
 20
36.284403845184897
 30
0.0
 11
182.1175305753959
 21
36.988253582461773
 31
0.0
  0
LINE
  5
159A
  8
TITLE
 10
181.50096571076941
 20
36.284403845184897
 30
0.0
 11
182.20481544804349
 21
36.988253582461773
 31
0.0
  0
LINE
  5
159B
  8
TITLE
 10
181.58825058340969
 20
36.284403845184897
 30
0.0
 11
182.2921003206902
 21
36.988253582461773
 31
0.0
  0
LINE
  5
159C
  8
TITLE
 10
181.6755354560573
 20
36.284403845184897
 30
0.0
 11
182.37938519333781
 21
36.988253582461773
 31
0.0
  0
LINE
  5
159D
  8
TITLE
 10
181.76282032870401
 20
36.284403845184897
 30
0.0
 11
182.46667006598449
 21
36.988253582461773
 31
0.0
  0
LINE
  5
159E
  8
TITLE
 10
182.90983467440671
 20
37.431418190884422
 30
0.0
 11
183.09241455760539
 21
37.613998074085892
 31
0.0
  0
LINE
  5
159F
  8
TITLE
 10
182.82254980176
 20
37.431418190884422
 30
0.0
 11
183.09241455760539
 21
37.701282946733052
 31
0.0
  0
LINE
  5
15A0
  8
TITLE
 10
182.99711954704799
 20
37.431418190884422
 30
0.0
 11
183.09241455760539
 21
37.526713201438731
 31
0.0
  0
LINE
  5
15A1
  8
TITLE
 10
183.08440441969469
 20
37.431418190884422
 30
0.0
 11
183.09241455760539
 21
37.439428328791557
 31
0.0
  0
LINE
  5
15A2
  8
TITLE
 10
181.7868426202312
 20
34.300874065841533
 30
0.0
 11
183.1622545068094
 21
35.676285952420812
 31
0.0
  0
LINE
  5
15A3
  8
TITLE
 10
181.89893473208389
 20
34.325681305047972
 30
0.0
 11
183.19464593408429
 21
35.621392507051269
 31
0.0
  0
LINE
  5
15A4
  8
TITLE
 10
182.0237603146042
 20
34.363222014924297
 30
0.0
 11
183.2270373613664
 21
35.56649906168218
 31
0.0
  0
LINE
  5
15A5
  8
TITLE
 10
182.1688192827751
 20
34.420996110446602
 30
0.0
 11
183.25942878864041
 21
35.51160561631287
 31
0.0
  0
LINE
  5
15A6
  8
TITLE
 10
182.35633628156211
 20
34.521228236591917
 30
0.0
 11
183.29182021591441
 21
35.45671217094332
 31
0.0
  0
LINE
  5
15A7
  8
TITLE
 10
182.8632592431513
 20
34.679011707588423
 30
0.0
 11
183.42138592502579
 21
35.237138389466509
 31
0.0
  0
LINE
  5
15A8
  8
TITLE
 10
182.89565067042531
 20
34.624118262218651
 30
0.0
 11
183.45377735230059
 21
35.182244944093327
 31
0.0
  0
LINE
  5
15A9
  8
TITLE
 10
182.9280420976992
 20
34.56922481684979
 30
0.0
 11
183.4861687795819
 21
35.127351498727883
 31
0.0
  0
LINE
  5
15AA
  8
TITLE
 10
182.96043352498049
 20
34.514331371480239
 30
0.0
 11
183.51856020685591
 21
35.072458053354701
 31
0.0
  0
LINE
  5
15AB
  8
TITLE
 10
182.9928249522554
 20
34.459437926110922
 30
0.0
 11
183.55095163413711
 21
35.01756460798925
 31
0.0
  0
LINE
  5
15AC
  8
TITLE
 10
183.02521637953669
 20
34.404544480741833
 30
0.0
 11
183.58334306141111
 21
34.962671162616523
 31
0.0
  0
LINE
  5
15AD
  8
TITLE
 10
182.76608496132121
 20
34.843692043696137
 30
0.0
 11
183.32421164319561
 21
35.401818725574678
 31
0.0
  0
LINE
  5
15AE
  8
TITLE
 10
182.7984763885961
 20
34.788798598330231
 30
0.0
 11
183.35660307046959
 21
35.346925280204687
 31
0.0
  0
LINE
  5
15AF
  8
TITLE
 10
182.83086781586999
 20
34.733905152957959
 30
0.0
 11
183.38899449775181
 21
35.292031834835598
 31
0.0
  0
LINE
  5
15B0
  8
TITLE
 10
183.05760780681149
 20
34.34965103537229
 30
0.0
 11
183.61573448868509
 21
34.90777771725039
 31
0.0
  0
LINE
  5
15B1
  8
TITLE
 10
183.0899992340855
 20
34.294757590002973
 30
0.0
 11
183.64812591596629
 21
34.852884271877429
 31
0.0
  0
LINE
  5
15B2
  8
TITLE
 10
182.46109930988129
 20
36.284403845184897
 30
0.0
 11
183.16494904715449
 21
36.988253582461773
 31
0.0
  0
LINE
  5
15B3
  8
TITLE
 10
182.89752367310939
 20
36.284403845184897
 30
0.0
 11
183.6013734103835
 21
36.988253582461773
 31
0.0
  0
LINE
  5
15B4
  8
TITLE
 10
182.98480854575701
 20
36.284403845184897
 30
0.0
 11
183.68865828303021
 21
36.988253582461773
 31
0.0
  0
LINE
  5
15B5
  8
TITLE
 10
183.07209341840459
 20
36.284403845184897
 30
0.0
 11
183.77594315567691
 21
36.988253582461773
 31
0.0
  0
LINE
  5
15B6
  8
TITLE
 10
182.5483841825216
 20
36.284403845184897
 30
0.0
 11
183.25223391980211
 21
36.988253582461773
 31
0.0
  0
LINE
  5
15B7
  8
TITLE
 10
182.63566905516919
 20
36.284403845184897
 30
0.0
 11
183.33951879244881
 21
36.988253582461773
 31
0.0
  0
LINE
  5
15B8
  8
TITLE
 10
182.72295392781601
 20
36.284403845184897
 30
0.0
 11
183.42680366508921
 21
36.988253582461773
 31
0.0
  0
LINE
  5
15B9
  8
TITLE
 10
182.81023880046271
 20
36.284403845184897
 30
0.0
 11
183.5140885377368
 21
36.988253582461773
 31
0.0
  0
LINE
  5
15BA
  8
TITLE
 10
181.33870696676601
 20
37.431418190884422
 30
0.0
 11
182.12076223041001
 21
38.213473454524319
 31
0.0
  0
LINE
  5
15BB
  8
TITLE
 10
181.42599183941269
 20
37.431418190884422
 30
0.0
 11
182.2080471030558
 21
38.213473454524319
 31
0.0
  0
LINE
  5
15BC
  8
TITLE
 10
181.51327671205939
 20
37.431418190884422
 30
0.0
 11
182.2953319756962
 21
38.213473454524319
 31
0.0
  0
LINE
  5
15BD
  8
TITLE
 10
181.60056158470701
 20
37.431418190884422
 30
0.0
 11
182.38261684834279
 21
38.213473454524319
 31
0.0
  0
LINE
  5
15BE
  8
TITLE
 10
181.6878464573546
 20
37.431418190884422
 30
0.0
 11
182.46990172099049
 21
38.213473454524319
 31
0.0
  0
LINE
  5
15BF
  8
TITLE
 10
181.77513133000139
 20
37.431418190884422
 30
0.0
 11
182.55718659363811
 21
38.213473454524319
 31
0.0
  0
LINE
  5
15C0
  8
TITLE
 10
181.86241620264809
 20
37.431418190884422
 30
0.0
 11
182.64447146628481
 21
38.213473454524319
 31
0.0
  0
LINE
  5
15C1
  8
TITLE
 10
182.47341031117139
 20
37.431418190884422
 30
0.0
 11
183.09241455760539
 21
38.050422437314182
 31
0.0
  0
LINE
  5
15C2
  8
TITLE
 10
182.56069518381901
 20
37.431418190884422
 30
0.0
 11
183.09241455760539
 21
37.963137564670888
 31
0.0
  0
LINE
  5
15C3
  8
TITLE
 10
182.64798005646571
 20
37.431418190884422
 30
0.0
 11
183.09241455760539
 21
37.875852692023948
 31
0.0
  0
LINE
  5
15C4
  8
TITLE
 10
182.7352649291133
 20
37.431418190884422
 30
0.0
 11
183.09241455760539
 21
37.788567819380212
 31
0.0
  0
LINE
  5
15C5
  8
TITLE
 10
181.94970107529571
 20
37.431418190884422
 30
0.0
 11
183.35313539321939
 21
38.834852508812219
 31
0.0
  0
LINE
  5
15C6
  8
TITLE
 10
182.03698594794329
 20
37.431418190884422
 30
0.0
 11
183.41960141655539
 21
38.81403365950473
 31
0.0
  0
LINE
  5
15C7
  8
TITLE
 10
182.12427082058269
 20
37.431418190884422
 30
0.0
 11
183.48704672587149
 21
38.794194096170031
 31
0.0
  0
LINE
  5
15C8
  8
TITLE
 10
182.2115556932294
 20
37.431418190884422
 30
0.0
 11
183.55549984517981
 21
38.775362342830483
 31
0.0
  0
LINE
  5
15C9
  8
TITLE
 10
182.2988405658771
 20
37.431418190884422
 30
0.0
 11
183.62499169825969
 21
38.757569323267262
 31
0.0
  0
LINE
  5
15CA
  8
TITLE
 10
182.38612543852469
 20
37.431418190884422
 30
0.0
 11
183.6955558648142
 21
38.740848617178472
 31
0.0
  0
LINE
  5
15CB
  8
TITLE
 10
185.3434612796855
 20
35.937225527073231
 30
0.0
 11
186.98934019813711
 21
37.583104445523993
 31
0.0
  0
LINE
  5
15CC
  8
TITLE
 10
184.93666218680019
 20
35.792281052128828
 30
0.0
 11
187.1342846730804
 21
37.98990353841009
 31
0.0
  0
LINE
  5
15CD
  8
TITLE
 10
185.06202366736761
 20
35.830357660049231
 30
0.0
 11
187.09620806515341
 21
37.864542057835031
 31
0.0
  0
LINE
  5
15CE
  8
TITLE
 10
185.19660625807859
 20
35.877655378113559
 30
0.0
 11
187.04891034709539
 21
37.729959467130811
 31
0.0
  0
LINE
  5
15CF
  8
TITLE
 10
187.42261117260381
 20
37.929090547344458
 30
0.0
 11
188.07044939141809
 21
38.576928766166247
 31
0.0
  0
LINE
  5
15D0
  8
TITLE
 10
187.42261117260381
 20
37.841805674700943
 30
0.0
 11
188.1577342640648
 21
38.576928766166247
 31
0.0
  0
LINE
  5
15D1
  8
TITLE
 10
187.42261117260381
 20
37.754520802053321
 30
0.0
 11
188.24501913671341
 21
38.576928766166247
 31
0.0
  0
LINE
  5
15D2
  8
TITLE
 10
187.42261117260381
 20
38.016375419991171
 30
0.0
 11
187.98316451877869
 21
38.576928766166247
 31
0.0
  0
LINE
  5
15D3
  8
TITLE
 10
187.42261117260381
 20
38.278230037933099
 30
0.0
 11
187.72130990083679
 21
38.576928766166247
 31
0.0
  0
LINE
  5
15D4
  8
TITLE
 10
187.42261117260381
 20
38.190945165285711
 30
0.0
 11
187.80859477348349
 21
38.576928766166247
 31
0.0
  0
LINE
  5
15D5
  8
TITLE
 10
187.42261117260381
 20
38.103660292638317
 30
0.0
 11
187.89587964613111
 21
38.576928766166247
 31
0.0
  0
LINE
  5
15D6
  8
TITLE
 10
187.42261117260381
 20
38.452799783226972
 30
0.0
 11
187.54674015554241
 21
38.576928766166247
 31
0.0
  0
LINE
  5
15D7
  8
TITLE
 10
187.42261117260381
 20
38.365514910579797
 30
0.0
 11
187.63402502819011
 21
38.576928766166247
 31
0.0
  0
LINE
  5
15D8
  8
TITLE
 10
187.42261117260381
 20
38.540084655874118
 30
0.0
 11
187.4594552828957
 21
38.576928766166247
 31
0.0
  0
LINE
  5
15D9
  8
TITLE
 10
187.27557989520571
 20
34.290664364088123
 30
0.0
 11
188.12781959297169
 21
35.142904061858637
 31
0.0
  0
LINE
  5
15DA
  8
TITLE
 10
187.36286476785239
 20
34.290664364088123
 30
0.0
 11
188.2151044656184
 21
35.142904061858637
 31
0.0
  0
LINE
  5
15DB
  8
TITLE
 10
185.45457659444941
 20
38.317747530649292
 30
0.0
 11
186.41517726554409
 21
39.278348201735753
 31
0.0
  0
LINE
  5
15DC
  8
TITLE
 10
185.54186146709711
 20
38.317747530649292
 30
0.0
 11
186.41517726554409
 21
39.19106332908882
 31
0.0
  0
LINE
  5
15DD
  8
TITLE
 10
185.62914633974469
 20
38.317747530649292
 30
0.0
 11
186.41517726554409
 21
39.10377845644507
 31
0.0
  0
LINE
  5
15DE
  8
TITLE
 10
186.2207086047238
 20
38.036461069163813
 30
0.0
 11
187.16223017592159
 21
38.977982640358732
 31
0.0
  0
LINE
  5
15DF
  8
TITLE
 10
186.19397826814929
 20
37.922445859943309
 30
0.0
 11
187.2495150485683
 21
38.977982640358732
 31
0.0
  0
LINE
  5
15E0
  8
TITLE
 10
185.7164312123914
 20
38.317747530649292
 30
0.0
 11
186.41517726554409
 21
39.01649358379791
 31
0.0
  0
LINE
  5
15E1
  8
TITLE
 10
185.8037160850381
 20
38.317747530649292
 30
0.0
 11
186.46395119474431
 21
38.977982640358732
 31
0.0
  0
LINE
  5
15E2
  8
TITLE
 10
185.89100095768569
 20
38.317747530649292
 30
0.0
 11
186.5512360673911
 21
38.977982640358732
 31
0.0
  0
LINE
  5
15E3
  8
TITLE
 10
185.978285830326
 20
38.317747530649292
 30
0.0
 11
186.63852094003869
 21
38.977982640358732
 31
0.0
  0
LINE
  5
15E4
  8
TITLE
 10
186.06557070297271
 20
38.317747530649292
 30
0.0
 11
186.7258058126863
 21
38.977982640358732
 31
0.0
  0
LINE
  5
15E5
  8
TITLE
 10
186.15285557561941
 20
38.317747530649292
 30
0.0
 11
186.81309068533301
 21
38.977982640358732
 31
0.0
  0
LINE
  5
15E6
  8
TITLE
 10
186.24014044826711
 20
38.317747530649292
 30
0.0
 11
186.90037555797969
 21
38.977982640358732
 31
0.0
  0
LINE
  5
15E7
  8
TITLE
 10
186.25226829423079
 20
38.242590503958581
 30
0.0
 11
186.98766043062639
 21
38.977982640358732
 31
0.0
  0
LINE
  5
15E8
  8
TITLE
 10
186.2396107474232
 20
38.142648084510483
 30
0.0
 11
187.07494530327401
 21
38.977982640358732
 31
0.0
  0
LINE
  5
15E9
  8
TITLE
 10
185.5799160470651
 20
35.475401313283328
 30
0.0
 11
186.41517726554409
 21
36.310662531758233
 31
0.0
  0
LINE
  5
15EA
  8
TITLE
 10
185.5799160470651
 20
35.388116440635713
 30
0.0
 11
186.41517726554409
 21
36.223377659111073
 31
0.0
  0
LINE
  5
15EB
  8
TITLE
 10
185.5799160470651
 20
35.300831567989007
 30
0.0
 11
186.41517726554409
 21
36.136092786467088
 31
0.0
  0
LINE
  5
15EC
  8
TITLE
 10
185.5799160470651
 20
35.213546695341847
 30
0.0
 11
186.41517726554409
 21
36.048807913819928
 31
0.0
  0
LINE
  5
15ED
  8
TITLE
 10
186.8694715563588
 20
35.979392968755292
 30
0.0
 11
187.2504387175249
 21
36.360360129924629
 31
0.0
  0
LINE
  5
15EE
  8
TITLE
 10
186.91869597919501
 20
35.941332518948457
 30
0.0
 11
187.2504387175249
 21
36.273075257277242
 31
0.0
  0
LINE
  5
15EF
  8
TITLE
 10
186.96792040203221
 20
35.903272069137763
 30
0.0
 11
187.2504387175249
 21
36.185790384633947
 31
0.0
  0
LINE
  5
15F0
  8
TITLE
 10
187.01714482486929
 20
35.865211619331149
 30
0.0
 11
187.2504387175249
 21
36.098505511986787
 31
0.0
  0
LINE
  5
15F1
  8
TITLE
 10
187.06636924771189
 20
35.827151169524321
 30
0.0
 11
187.2504387175249
 21
36.011220639339633
 31
0.0
  0
LINE
  5
15F2
  8
TITLE
 10
185.5799160470651
 20
35.911825676511171
 30
0.0
 11
186.7842701066802
 21
37.116179736133063
 31
0.0
  0
LINE
  5
15F3
  8
TITLE
 10
185.5799160470651
 20
35.824540803864238
 30
0.0
 11
186.8267609473086
 21
37.07138570411098
 31
0.0
  0
LINE
  5
15F4
  8
TITLE
 10
185.5799160470651
 20
35.737255931220723
 30
0.0
 11
186.8692517879372
 21
37.026591672089133
 31
0.0
  0
LINE
  5
15F5
  8
TITLE
 10
185.5799160470651
 20
35.64997105857401
 30
0.0
 11
186.9117426285593
 21
36.981797640070461
 31
0.0
  0
LINE
  5
15F6
  8
TITLE
 10
185.5799160470651
 20
35.562686185926388
 30
0.0
 11
186.95423346918679
 21
36.937003608051782
 31
0.0
  0
LINE
  5
15F7
  8
TITLE
 10
185.5799160470651
 20
34.777122332109229
 30
0.0
 11
186.41517726554409
 21
35.612383550584127
 31
0.0
  0
LINE
  5
15F8
  8
TITLE
 10
185.5799160470651
 20
34.689837459462069
 30
0.0
 11
186.41517726554409
 21
35.525098677940612
 31
0.0
  0
LINE
  5
15F9
  8
TITLE
 10
185.5799160470651
 20
34.602552586819002
 30
0.0
 11
186.41517726554409
 21
35.437813805293437
 31
0.0
  0
LINE
  5
15FA
  8
TITLE
 10
185.5799160470651
 20
34.515267714171387
 30
0.0
 11
186.41517726554409
 21
35.350528932646291
 31
0.0
  0
LINE
  5
15FB
  8
TITLE
 10
185.5799160470651
 20
34.427982841524681
 30
0.0
 11
186.41517726554409
 21
35.263244060002762
 31
0.0
  0
LINE
  5
15FC
  8
TITLE
 10
185.5799160470651
 20
34.340697968877073
 30
0.0
 11
186.41517726554409
 21
35.175959187355829
 31
0.0
  0
LINE
  5
15FD
  8
TITLE
 10
185.61716731492379
 20
34.290664364088123
 30
0.0
 11
186.41517726554409
 21
35.088674314708442
 31
0.0
  0
LINE
  5
15FE
  8
TITLE
 10
185.7044521875705
 20
34.290664364088123
 30
0.0
 11
186.41517726554409
 21
35.001389442061047
 31
0.0
  0
LINE
  5
15FF
  8
TITLE
 10
185.5799160470651
 20
34.864407204756837
 30
0.0
 11
186.41517726554409
 21
35.699668423231287
 31
0.0
  0
LINE
  5
1600
  8
TITLE
 10
185.7917370602172
 20
34.290664364088123
 30
0.0
 11
186.41517726554409
 21
34.914104569414121
 31
0.0
  0
LINE
  5
1601
  8
TITLE
 10
185.87902193286479
 20
34.290664364088123
 30
0.0
 11
186.41517726554409
 21
34.826819696766961
 31
0.0
  0
LINE
  5
1602
  8
TITLE
 10
185.9663068055051
 20
34.290664364088123
 30
0.0
 11
186.41517726554409
 21
34.739534824119801
 31
0.0
  0
LINE
  5
1603
  8
TITLE
 10
186.0535916781518
 20
34.290664364088123
 30
0.0
 11
186.41517726554409
 21
34.652249951472641
 31
0.0
  0
LINE
  5
1604
  8
TITLE
 10
186.14087655079939
 20
34.290664364088123
 30
0.0
 11
186.41517726554409
 21
34.564965078828891
 31
0.0
  0
LINE
  5
1605
  8
TITLE
 10
186.22816142344709
 20
34.290664364088123
 30
0.0
 11
186.41517726554409
 21
34.477680206182193
 31
0.0
  0
LINE
  5
1606
  8
TITLE
 10
186.3154462960938
 20
34.290664364088123
 30
0.0
 11
186.41517726554409
 21
34.390395333534798
 31
0.0
  0
LINE
  5
1607
  8
TITLE
 10
186.4027311687405
 20
34.290664364088123
 30
0.0
 11
186.41517726554409
 21
34.303110460891503
 31
0.0
  0
LINE
  5
1608
  8
TITLE
 10
185.5799160470651
 20
35.126261822694239
 30
0.0
 11
186.41517726554409
 21
35.961523041172768
 31
0.0
  0
LINE
  5
1609
  8
TITLE
 10
185.5799160470651
 20
35.038976950047299
 30
0.0
 11
186.41517726554409
 21
35.874238168526063
 31
0.0
  0
LINE
  5
160A
  8
TITLE
 10
185.5799160470651
 20
34.951692077399912
 30
0.0
 11
186.41517726554409
 21
35.786953295878448
 31
0.0
  0
LINE
  5
160B
  8
TITLE
 10
187.09633710224989
 20
35.071555170244892
 30
0.0
 11
187.16768599386069
 21
35.142904061858637
 31
0.0
  0
LINE
  5
160C
  8
TITLE
 10
187.21404251622241
 20
35.712969820099723
 30
0.0
 11
187.2504387175249
 21
35.749366021401791
 31
0.0
  0
LINE
  5
160D
  8
TITLE
 10
187.115593670549
 20
35.78909071971384
 30
0.0
 11
187.2504387175249
 21
35.923935766696111
 31
0.0
  0
LINE
  5
160E
  8
TITLE
 10
187.1648180933862
 20
35.751030269907012
 30
0.0
 11
187.2504387175249
 21
35.836650894049171
 31
0.0
  0
LINE
  5
160F
  8
TITLE
 10
185.5079806615922
 20
36.014460036335549
 30
0.0
 11
186.9121056888707
 21
37.418585063610863
 31
0.0
  0
LINE
  5
1610
  8
TITLE
 10
185.5799160470651
 20
35.999110549158559
 30
0.0
 11
186.80572262849091
 21
37.224917130584799
 31
0.0
  0
LINE
  5
1611
  8
TITLE
 10
186.72179828784101
 20
36.09357431817989
 30
0.0
 11
187.2504387175249
 21
36.62221474786611
 31
0.0
  0
LINE
  5
1612
  8
TITLE
 10
186.7710227106781
 20
36.055513868372827
 30
0.0
 11
187.2504387175249
 21
36.53492987521895
 31
0.0
  0
LINE
  5
1613
  8
TITLE
 10
186.42645175081449
 20
36.321937017028183
 30
0.0
 11
186.9967243098163
 21
36.892209576033572
 31
0.0
  0
LINE
  5
1614
  8
TITLE
 10
186.4756761736507
 20
36.283876567221341
 30
0.0
 11
187.03921515043751
 21
36.84741554401171
 31
0.0
  0
LINE
  5
1615
  8
TITLE
 10
186.5249005964879
 20
36.245816117410868
 30
0.0
 11
187.08170599106589
 21
36.802621511989862
 31
0.0
  0
LINE
  5
1616
  8
TITLE
 10
186.5741250193241
 20
36.207755667603813
 30
0.0
 11
187.12419683169529
 21
36.757827479971183
 31
0.0
  0
LINE
  5
1617
  8
TITLE
 10
186.6233494421613
 20
36.169695217797198
 30
0.0
 11
187.16668767231749
 21
36.713033447952739
 31
0.0
  0
LINE
  5
1618
  8
TITLE
 10
186.67257386500481
 20
36.13163476798627
 30
0.0
 11
187.20917851294499
 21
36.668239415930657
 31
0.0
  0
LINE
  5
1619
  8
TITLE
 10
186.82024713351529
 20
36.017453418562127
 30
0.0
 11
187.2504387175249
 21
36.44764500257179
 31
0.0
  0
LINE
  5
161A
  8
TITLE
 10
186.0290677945886
 20
37.495680768443442
 30
0.0
 11
187.25020409255549
 21
38.71681706641516
 31
0.0
  0
LINE
  5
161B
  8
TITLE
 10
185.8982741383079
 20
37.277602239516
 30
0.0
 11
187.24496104807071
 21
38.624289149279782
 31
0.0
  0
LINE
  5
161C
  8
TITLE
 10
187.18829502255809
 20
34.290664364088123
 30
0.0
 11
188.04053472032501
 21
35.142904061858637
 31
0.0
  0
LINE
  5
161D
  8
TITLE
 10
187.09633710224989
 20
34.460561061714998
 30
0.0
 11
187.7786801023903
 21
35.142904061858637
 31
0.0
  0
LINE
  5
161E
  8
TITLE
 10
187.09633710224989
 20
34.373276189071248
 30
0.0
 11
187.865964975037
 21
35.142904061858637
 31
0.0
  0
LINE
  5
161F
  8
TITLE
 10
187.10101014991051
 20
34.290664364088123
 30
0.0
 11
187.9532498476774
 21
35.142904061858637
 31
0.0
  0
LINE
  5
1620
  8
TITLE
 10
187.09633710224989
 20
34.809700552303191
 30
0.0
 11
187.42954061180171
 21
35.142904061858637
 31
0.0
  0
LINE
  5
1621
  8
TITLE
 10
187.09633710224989
 20
34.722415679656017
 30
0.0
 11
187.51682548444839
 21
35.142904061858637
 31
0.0
  0
LINE
  5
1622
  8
TITLE
 10
187.09633710224989
 20
34.635130807009318
 30
0.0
 11
187.604110357096
 21
35.142904061858637
 31
0.0
  0
LINE
  5
1623
  8
TITLE
 10
187.09633710224989
 20
34.547845934361931
 30
0.0
 11
187.69139522974359
 21
35.142904061858637
 31
0.0
  0
LINE
  5
1624
  8
TITLE
 10
187.09633710224989
 20
34.896985424950799
 30
0.0
 11
187.34225573915501
 21
35.142904061858637
 31
0.0
  0
LINE
  5
1625
  8
TITLE
 10
187.09633710224989
 20
34.984270297597512
 30
0.0
 11
187.25497086650739
 21
35.142904061858637
 31
0.0
  0
LINE
  5
1626
  8
TITLE
 10
186.1050897538835
 20
37.658987600385899
 30
0.0
 11
187.25270788008399
 21
38.806605726586902
 31
0.0
  0
LINE
  5
1627
  8
TITLE
 10
186.1569143556589
 20
37.798097074801717
 30
0.0
 11
187.2527079652927
 21
38.893890684435057
 31
0.0
  0
LINE
  5
1628
  8
TITLE
 10
188.25084515361871
 20
39.630173254824058
 30
0.0
 11
188.4759601501537
 21
39.855288251358161
 31
0.0
  0
LINE
  5
1629
  8
TITLE
 10
188.25084515361871
 20
39.54288838217645
 30
0.0
 11
188.5632450228004
 21
39.855288251358161
 31
0.0
  0
LINE
  5
162A
  8
TITLE
 10
188.25084515361871
 20
39.455603509529283
 30
0.0
 11
188.65052989544071
 21
39.855288251358161
 31
0.0
  0
LINE
  5
162B
  8
TITLE
 10
188.25084515361871
 20
39.36831863688576
 30
0.0
 11
188.73781476808739
 21
39.855288251358161
 31
0.0
  0
LINE
  5
162C
  8
TITLE
 10
188.25084515361871
 20
39.804743000117917
 30
0.0
 11
188.30139040485849
 21
39.855288251358161
 31
0.0
  0
LINE
  5
162D
  8
TITLE
 10
188.25084515361871
 20
39.717458127470771
 30
0.0
 11
188.38867527750699
 21
39.855288251358161
 31
0.0
  0
LINE
  5
162E
  8
TITLE
 10
185.5799160470651
 20
39.665075200310412
 30
0.0
 11
185.7701290981131
 21
39.855288251358161
 31
0.0
  0
LINE
  5
162F
  8
TITLE
 10
185.5799160470651
 20
39.577790327663251
 30
0.0
 11
185.85741397076069
 21
39.855288251358161
 31
0.0
  0
LINE
  5
1630
  8
TITLE
 10
185.5799160470651
 20
39.490505455016553
 30
0.0
 11
185.94469884340009
 21
39.855288251358161
 31
0.0
  0
LINE
  5
1631
  8
TITLE
 10
185.5799160470651
 20
39.403220582372803
 30
0.0
 11
186.03198371604771
 21
39.855288251358161
 31
0.0
  0
LINE
  5
1632
  8
TITLE
 10
185.5799160470651
 20
39.315935709725643
 30
0.0
 11
186.11926858869441
 21
39.855288251358161
 31
0.0
  0
LINE
  5
1633
  8
TITLE
 10
185.5799160470651
 20
39.83964494560496
 30
0.0
 11
185.59555935281881
 21
39.855288251358161
 31
0.0
  0
LINE
  5
1634
  8
TITLE
 10
185.5799160470651
 20
39.752360072957799
 30
0.0
 11
185.6828442254664
 21
39.855288251358161
 31
0.0
  0
LINE
  5
1635
  8
TITLE
 10
189.13847689187421
 20
37.724689068395492
 30
0.0
 11
189.9826071139168
 21
38.568819290437887
 31
0.0
  0
LINE
  5
1636
  8
TITLE
 10
189.40033150981611
 20
37.724689068395492
 30
0.0
 11
189.9826071139168
 21
38.306964672500051
 31
0.0
  0
LINE
  5
1637
  8
TITLE
 10
189.48761638246279
 20
37.724689068395492
 30
0.0
 11
189.9826071139168
 21
38.219679799852663
 31
0.0
  0
LINE
  5
1638
  8
TITLE
 10
189.22576176452179
 20
37.724689068395492
 30
0.0
 11
189.9826071139168
 21
38.481534417790947
 31
0.0
  0
LINE
  5
1639
  8
TITLE
 10
189.31304663716941
 20
37.724689068395492
 30
0.0
 11
189.9826071139168
 21
38.394249545147211
 31
0.0
  0
LINE
  5
163A
  8
TITLE
 10
189.02127734813439
 20
34.290664364088123
 30
0.0
 11
189.87351704590029
 21
35.142904061858637
 31
0.0
  0
LINE
  5
163B
  8
TITLE
 10
189.1085622207811
 20
34.290664364088123
 30
0.0
 11
189.96080191854799
 21
35.142904061858637
 31
0.0
  0
LINE
  5
163C
  8
TITLE
 10
189.1958470934278
 20
34.290664364088123
 30
0.0
 11
190.04808679119469
 21
35.142904061858637
 31
0.0
  0
LINE
  5
163D
  8
TITLE
 10
189.28313196607451
 20
34.290664364088123
 30
0.0
 11
190.13537166384231
 21
35.142904061858637
 31
0.0
  0
LINE
  5
163E
  8
TITLE
 10
189.370416838723
 20
34.290664364088123
 30
0.0
 11
190.22265653648901
 21
35.142904061858637
 31
0.0
  0
LINE
  5
163F
  8
TITLE
 10
189.45770171136971
 20
34.290664364088123
 30
0.0
 11
190.23358695249411
 21
35.066549605211783
 31
0.0
  0
LINE
  5
1640
  8
TITLE
 10
189.57490125510961
 20
37.724689068395492
 30
0.0
 11
189.9826071139168
 21
38.132394927205731
 31
0.0
  0
LINE
  5
1641
  8
TITLE
 10
189.6621861277508
 20
37.724689068395492
 30
0.0
 11
189.9826071139168
 21
38.045110054558791
 31
0.0
  0
LINE
  5
1642
  8
TITLE
 10
189.74947100039751
 20
37.724689068395492
 30
0.0
 11
189.9826071139168
 21
37.95782518191163
 31
0.0
  0
LINE
  5
1643
  8
TITLE
 10
189.83675587304421
 20
37.724689068395492
 30
0.0
 11
189.9826071139168
 21
37.870540309264243
 31
0.0
  0
LINE
  5
1644
  8
TITLE
 10
189.9240407456918
 20
37.724689068395492
 30
0.0
 11
189.9826071139168
 21
37.783255436617083
 31
0.0
  0
LINE
  5
1645
  8
TITLE
 10
189.54498658401641
 20
34.290664364088123
 30
0.0
 11
190.23358695249411
 21
34.979264732564843
 31
0.0
  0
LINE
  5
1646
  8
TITLE
 10
189.9814109472463
 20
34.290664364088123
 30
0.0
 11
190.23358695249411
 21
34.542840369336091
 31
0.0
  0
LINE
  5
1647
  8
TITLE
 10
190.06869581989301
 20
34.290664364088123
 30
0.0
 11
190.23358695249411
 21
34.455555496689158
 31
0.0
  0
LINE
  5
1648
  8
TITLE
 10
189.63227145665681
 20
34.290664364088123
 30
0.0
 11
190.23358695249411
 21
34.89197985991769
 31
0.0
  0
LINE
  5
1649
  8
TITLE
 10
189.7195563293044
 20
34.290664364088123
 30
0.0
 11
190.23358695249411
 21
34.804694987274161
 31
0.0
  0
LINE
  5
164A
  8
TITLE
 10
189.8068412019511
 20
34.290664364088123
 30
0.0
 11
190.23358695249411
 21
34.717410114627
 31
0.0
  0
LINE
  5
164B
  8
TITLE
 10
189.89412607459781
 20
34.290664364088123
 30
0.0
 11
190.23358695249411
 21
34.630125241983478
 31
0.0
  0
LINE
  5
164C
  8
TITLE
 10
190.15598069253971
 20
34.290664364088123
 30
0.0
 11
190.23358695249411
 21
34.368270624041998
 31
0.0
  0
LINE
  5
1AC1
  8
TITLE
 10
127.0465728752536
 20
43.671572875253808
 30
0.0
 11
132.7034271247461
 21
49.328427124746177
 31
0.0
  0
TEXT
  5
1BF7
  8
TITLE
 10
131.62009379141281
 20
43.221572875253813
 30
0.0
 40
2.5
  1
１
  0
TEXT
  5
1BF9
  8
TITLE
 10
125.9632395419204
 20
47.27842712474618
 30
0.0
 40
2.5
  1
１
  0
LINE
  5
1BFA
  8
DEFPOINTS
 10
0.0
 20
0.0
 30
0.0
 11
210.0
 21
0.0
 31
0.0
  0
LINE
  5
1BFD
  8
DEFPOINTS
 10
210.0
 20
0.0
 30
0.0
 11
210.0
 21
297.0
 31
0.0
  0
LINE
  5
1BFE
  8
DEFPOINTS
 10
210.0
 20
297.0
 30
0.0
 11
0.0
 21
297.0
 31
0.0
  0
LINE
  5
1BFF
  8
DEFPOINTS
 10
0.0
 20
297.0
 30
0.0
 11
0.0
 21
0.0
 31
0.0
  0
LINE
  5
1C00
  8
TITLE
 10
20.0
 20
12.625
 30
0.0
 11
199.75
 21
12.625
 31
0.0
  0
LINE
  5
1C01
  8
TITLE
 10
199.75
 20
12.625
 30
0.0
 11
199.75
 21
284.375
 31
0.0
  0
LINE
  5
1C02
  8
TITLE
 10
199.75
 20
284.375
 30
0.0
 11
20.0
 21
284.375
 31
0.0
  0
LINE
  5
1C03
  8
TITLE
 10
20.0
 20
284.375
 30
0.0
 11
20.0
 21
12.625
 31
0.0
  0
TEXT
  5
1C04
  8
TITLE
 10
170.5199852135498
 20
48.828796392541342
 30
0.0
 40
2.5
  1
日付
  0
TEXT
  5
1C05
  8
TITLE
 10
166.95833333333329
 20
56.25
 30
0.0
 40
2.5
  1
１Ｓ－０６０４
  0
TEXT
  5
1C06
  8
TITLE
 10
167.125
 20
63.675497065706622
 30
0.0
 40
2.5
  1
図  面  番  号
  0
TEXT
  5
1C07
  8
TITLE
 10
174.70833333333329
 20
44.244047619047699
 30
0.0
 40
2.5
  1
Ｈ１２．５．８
  0
TEXT
  5
1C08
  8
TITLE
 10
140.8533185468832
 20
48.828796392541342
 30
0.0
 40
2.5
  1
仕上
  0
TEXT
  5
1C09
  8
TITLE
 10
110.8533185468832
 20
48.828796392541342
 30
0.0
 40
2.5
  1
縮尺
  0
TEXT
  5
1C0A
  8
TITLE
 10
122.375
 20
56.25
 30
0.0
 40
2.5
  1
ＹＭＳ－４００
  0
TEXT
  5
1C0B
  8
TITLE
 10
122.0416666666666
 20
63.675497065706622
 30
0.0
 40
2.5
  1
タ    イ    プ
  0
TEXT
  5
1C0C
  8
TITLE
 10
66.903959893264982
 20
47.93739991761003
 30
0.0
 40
2.5
  1
材質
  0
TEXT
  5
1C0D
  8
TITLE
 10
78.625
 20
58.333333333333329
 30
0.0
 40
2.5
  1
ステンレス製
  0
TEXT
  5
1C0E
  8
TITLE
 10
80.208333333333329
 20
54.166666666666671
 30
0.0
 40
2.5
  1
無垢タイプ
  0
TEXT
  5
1C0F
  8
TITLE
 10
77.291666666666671
 20
63.675497065706622
 30
0.0
 40
2.5
  1
群          別
  0
TEXT
  5
1C10
  8
TITLE
 10
66.903959893264982
 20
41.270733250943287
 30
0.0
 40
2.5
  1
規格
  0
TEXT
  5
1C11
  8
TITLE
 10
66.903959893264982
 20
34.604066584276552
 30
0.0
 40
2.5
  1
重量
  0
TEXT
  5
1C12
  8
TITLE
 10
33.666666666666671
 20
56.25
 30
0.0
 40
2.5
  1
ノンスリップ
  0
TEXT
  5
1C13
  8
MODEL
 10
23.39038268634409
 20
38.634565554712481
 30
0.0
 40
2.0
  1
2
  0
TEXT
  5
1C14
  8
MODEL
 10
23.422619047619051
 20
33.677403026748841
 30
0.0
 40
2.0
  1
3
  0
LINE
  5
1C15
  8
TITLE
 10
24.375
 20
42.0
 30
0.0
 11
22.20993649053889
 21
38.25
 31
0.0
  0
LINE
  5
1C16
  8
TITLE
 10
22.20993649053889
 20
38.25
 30
0.0
 11
26.54006350946111
 21
38.25
 31
0.0
  0
LINE
  5
1C17
  8
TITLE
 10
26.54006350946111
 20
38.25
 30
0.0
 11
24.375
 21
42.0
 31
0.0
  0
TEXT
  5
1C18
  8
TITLE
 10
21.165553196915418
 20
28.739356149794279
 30
0.0
 40
2.5
  1
特記事項
  0
LINE
  5
1C19
  8
TITLE
 10
24.375
 20
37.0
 30
0.0
 11
22.20993649053889
 21
33.25
 31
0.0
  0
LINE
  5
1C1A
  8
TITLE
 10
22.20993649053889
 20
33.25
 30
0.0
 11
26.54006350946111
 21
33.25
 31
0.0
  0
LINE
  5
1C1B
  8
TITLE
 10
26.54006350946111
 20
33.25
 30
0.0
 11
24.375
 21
37.0
 31
0.0
  0
TEXT
  5
1C1C
  8
MODEL
 10
23.433530944715169
 20
43.7605351667139
 30
0.0
 40
2.0
  1
1
  0
LINE
  5
1C1D
  8
TITLE
 10
24.375
 20
47.0
 30
0.0
 11
22.20993649053889
 21
43.25
 31
0.0
  0
LINE
  5
1C1E
  8
TITLE
 10
22.20993649053889
 20
43.25
 30
0.0
 11
26.54006350946111
 21
43.25
 31
0.0
  0
LINE
  5
1C1F
  8
TITLE
 10
26.54006350946111
 20
43.25
 30
0.0
 11
24.375
 21
47.0
 31
0.0
  0
TEXT
  5
1C20
  8
TITLE
 10
32.416666666666671
 20
63.675497065706622
 30
0.0
 40
2.5
  1
品          名
  0
TEXT
  5
1C21
  8
TITLE
 10
32.333333333333329
 20
48.675497065706622
 30
0.0
 40
2.5
  1
経          歴
  0
LINE
  5
1C22
  8
DIMS
 10
130.5
 20
108.70467231098969
 30
0.0
 11
141.125
 21
108.70467231098969
 31
0.0
  0
LINE
  5
1C23
  8
DIMS
 10
130.5
 20
106.5046723109897
 30
0.0
 11
141.125
 21
106.5046723109897
 31
0.0
  0
LINE
  5
1C24
  8
DIMS
 10
139.875
 20
110.70467231098969
 30
0.0
 11
139.875
 21
112.70467231098969
 31
0.0
  0
LINE
  5
1C25
  8
DIMS
 10
139.875
 20
104.5046723109898
 30
0.0
 11
139.875
 21
97.326100882418345
 31
0.0
  0
LINE
  5
1C26
  8
DIMS
 10
139.875
 20
108.70467231098969
 30
0.0
 11
139.875
 21
106.5046723109897
 31
0.0
  0
SOLID
  5
1C27
  8
DIMS
 10
139.5416666666666
 20
110.70467231098969
 30
0.0
 11
140.20833333333329
 21
110.70467231098969
 31
0.0
 12
139.875
 22
108.70467231098969
 32
0.0
 13
139.875
 23
108.70467231098969
 33
0.0
  0
SOLID
  5
1C28
  8
DIMS
 10
139.5416666666666
 20
104.5046723109898
 30
0.0
 11
140.20833333333329
 21
104.5046723109898
 31
0.0
 12
139.875
 22
106.5046723109897
 32
0.0
 13
139.875
 23
106.5046723109897
 33
0.0
  0
LINE
  5
1C2A
  8
DIMS
 10
94.724841289300002
 20
92.504672310989775
 30
0.0
 11
102.3498412893
 21
92.504672310989761
 31
0.0
  0
LINE
  5
1C2B
  8
DIMS
 10
93.499999999999986
 20
106.5046723109897
 30
0.0
 11
102.3498412893
 21
106.5046723109897
 31
0.0
  0
LINE
  5
1C2C
  8
DIMS
 10
101.0998412893
 20
94.504672310989761
 30
0.0
 11
101.0998412893
 21
104.5046723109897
 31
0.0
  0
SOLID
  5
1C2D
  8
DIMS
 10
100.7665079559666
 20
94.504672310989761
 30
0.0
 11
101.4331746226333
 21
94.504672310989761
 31
0.0
 12
101.0998412893
 22
92.504672310989761
 32
0.0
 13
101.0998412893
 23
92.504672310989761
 33
0.0
  0
SOLID
  5
1C2E
  8
DIMS
 10
100.7665079559667
 20
104.5046723109897
 30
0.0
 11
101.4331746226333
 21
104.5046723109897
 31
0.0
 12
101.0998412893
 22
106.5046723109897
 32
0.0
 13
101.0998412893
 23
106.5046723109897
 33
0.0
  0
LINE
  5
1C30
  8
DIMS
 10
130.5
 20
106.5046723109897
 30
0.0
 11
148.125
 21
106.5046723109897
 31
0.0
  0
LINE
  5
1C31
  8
DIMS
 10
127.5
 20
109.5046723109897
 30
0.0
 11
148.125
 21
109.5046723109897
 31
0.0
  0
LINE
  5
1C32
  8
DIMS
 10
146.875
 20
104.5046723109898
 30
0.0
 11
146.875
 21
102.5046723109898
 31
0.0
  0
LINE
  5
1C33
  8
DIMS
 10
146.875
 20
111.5046723109897
 30
0.0
 11
146.875
 21
113.5046723109897
 31
0.0
  0
LINE
  5
1C34
  8
DIMS
 10
146.875
 20
106.5046723109897
 30
0.0
 11
146.875
 21
109.5046723109897
 31
0.0
  0
SOLID
  5
1C35
  8
DIMS
 10
146.5416666666666
 20
104.5046723109898
 30
0.0
 11
147.20833333333329
 21
104.5046723109898
 31
0.0
 12
146.875
 22
106.5046723109897
 32
0.0
 13
146.875
 23
106.5046723109897
 33
0.0
  0
SOLID
  5
1C36
  8
DIMS
 10
146.5416666666666
 20
111.5046723109897
 30
0.0
 11
147.20833333333329
 21
111.5046723109897
 31
0.0
 12
146.875
 22
109.5046723109897
 32
0.0
 13
146.875
 23
109.5046723109897
 33
0.0
  0
LINE
  5
1C38
  8
DIMS
 10
89.875
 20
106.6296723109898
 30
0.0
 11
89.875
 21
120.7546723109897
 31
0.0
  0
LINE
  5
1C39
  8
DIMS
 10
129.875
 20
109.32967231098969
 30
0.0
 11
129.875
 21
120.7546723109897
 31
0.0
  0
LINE
  5
1C3A
  8
DIMS
 10
91.875
 20
119.5046723109898
 30
0.0
 11
127.875
 21
119.5046723109898
 31
0.0
  0
SOLID
  5
1C3B
  8
DIMS
 10
91.875
 20
119.8380056443231
 30
0.0
 11
91.875
 21
119.1713389776564
 31
0.0
 12
89.875
 22
119.5046723109898
 32
0.0
 13
89.875
 23
119.5046723109898
 33
0.0
  0
SOLID
  5
1C3C
  8
DIMS
 10
127.875
 20
119.8380056443231
 30
0.0
 11
127.875
 21
119.1713389776564
 31
0.0
 12
129.875
 22
119.5046723109898
 32
0.0
 13
129.875
 23
119.5046723109898
 33
0.0
  0
LINE
  5
1C3E
  8
DIMS
 10
92.249999999999986
 20
109.5046723109897
 30
0.0
 11
78.625000000000014
 21
109.5046723109897
 31
0.0
  0
LINE
  5
1C3F
  8
DIMS
 10
90.463381776699975
 20
92.504672310989775
 30
0.0
 11
78.625
 21
92.504672310989775
 31
0.0
  0
LINE
  5
1C40
  8
DIMS
 10
79.875000000000014
 20
107.5046723109897
 30
0.0
 11
79.875
 21
94.504672310989775
 31
0.0
  0
SOLID
  5
1C41
  8
DIMS
 10
79.541666666666686
 20
107.5046723109897
 30
0.0
 11
80.208333333333329
 21
107.5046723109897
 31
0.0
 12
79.875000000000014
 22
109.5046723109897
 32
0.0
 13
79.875000000000014
 23
109.5046723109897
 33
0.0
  0
SOLID
  5
1C42
  8
DIMS
 10
79.541666666666671
 20
94.504672310989775
 30
0.0
 11
80.208333333333329
 21
94.504672310989775
 31
0.0
 12
79.875
 22
92.504672310989775
 32
0.0
 13
79.875
 23
92.504672310989775
 33
0.0
  0
TEXT
  5
1C44
  8
DIMS
 62
     7
 10
79.249999999999986
 20
99.085029453846929
 30
0.0
 40
2.5
  1
17
 50
90.0
 41
0.75
  7
DIMS
  0
TEXT
  5
1C45
  8
DIMS
 62
     7
 10
108.08928571428569
 20
120.1296723109898
 30
0.0
 40
2.5
  1
40
 41
0.75
  7
DIMS
  0
TEXT
  5
1C46
  8
DIMS
 62
     7
 10
146.24999999999989
 20
107.11181516813259
 30
0.0
 40
2.5
  1
3
 50
90.0
 41
0.75
  7
DIMS
  0
TEXT
  5
1C47
  8
DIMS
 62
     7
 10
100.4748412893
 20
97.540386596704053
 30
0.0
 40
2.5
  1
14
 50
90.0
 41
0.75
  7
DIMS
  0
TEXT
  5
1C48
  8
DIMS
 62
     7
 10
139.25
 20
97.683243739561235
 30
0.0
 40
2.5
  1
2.2
 50
90.0
 41
0.75
  7
DIMS
  0
ENDSEC
  0
EOF
