  0
SECTION
  2
HEADER
  9
$ACADVER
  1
AC1009
  9
$INSBASE
 10
0.0
 20
0.0
 30
0.0
  9
$EXTMIN
 10
-0.032038567266909
 20
-0.0226561206028464
 30
-0.000000000000013
  9
$EXTMAX
 10
210.02243486911991
 20
297.0181296541611
 30
0.0000000000000023
  9
$LIMMIN
 10
0.0
 20
0.0
  9
$LIMMAX
 10
420.0
 20
297.0
  9
$ORTHOMODE
 70
     1
  9
$REGENMODE
 70
     1
  9
$FILLMODE
 70
     1
  9
$QTEXTMODE
 70
     0
  9
$MIRRTEXT
 70
     1
  9
$DRAGMODE
 70
     2
  9
$LTSCALE
 40
1.0
  9
$OSMODE
 70
   297
  9
$ATTMODE
 70
     1
  9
$TEXTSIZE
 40
2.5
  9
$TRACEWID
 40
1.0
  9
$TEXTSTYLE
  7
STANDARD
  9
$CLAYER
  8
0
  9
$CELTYPE
  6
BYLAYER
  9
$CECOLOR
 62
   256
  9
$DIMSCALE
 40
0.0
  9
$DIMASZ
 40
2.0
  9
$DIMEXO
 40
0.625
  9
$DIMDLI
 40
3.75
  9
$DIMRND
 40
0.0
  9
$DIMDLE
 40
0.0
  9
$DIMEXE
 40
1.25
  9
$DIMTP
 40
0.0
  9
$DIMTM
 40
0.0
  9
$DIMTXT
 40
2.5
  9
$DIMCEN
 40
0.0
  9
$DIMTSZ
 40
0.0
  9
$DIMTOL
 70
     0
  9
$DIMLIM
 70
     0
  9
$DIMTIH
 70
     0
  9
$DIMTOH
 70
     0
  9
$DIMSE1
 70
     0
  9
$DIMSE2
 70
     0
  9
$DIMTAD
 70
     1
  9
$DIMZIN
 70
     8
  9
$DIMBLK
  1

  9
$DIMASO
 70
     1
  9
$DIMSHO
 70
     1
  9
$DIMPOST
  1

  9
$DIMAPOST
  1

  9
$DIMALT
 70
     0
  9
$DIMALTD
 70
     3
  9
$DIMALTF
 40
0.03937007874016
  9
$DIMLFAC
 40
1.0
  9
$DIMTOFL
 70
     1
  9
$DIMTVP
 40
0.0
  9
$DIMTIX
 70
     0
  9
$DIMSOXD
 70
     0
  9
$DIMSAH
 70
     0
  9
$DIMBLK1
  1

  9
$DIMBLK2
  1

  9
$DIMSTYLE
  2
DIMS
  9
$DIMCLRD
 70
     0
  9
$DIMCLRE
 70
     0
  9
$DIMCLRT
 70
     7
  9
$DIMTFAC
 40
1.0
  9
$DIMGAP
 40
0.625
  9
$LUNITS
 70
     2
  9
$LUPREC
 70
     4
  9
$SKETCHINC
 40
1.0
  9
$FILLETRAD
 40
0.0
  9
$AUNITS
 70
     0
  9
$AUPREC
 70
     0
  9
$MENU
  1
.
  9
$ELEVATION
 40
0.0
  9
$PELEVATION
 40
0.0
  9
$THICKNESS
 40
0.0
  9
$LIMCHECK
 70
     0
  9
$BLIPMODE
 70
     0
  9
$CHAMFERA
 40
10.0
  9
$CHAMFERB
 40
10.0
  9
$SKPOLY
 70
     0
  9
$TDCREATE
 40
2451639.7154235072
  9
$TDUPDATE
 40
2457571.690506828
  9
$TDINDWG
 40
0.267556794
  9
$TDUSRTIMER
 40
0.2675566435
  9
$USRTIMER
 70
     1
  9
$ANGBASE
 50
0.0
  9
$ANGDIR
 70
     0
  9
$PDMODE
 70
     0
  9
$PDSIZE
 40
0.0
  9
$PLINEWID
 40
0.0
  9
$COORDS
 70
     1
  9
$SPLFRAME
 70
     0
  9
$SPLINETYPE
 70
     6
  9
$SPLINESEGS
 70
     8
  9
$ATTDIA
 70
     1
  9
$ATTREQ
 70
     1
  9
$HANDLING
 70
     1
  9
$HANDSEED
  5
3499
  9
$SURFTAB1
 70
     6
  9
$SURFTAB2
 70
     6
  9
$SURFTYPE
 70
     6
  9
$SURFU
 70
     6
  9
$SURFV
 70
     6
  9
$UCSNAME
  2

  9
$UCSORG
 10
0.0
 20
0.0
 30
0.0
  9
$UCSXDIR
 10
1.0
 20
0.0
 30
0.0
  9
$UCSYDIR
 10
0.0
 20
1.0
 30
0.0
  9
$PUCSNAME
  2

  9
$PUCSORG
 10
0.0
 20
0.0
 30
0.0
  9
$PUCSXDIR
 10
1.0
 20
0.0
 30
0.0
  9
$PUCSYDIR
 10
0.0
 20
1.0
 30
0.0
  9
$USERI1
 70
     0
  9
$USERI2
 70
     0
  9
$USERI3
 70
     0
  9
$USERI4
 70
     0
  9
$USERI5
 70
     0
  9
$USERR1
 40
0.0
  9
$USERR2
 40
0.0
  9
$USERR3
 40
0.0
  9
$USERR4
 40
0.0
  9
$USERR5
 40
0.0
  9
$WORLDVIEW
 70
     1
  9
$SHADEDGE
 70
     3
  9
$SHADEDIF
 70
    70
  9
$TILEMODE
 70
     1
  9
$MAXACTVP
 70
    64
  9
$PLIMCHECK
 70
     0
  9
$PEXTMIN
 10
0.0
 20
0.0
 30
0.0
  9
$PEXTMAX
 10
0.0
 20
0.0
 30
0.0
  9
$PLIMMIN
 10
0.0
 20
0.0
  9
$PLIMMAX
 10
12.0
 20
9.0
  9
$UNITMODE
 70
     0
  9
$VISRETAIN
 70
     1
  9
$PLINEGEN
 70
     0
  9
$PSLTSCALE
 70
     1
  0
ENDSEC
  0
SECTION
  2
TABLES
  0
TABLE
  2
VPORT
 70
     1
  0
VPORT
  2
*ACTIVE
 70
     0
 10
0.0
 20
0.0
 11
1.0
 21
1.0
 12
104.9951981509265
 22
148.4977367667791
 13
0.0
 23
0.0
 14
10.0
 24
10.0
 15
10.0
 25
10.0
 16
0.0
 26
0.0
 36
1.0
 17
0.0
 27
0.0
 37
0.0
 40
299.08934291803831
 41
1.4165707710011499
 42
50.0
 43
0.0
 44
0.0
 50
0.0
 51
0.0
 71
     0
 72
   100
 73
     1
 74
     3
 75
     0
 76
     0
 77
     0
 78
     0
  0
ENDTAB
  0
TABLE
  2
LTYPE
 70
     2
  0
LTYPE
  2
CONTINUOUS
 70
     0
  3
Solid line
 72
    65
 73
     0
 40
0.0
  0
ENDTAB
  0
TABLE
  2
LAYER
 70
     5
  0
LAYER
  2
0
 70
     0
 62
     7
  6
CONTINUOUS
  0
LAYER
  2
MODEL
 70
     0
 62
     7
  6
CONTINUOUS
  0
LAYER
  2
DIMS
 70
     0
 62
     1
  6
CONTINUOUS
  0
LAYER
  2
TITLE
 70
     0
 62
     7
  6
CONTINUOUS
  0
LAYER
  2
DEFPOINTS
 70
     0
 62
     7
  6
CONTINUOUS
  0
ENDTAB
  0
TABLE
  2
STYLE
 70
     3
  0
STYLE
  2
STANDARD
 70
     0
 40
0.0
 41
1.0
 50
0.0
 71
     0
 42
2.5
  3
romans.shx
  4
bigfont.shx
  0
STYLE
  2
ANNOTATIVE
 70
     0
 40
0.0
 41
1.0
 50
0.0
 71
     0
 42
0.2
  3
txt
  4

  0
STYLE
  2
DIMS
 70
     0
 40
0.0
 41
0.75
 50
0.0
 71
     0
 42
2.5
  3
romans.shx
  4
bigfont.shx
  0
ENDTAB
  0
TABLE
  2
VIEW
 70
     1
  0
VIEW
  2
PRINT
 70
     1
 40
128.4999999999998
 10
98.875866602002347
 20
145.2422655388057
 41
88.0
 11
0.0
 21
0.0
 31
1.0
 12
0.0
 22
0.0
 32
0.0
 42
50.0
 43
0.0
 44
0.0
 50
0.0
 71
     0
  0
ENDTAB
  0
TABLE
  2
UCS
 70
     0
  0
ENDTAB
  0
TABLE
  2
APPID
 70
     5
  0
APPID
  2
ACAD
 70
     0
  0
APPID
  2
ACADANNOTATIVE
 70
     0
  0
APPID
  2
ACAD_MLEADERVER
 70
     0
  0
APPID
  2
ACAD_EXEMPT_FROM_CAD_STANDARDS
 70
     0
  0
APPID
  2
ACAD_NAV_VCDISPLAY
 70
     0
  0
ENDTAB
  0
TABLE
  2
DIMSTYLE
 70
     3
  0
DIMSTYLE
  2
STANDARD
 70
     0
  3

  4

  5

  6

  7

 40
1.0
 41
0.18
 42
0.0625
 43
0.38
 44
0.18
 45
0.0
 46
0.0
 47
0.0
 48
0.0
140
0.18
141
0.09
142
0.0
143
25.399999999999999
144
1.0
145
0.0
146
1.0
147
0.09
 71
     0
 72
     0
 73
     1
 74
     1
 75
     0
 76
     0
 77
     0
 78
     0
170
     0
171
     2
172
     0
173
     0
174
     0
175
     0
176
     0
177
     0
178
     0
  0
DIMSTYLE
  2
ANNOTATIVE
 70
     0
  3

  4

  5

  6

  7

 40
1.0
 41
0.18
 42
0.0625
 43
0.38
 44
0.18
 45
0.0
 46
0.0
 47
0.0
 48
0.0
140
0.18
141
0.09
142
0.0
143
25.399999999999999
144
1.0
145
0.0
146
1.0
147
0.09
 71
     0
 72
     0
 73
     1
 74
     1
 75
     0
 76
     0
 77
     0
 78
     0
170
     0
171
     2
172
     0
173
     0
174
     0
175
     0
176
     0
177
     0
178
     0
  0
DIMSTYLE
  2
DIMS
 70
     0
  3

  4

  5

  6

  7

 40
0.0
 41
2.0
 42
0.625
 43
3.75
 44
1.25
 45
0.0
 46
0.0
 47
0.0
 48
0.0
140
2.5
141
0.0
142
0.0
143
0.03937007874016
144
1.0
145
0.0
146
1.0
147
0.625
 71
     0
 72
     0
 73
     0
 74
     0
 75
     0
 76
     0
 77
     1
 78
     8
170
     0
171
     3
172
     1
173
     0
174
     0
175
     0
176
     0
177
     0
178
     7
  0
ENDTAB
  0
ENDSEC
  0
SECTION
  2
BLOCKS
  0
BLOCK
  8
0
  2
$MODEL_SPACE
 70
     0
 10
0.0
 20
0.0
 30
0.0
  3
$MODEL_SPACE
  1

  0
ENDBLK
  5
3424
  8
0
  0
BLOCK
 67
     1
  8
0
  2
$PAPER_SPACE
 70
     0
 10
0.0
 20
0.0
 30
0.0
  3
$PAPER_SPACE
  1

  0
ENDBLK
  5
3420
 67
     1
  8
0
  0
ENDSEC
  0
SECTION
  2
ENTITIES
  0
ARC
  5
2837
  8
MODEL
 10
89.874999999999943
 20
-31.399029438320088
 30
0.0
 40
233.33630643933211
 50
81.363005655185702
 51
98.636994344814127
  0
LINE
  5
2838
  8
MODEL
 10
127.3749999999999
 20
183.9374999999998
 30
0.0
 11
52.375
 21
183.9374999999998
 31
0.0
  0
LINE
  5
2839
  8
MODEL
 10
52.375
 20
192.9375
 30
0.0
 11
127.3749999999999
 21
192.9375
 31
0.0
  0
ARC
  5
283A
  8
MODEL
 10
57.894172710790592
 20
187.14748872986911
 30
0.0
 40
12.5233060163664
 50
104.14382672087039
 51
211.8739567766178
  0
ARC
  5
283B
  8
MODEL
 10
54.47484754825868
 20
183.8989218748095
 30
0.0
 40
7.961421874809596
 50
204.9980349088265
 51
350.85037543627948
  0
LINE
  5
283C
  8
MODEL
 10
52.375
 20
183.9374999999998
 30
0.0
 11
52.375
 21
192.9375
 31
0.0
  0
ARC
  5
283D
  8
MODEL
 10
121.8558272892094
 20
187.14748872986911
 30
0.0
 40
12.5233060163664
 50
328.12604322338228
 51
75.85617327912955
  0
LINE
  5
283E
  8
MODEL
 10
127.3749999999999
 20
183.9374999999998
 30
0.0
 11
127.3749999999999
 21
192.9375
 31
0.0
  0
ARC
  5
283F
  8
MODEL
 10
118.4091822497348
 20
182.9068670410669
 30
0.0
 40
1.031199651976024
 50
91.899590910238203
 51
195.34149627487039
  0
ARC
  5
2840
  8
MODEL
 10
125.27515245174131
 20
183.8989218748095
 30
0.0
 40
7.961421874809596
 50
189.14962456372041
 51
335.00196509117342
  0
ARC
  5
2841
  8
MODEL
 10
61.340817750265153
 20
182.9068670410669
 30
0.0
 40
1.031199651976024
 50
344.65850372512949
 51
88.100409089761754
  0
LINE
  5
2842
  8
TITLE
 10
20.0
 20
32.5
 30
0.0
 11
199.75
 21
32.5
 31
0.0
  0
LINE
  5
2843
  8
TITLE
 10
20.0
 20
52.5
 30
0.0
 11
199.75
 21
52.5
 31
0.0
  0
LINE
  5
2844
  8
TITLE
 10
20.0
 20
62.5
 30
0.0
 11
199.75
 21
62.5
 31
0.0
  0
LINE
  5
2845
  8
TITLE
 10
64.875
 20
39.166666666666629
 30
0.0
 11
109.875
 21
39.166666666666629
 31
0.0
  0
LINE
  5
2846
  8
TITLE
 10
64.875
 20
45.83333333333325
 30
0.0
 11
109.875
 21
45.83333333333325
 31
0.0
  0
LINE
  5
2848
  8
TITLE
 10
20.0
 20
47.5
 30
0.0
 11
64.875
 21
47.5
 31
0.0
  0
LINE
  5
2849
  8
TITLE
 10
20.0
 20
42.5
 30
0.0
 11
64.875
 21
42.5
 31
0.0
  0
LINE
  5
284A
  8
TITLE
 10
20.0
 20
47.5
 30
0.0
 11
64.875
 21
47.5
 31
0.0
  0
LINE
  5
284B
  8
TITLE
 10
20.0
 20
37.5
 30
0.0
 11
64.875
 21
37.5
 31
0.0
  0
LINE
  5
284C
  8
TITLE
 10
64.875
 20
67.5
 30
0.0
 11
64.875
 21
32.5
 31
0.0
  0
LINE
  5
284D
  8
TITLE
 10
163.87248402612141
 20
37.771309270119673
 30
0.0
 11
164.4463718124328
 21
38.345197056431282
 31
0.0
  0
LINE
  5
284E
  8
TITLE
 10
163.9597688987682
 20
37.771309270119673
 30
0.0
 11
164.53365668507951
 21
38.345197056431282
 31
0.0
  0
LINE
  5
284F
  8
TITLE
 10
164.04705377141539
 20
37.771309270119673
 30
0.0
 11
164.62094155772709
 21
38.345197056431282
 31
0.0
  0
LINE
  5
2850
  8
TITLE
 10
164.13433864406301
 20
37.771309270119673
 30
0.0
 11
164.7082264303744
 21
38.345197056431282
 31
0.0
  0
LINE
  5
2851
  8
TITLE
 10
164.22162351670971
 20
37.771309270119673
 30
0.0
 11
164.7955113030211
 21
38.345197056431282
 31
0.0
  0
LINE
  5
2852
  8
TITLE
 10
164.3089083893573
 20
37.771309270119673
 30
0.0
 11
164.8827961756686
 21
38.345197056431282
 31
0.0
  0
LINE
  5
2853
  8
TITLE
 10
164.2889598913105
 20
39.497058225001872
 30
0.0
 11
164.64718991766671
 21
39.855288251358161
 31
0.0
  0
LINE
  5
2854
  8
TITLE
 10
164.33393915069331
 20
35.78878796058585
 30
0.0
 11
164.82956941661541
 21
36.284418226511548
 31
0.0
  0
LINE
  5
2855
  8
TITLE
 10
163.9822080056087
 20
34.826062706977829
 30
0.0
 11
164.548179269484
 21
35.392033970853852
 31
0.0
  0
LINE
  5
2856
  8
TITLE
 10
164.03195971082761
 20
34.788529539550289
 30
0.0
 11
164.5890695932961
 21
35.345639422015083
 31
0.0
  0
LINE
  5
2857
  8
TITLE
 10
164.0827993326306
 20
34.752084288709632
 30
0.0
 11
164.6323034686624
 21
35.301588424737801
 31
0.0
  0
LINE
  5
2858
  8
TITLE
 10
164.13474009566511
 20
34.716740179100491
 30
0.0
 11
164.67787736179699
 21
35.259877445225356
 31
0.0
  0
LINE
  5
2859
  8
TITLE
 10
164.18779751549019
 20
34.682512726274801
 30
0.0
 11
164.72580804164579
 21
35.220523252430212
 31
0.0
  0
LINE
  5
285A
  8
TITLE
 10
164.24198955074999
 20
34.649419888890733
 30
0.0
 11
164.77613331764081
 21
35.183563655778023
 31
0.0
  0
LINE
  5
285B
  8
TITLE
 10
164.2973367851213
 20
34.61748225061136
 30
0.0
 11
164.82891374684991
 21
35.149059212343772
 31
0.0
  0
LINE
  5
285C
  8
TITLE
 10
164.353862643496
 20
34.586723236342877
 30
0.0
 11
164.88423549599781
 21
35.117096088840519
 31
0.0
  0
LINE
  5
285D
  8
TITLE
 10
163.88592616740971
 20
34.904350614073209
 30
0.0
 11
164.4735467605496
 21
35.491971207213851
 31
0.0
  0
LINE
  5
285E
  8
TITLE
 10
163.93353315712361
 20
34.86467273113692
 30
0.0
 11
164.5096564882478
 21
35.440796062264212
 31
0.0
  0
LINE
  5
285F
  8
TITLE
 10
163.90255608492711
 20
36.753962857166918
 30
0.0
 11
164.4242722319581
 21
37.27567900419411
 31
0.0
  0
LINE
  5
2860
  8
TITLE
 10
163.98984095757481
 20
36.753962857166918
 30
0.0
 11
164.5115571046052
 21
37.27567900419411
 31
0.0
  0
LINE
  5
2861
  8
TITLE
 10
164.07712583022141
 20
36.753962857166918
 30
0.0
 11
164.5988419772525
 21
37.27567900419411
 31
0.0
  0
LINE
  5
2862
  8
TITLE
 10
164.16441070286871
 20
36.753962857166918
 30
0.0
 11
164.6861268498923
 21
37.27567900419411
 31
0.0
  0
LINE
  5
2863
  8
TITLE
 10
164.25169557551581
 20
36.753962857166918
 30
0.0
 11
164.77341172253941
 21
37.27567900419411
 31
0.0
  0
LINE
  5
2864
  8
TITLE
 10
164.338980448163
 20
36.753962857166918
 30
0.0
 11
164.86069659518671
 21
37.27567900419411
 31
0.0
  0
LINE
  5
2865
  8
TITLE
 10
109.875
 20
42.5
 30
0.0
 11
199.75
 21
42.5
 31
0.0
  0
LINE
  5
2866
  8
TITLE
 10
163.3487747902459
 20
37.771309270119673
 30
0.0
 11
164.99218062879009
 21
39.414715108664723
 31
0.0
  0
LINE
  5
2867
  8
TITLE
 10
163.4360596628926
 20
37.771309270119673
 30
0.0
 11
165.07946550143731
 21
39.414715108664723
 31
0.0
  0
LINE
  5
2868
  8
TITLE
 10
163.52334453553999
 20
37.771309270119673
 30
0.0
 11
165.1667503740845
 21
39.414715108664723
 31
0.0
  0
LINE
  5
2869
  8
TITLE
 10
163.6921557580585
 20
38.463829728521318
 30
0.0
 11
165.0836142808956
 21
39.855288251358161
 31
0.0
  0
LINE
  5
286A
  8
TITLE
 10
163.67029956391701
 20
38.354688661725262
 30
0.0
 11
165.16383407136101
 21
39.848223169176649
 31
0.0
  0
LINE
  5
286B
  8
TITLE
 10
163.7358681463555
 20
38.682111862105891
 30
0.0
 11
164.9090445356087
 21
39.855288251358161
 31
0.0
  0
LINE
  5
286C
  8
TITLE
 10
163.71401195220679
 20
38.572970795313161
 30
0.0
 11
164.99632940824841
 21
39.855288251358161
 31
0.0
  0
LINE
  5
286D
  8
TITLE
 10
162.1568586319986
 20
36.753962857166918
 30
0.0
 11
165.0860593351625
 21
39.683163560327209
 31
0.0
  0
LINE
  5
286E
  8
TITLE
 10
162.24414350464571
 20
36.753962857166918
 30
0.0
 11
165.00828459895681
 21
39.518103951478452
 31
0.0
  0
LINE
  5
286F
  8
TITLE
 10
163.72904133648251
 20
38.762569924883323
 30
0.0
 11
164.821759662961
 21
39.855288251358161
 31
0.0
  0
LINE
  5
2870
  8
TITLE
 10
163.64175646383541
 20
38.762569924883323
 30
0.0
 11
164.7344747903139
 21
39.855288251358161
 31
0.0
  0
LINE
  5
2871
  8
TITLE
 10
163.61062940817999
 20
37.771309270119673
 30
0.0
 11
164.4993693244231
 21
38.660049186359288
 31
0.0
  0
LINE
  5
2872
  8
TITLE
 10
163.69791428082681
 20
37.771309270119673
 30
0.0
 11
164.47751313027439
 21
38.550908119567453
 31
0.0
  0
LINE
  5
2873
  8
TITLE
 10
163.78519915347439
 20
37.771309270119673
 30
0.0
 11
164.45565693613281
 21
38.441767052771191
 31
0.0
  0
LINE
  5
2874
  8
TITLE
 10
163.46797286119951
 20
35.359246034324322
 30
0.0
 11
164.3931450533868
 21
36.284418226511548
 31
0.0
  0
LINE
  5
2875
  8
TITLE
 10
163.5049782626142
 20
35.308966563095851
 30
0.0
 11
164.48042992603399
 21
36.284418226511548
 31
0.0
  0
LINE
  5
2876
  8
TITLE
 10
163.5430656380575
 20
35.259769065887902
 30
0.0
 11
164.5677147986811
 21
36.284418226511548
 31
0.0
  0
LINE
  5
2877
  8
TITLE
 10
163.5822249979251
 20
35.211643553111912
 30
0.0
 11
164.65499967132081
 21
36.284418226511548
 31
0.0
  0
LINE
  5
2878
  8
TITLE
 10
163.62244836990789
 20
35.164582052454882
 30
0.0
 11
164.74228454396811
 21
36.284418226511548
 31
0.0
  0
LINE
  5
2879
  8
TITLE
 10
163.7494517091607
 20
35.029730773762481
 30
0.0
 11
164.38052671146241
 21
35.660805776067932
 31
0.0
  0
LINE
  5
287A
  8
TITLE
 10
163.7938896087615
 20
34.986883800719838
 30
0.0
 11
164.40886986011941
 21
35.601864052077531
 31
0.0
  0
LINE
  5
287B
  8
TITLE
 10
163.8393800183625
 20
34.945089337666332
 30
0.0
 11
164.43991920054981
 21
35.545628519861111
 31
0.0
  0
LINE
  5
287C
  8
TITLE
 10
164.36673462751591
 20
39.662117833854708
 30
0.0
 11
164.55990504501941
 21
39.855288251358161
 31
0.0
  0
LINE
  5
287D
  8
TITLE
 10
131.0117709677242
 20
38.689841925901888
 30
0.0
 11
132.167164226149
 21
39.845235184330811
 31
0.0
  0
LINE
  5
287E
  8
TITLE
 10
131.09905584037131
 20
38.689841925901888
 30
0.0
 11
132.25444909879599
 21
39.845235184330811
 31
0.0
  0
LINE
  5
287F
  8
TITLE
 10
131.18634071301801
 20
38.689841925901888
 30
0.0
 11
132.34173397144369
 21
39.845235184330811
 31
0.0
  0
LINE
  5
2880
  8
TITLE
 10
131.2736255856652
 20
38.689841925901888
 30
0.0
 11
132.42901884409039
 21
39.845235184330811
 31
0.0
  0
LINE
  5
2881
  8
TITLE
 10
131.360910458305
 20
38.689841925901888
 30
0.0
 11
132.51630371673781
 21
39.845235184330811
 31
0.0
  0
LINE
  5
2882
  8
TITLE
 10
131.4481953309523
 20
38.689841925901888
 30
0.0
 11
132.60358858938471
 21
39.845235184330811
 31
0.0
  0
LINE
  5
2883
  8
TITLE
 10
131.53548020359941
 20
38.689841925901888
 30
0.0
 11
132.6908734620319
 21
39.845235184330811
 31
0.0
  0
LINE
  5
2884
  8
TITLE
 10
131.0641219108829
 20
34.290664364088208
 30
0.0
 11
132.12154666370569
 21
35.348089116911282
 31
0.0
  0
LINE
  5
2885
  8
TITLE
 10
131.15140678353009
 20
34.290664364088208
 30
0.0
 11
132.2105322659875
 21
35.34978984654618
 31
0.0
  0
LINE
  5
2886
  8
TITLE
 10
131.238691656177
 20
34.290664364088208
 30
0.0
 11
132.304687711144
 21
35.356660419062912
 31
0.0
  0
LINE
  5
2887
  8
TITLE
 10
131.32597652881699
 20
34.290664364088208
 30
0.0
 11
132.40519659512469
 21
35.3698844303958
 31
0.0
  0
LINE
  5
2888
  8
TITLE
 10
131.4132614014643
 20
34.290664364088208
 30
0.0
 11
132.5137681585488
 21
35.391171121172867
 31
0.0
  0
LINE
  5
2889
  8
TITLE
 10
131.5005462741114
 20
34.290664364088208
 30
0.0
 11
132.6332124734231
 21
35.423330563399972
 31
0.0
  0
LINE
  5
288B
  8
TITLE
 10
130.9244860950771
 20
38.689841925901888
 30
0.0
 11
132.07987935350201
 21
39.845235184330811
 31
0.0
  0
LINE
  5
288C
  8
TITLE
 10
130.71498242029421
 20
34.290664364088208
 30
0.0
 11
131.77240717311719
 21
35.348089116911282
 31
0.0
  0
LINE
  5
288D
  8
TITLE
 10
130.80226729294139
 20
34.290664364088208
 30
0.0
 11
131.8596920457644
 21
35.348089116911282
 31
0.0
  0
LINE
  5
288E
  8
TITLE
 10
130.8895521655885
 20
34.290664364088208
 30
0.0
 11
131.94697691841139
 21
35.348089116911282
 31
0.0
  0
LINE
  5
288F
  8
TITLE
 10
130.5404126749998
 20
34.290664364088208
 30
0.0
 11
131.5978374278229
 21
35.348089116911282
 31
0.0
  0
LINE
  5
2890
  8
TITLE
 10
130.62769754764699
 20
34.290664364088208
 30
0.0
 11
131.68512230046991
 21
35.348089116911282
 31
0.0
  0
LINE
  5
2891
  8
TITLE
 10
130.97683703823529
 20
34.290664364088208
 30
0.0
 11
132.03426179105901
 21
35.348089116911282
 31
0.0
  0
LINE
  5
2892
  8
TITLE
 10
129.59289779332849
 20
37.794677987385853
 30
0.0
 11
131.64345499027331
 21
39.845235184330811
 31
0.0
  0
LINE
  5
2893
  8
TITLE
 10
129.59289779332849
 20
37.707393114738821
 30
0.0
 11
131.7307398629209
 21
39.845235184330811
 31
0.0
  0
LINE
  5
2894
  8
TITLE
 10
129.59289779332849
 20
37.620108242091533
 30
0.0
 11
131.81802473556749
 21
39.845235184330811
 31
0.0
  0
LINE
  5
2895
  8
TITLE
 10
129.59289779332849
 20
37.532823369444252
 30
0.0
 11
131.90530960820789
 21
39.845235184330811
 31
0.0
  0
LINE
  5
2896
  8
TITLE
 10
129.59289779332849
 20
37.44553849680085
 30
0.0
 11
131.9925944808551
 21
39.845235184330811
 31
0.0
  0
LINE
  5
2897
  8
TITLE
 10
109.875
 20
67.5
 30
0.0
 11
109.875
 21
32.5
 31
0.0
  0
LINE
  5
2898
  8
TITLE
 10
123.38447913735121
 20
33.451262901534491
 30
0.0
 11
127.1533261103359
 21
37.220109874517213
 31
0.0
  0
LINE
  5
2899
  8
TITLE
 10
123.56608722700911
 20
33.45830124589542
 30
0.0
 11
127.1462877659751
 21
37.038501784862191
 31
0.0
  0
LINE
  5
289A
  8
TITLE
 10
123.4741598753205
 20
33.453658766853771
 30
0.0
 11
127.1509302450167
 21
37.13042913655169
 31
0.0
  0
LINE
  5
289B
  8
TITLE
 10
123.857390997995
 20
33.487750398940882
 30
0.0
 11
127.1168386129297
 21
36.747198013875497
 31
0.0
  0
LINE
  5
289C
  8
TITLE
 10
123.66044827911119
 20
33.465377425351441
 30
0.0
 11
127.1392115865192
 21
36.944140732759131
 31
0.0
  0
LINE
  5
289D
  8
TITLE
 10
123.7574626493614
 20
33.475106922954751
 30
0.0
 11
127.12948208891549
 21
36.847126362508789
 31
0.0
  0
LINE
  5
289E
  8
TITLE
 10
123.9605466579464
 20
33.503621186252651
 30
0.0
 11
127.10096782561671
 21
36.644042353919083
 31
0.0
  0
LINE
  5
289F
  8
TITLE
 10
120.76550323442591
 20
33.45083317800048
 30
0.0
 11
123.30849127268991
 21
35.993821216265118
 31
0.0
  0
LINE
  5
28A0
  8
TITLE
 10
120.6782183617787
 20
33.450833178000607
 30
0.0
 11
123.2251298298501
 21
35.997744646072178
 31
0.0
  0
LINE
  5
28A1
  8
TITLE
 10
120.5909334891315
 20
33.450833178000607
 30
0.0
 11
123.1465504968819
 21
36.00645018575073
 31
0.0
  0
LINE
  5
28A2
  8
TITLE
 10
120.5036486164839
 20
33.450833178000607
 30
0.0
 11
123.0720905350867
 21
36.01927509660333
 31
0.0
  0
LINE
  5
28A3
  8
TITLE
 10
120.4163637438227
 20
33.450833178000941
 30
0.0
 11
123.00126389369591
 21
36.035733327855723
 31
0.0
  0
LINE
  5
28A4
  8
TITLE
 10
120.3290788711969
 20
33.450833178000941
 30
0.0
 11
122.93370364306691
 21
36.055457949870181
 31
0.0
  0
LINE
  5
28A5
  8
TITLE
 10
120.2417939985498
 20
33.450833178000607
 30
0.0
 11
122.8691268949387
 21
36.078166074389159
 31
0.0
  0
LINE
  5
28A6
  8
TITLE
 10
120.15450912590219
 20
33.450833178000607
 30
0.0
 11
122.807312354147
 21
36.103636406244853
 31
0.0
  0
LINE
  5
28A7
  8
TITLE
 10
120.0672242532564
 20
33.450833178000607
 30
0.0
 11
122.74808539198639
 21
36.13169431673122
 31
0.0
  0
LINE
  5
28A8
  8
TITLE
 10
119.9799393806088
 20
33.450833178000607
 30
0.0
 11
122.6913078215825
 21
36.162201618974549
 31
0.0
  0
LINE
  5
28A9
  8
TITLE
 10
119.8926545079612
 20
33.450833178000607
 30
0.0
 11
122.6368707391243
 21
36.19504940916373
 31
0.0
  0
LINE
  5
28AA
  8
TITLE
 10
119.8053696353136
 20
33.450833178000607
 30
0.0
 11
122.584689442336
 21
36.230152985022741
 31
0.0
  0
LINE
  5
28AB
  8
TITLE
 10
119.6307998900197
 20
33.450833178000607
 30
0.0
 11
122.4868557481594
 21
36.306889036140078
 31
0.0
  0
LINE
  5
28AC
  8
TITLE
 10
119.54351501740339
 20
33.450833178000607
 30
0.0
 11
122.44112745603969
 21
36.34844561666511
 31
0.0
  0
LINE
  5
28AD
  8
TITLE
 10
119.71808476266681
 20
33.45083317800048
 30
0.0
 11
122.53469980975881
 21
36.267448225091918
 31
0.0
  0
LINE
  5
28AE
  8
TITLE
 10
123.296884098549
 20
33.450952735378792
 30
0.0
 11
127.1536362764917
 21
37.307704913320201
 31
0.0
  0
LINE
  5
28AF
  8
TITLE
 10
123.2112351791919
 20
33.452588688660292
 30
0.0
 11
127.1608025945805
 21
37.402156104049368
 31
0.0
  0
LINE
  5
28B0
  8
TITLE
 10
123.1274103954687
 20
33.45604877758398
 30
0.0
 11
127.1485402342859
 21
37.477178616409091
 31
0.0
  0
LINE
  5
28B1
  8
TITLE
 10
123.0453024283688
 20
33.46122568314285
 30
0.0
 11
127.1433633287279
 21
37.559286583495002
 31
0.0
  0
LINE
  5
28B2
  8
TITLE
 10
122.9648162964985
 20
33.468024423909121
 30
0.0
 11
127.1365645879614
 21
37.63977271537135
 31
0.0
  0
LINE
  5
28B3
  8
TITLE
 10
122.8603401779432
 20
33.450833178000941
 30
0.0
 11
127.1282285247256
 21
37.718721524790212
 31
0.0
  0
LINE
  5
28B4
  8
TITLE
 10
122.7730553052955
 20
33.450833178000607
 30
0.0
 11
127.1184306994864
 21
37.79620857219129
 31
0.0
  0
LINE
  5
28B5
  8
TITLE
 10
122.6857704326453
 20
33.450833178000607
 30
0.0
 11
127.1072389624087
 21
37.872301707764208
 31
0.0
  0
LINE
  5
28B6
  8
TITLE
 10
122.59848556000171
 20
33.450833178000607
 30
0.0
 11
127.0947144793161
 21
37.947062097314983
 31
0.0
  0
LINE
  5
28B7
  8
TITLE
 10
122.5112006873545
 20
33.450833178000607
 30
0.0
 11
127.0809125858309
 21
38.020545076476893
 31
0.0
  0
LINE
  5
28B8
  8
TITLE
 10
122.4239158147074
 20
33.450833178000607
 30
0.0
 11
127.06588350361601
 21
38.092800866909563
 31
0.0
  0
LINE
  5
28B9
  8
TITLE
 10
122.33663094205799
 20
33.450833178000607
 30
0.0
 11
127.04967294494639
 21
38.163875180883338
 31
0.0
  0
LINE
  5
28BA
  8
TITLE
 10
122.24934606941039
 20
33.450833178000607
 30
0.0
 11
127.0323226261433
 21
38.233809734727849
 31
0.0
  0
LINE
  5
28BB
  8
TITLE
 10
122.16206119677319
 20
33.450833178000607
 30
0.0
 11
127.0138707060767
 21
38.302642687304122
 31
0.0
  0
LINE
  5
28BC
  8
TITLE
 10
122.07477632412559
 20
33.450833178000607
 30
0.0
 11
126.9943521626069
 21
38.370409016481851
 31
0.0
  0
LINE
  5
28BD
  8
TITLE
 10
121.98749145147841
 20
33.450833178000941
 30
0.0
 11
126.9737991173359
 21
38.437140843857932
 31
0.0
  0
LINE
  5
28BE
  8
TITLE
 10
121.9002065788322
 20
33.450833178000607
 30
0.0
 11
126.9365361668487
 21
38.487162766017718
 31
0.0
  0
LINE
  5
28BF
  8
TITLE
 10
121.8129217061845
 20
33.450833178000607
 30
0.0
 11
126.84925129420201
 21
38.487162766017718
 31
0.0
  0
LINE
  5
28C0
  8
TITLE
 10
121.725636833537
 20
33.450833178000941
 30
0.0
 11
126.7619664215549
 21
38.487162766017491
 31
0.0
  0
LINE
  5
28C1
  8
TITLE
 10
121.6383519608912
 20
33.450833178000607
 30
0.0
 11
126.6746815489068
 21
38.487162766017718
 31
0.0
  0
LINE
  5
28C2
  8
TITLE
 10
121.28921247032299
 20
33.450833178000607
 30
0.0
 11
124.0660208251004
 21
36.227641532797762
 31
0.0
  0
LINE
  5
28C3
  8
TITLE
 10
121.5510670882431
 20
33.450833178000607
 30
0.0
 11
126.5873966762605
 21
38.487162766017718
 31
0.0
  0
LINE
  5
28C4
  8
TITLE
 10
121.4637822155964
 20
33.450833178000607
 30
0.0
 11
126.500111803612
 21
38.487162766017491
 31
0.0
  0
LINE
  5
28C5
  8
TITLE
 10
121.3764973429488
 20
33.450833178000607
 30
0.0
 11
126.41282693096581
 21
38.487162766017718
 31
0.0
  0
LINE
  5
28C6
  8
TITLE
 10
121.20192759766221
 20
33.450833178000941
 30
0.0
 11
123.8610965150263
 21
36.110002095365743
 31
0.0
  0
LINE
  5
28C7
  8
TITLE
 10
121.11464272501399
 20
33.450833178000941
 30
0.0
 11
123.7186552097546
 21
36.054845662740611
 31
0.0
  0
LINE
  5
28C8
  8
TITLE
 10
121.027357852367
 20
33.450833178000607
 30
0.0
 11
123.5994184705409
 21
36.022893796174777
 31
0.0
  0
LINE
  5
28C9
  8
TITLE
 10
120.9400729797202
 20
33.450833178000607
 30
0.0
 11
123.49378910120311
 21
36.004549299483521
 31
0.0
  0
LINE
  5
28CA
  8
TITLE
 10
120.8527881070726
 20
33.450833178000607
 30
0.0
 11
123.3975748664183
 21
35.99561993734585
 31
0.0
  0
LINE
  5
28CB
  8
TITLE
 10
125.33823048282279
 20
41.10407912057223
 30
0.0
 11
122.41937018706069
 21
38.18521882480978
 31
0.0
  0
LINE
  5
28CC
  8
TITLE
 10
119.85068909498381
 20
35.678274453828379
 30
0.0
 11
125.2764937617288
 21
41.10407912057223
 31
0.0
  0
LINE
  5
28CD
  8
TITLE
 10
119.82361753197431
 20
35.73848776346518
 30
0.0
 11
125.1892088890812
 21
41.10407912057223
 31
0.0
  0
LINE
  5
28CE
  8
TITLE
 10
119.79741619693181
 20
35.79957130106925
 30
0.0
 11
125.1019240164337
 21
41.10407912057223
 31
0.0
  0
LINE
  5
28CF
  8
TITLE
 10
119.7721034095353
 20
35.861543386320918
 30
0.0
 11
125.01463914378741
 21
41.10407912057223
 31
0.0
  0
LINE
  5
28D0
  8
TITLE
 10
119.7476989814177
 20
35.92442383085028
 30
0.0
 11
124.92735427113971
 21
41.10407912057223
 31
0.0
  0
LINE
  5
28D1
  8
TITLE
 10
119.55935903193949
 20
36.608932607828812
 30
0.0
 11
124.0545055446687
 21
41.10407912057223
 31
0.0
  0
LINE
  5
28D2
  8
TITLE
 10
119.54685359953331
 20
36.6837120480767
 30
0.0
 11
123.9672206720282
 21
41.10407912057223
 31
0.0
  0
LINE
  5
28D3
  8
TITLE
 10
119.6401178100717
 20
36.253267022746172
 30
0.0
 11
124.49092990791171
 21
41.10407912057223
 31
0.0
  0
LINE
  5
28D4
  8
TITLE
 10
119.6216817176951
 20
36.32211580301589
 30
0.0
 11
124.4036450352645
 21
41.10407912057223
 31
0.0
  0
LINE
  5
28D5
  8
TITLE
 10
119.6043477600806
 20
36.392066718045371
 30
0.0
 11
124.3163601626206
 21
41.10407912057223
 31
0.0
  0
LINE
  5
28D6
  8
TITLE
 10
119.58815414519979
 20
36.463157975812223
 30
0.0
 11
124.22907528997391
 21
41.10407912057223
 31
0.0
  0
LINE
  5
28D7
  8
TITLE
 10
119.5731426444104
 20
36.535431347660051
 30
0.0
 11
124.14179041731541
 21
41.10407912057223
 31
0.0
  0
LINE
  5
28D8
  8
TITLE
 10
119.7242243448936
 20
35.988234066972481
 30
0.0
 11
124.8400693984925
 21
41.10407912057223
 31
0.0
  0
LINE
  5
28D9
  8
TITLE
 10
119.70170269854771
 20
36.052997293274181
 30
0.0
 11
124.7527845258455
 21
41.10407912057223
 31
0.0
  0
LINE
  5
28DA
  8
TITLE
 10
119.6801591723346
 20
36.118738639708681
 30
0.0
 11
124.66549965319879
 21
41.10407912057223
 31
0.0
  0
LINE
  5
28DB
  8
TITLE
 10
119.65962101534789
 20
36.18548535537537
 30
0.0
 11
124.5782147805597
 21
41.10407912057223
 31
0.0
  0
LINE
  5
28DC
  8
TITLE
 10
119.5356817625029
 20
36.75982508369394
 30
0.0
 11
123.879935799381
 21
41.10407912057223
 31
0.0
  0
LINE
  5
28DD
  8
TITLE
 10
119.52590477776219
 20
36.837332971600169
 30
0.0
 11
123.792650926734
 21
41.10407912057223
 31
0.0
  0
LINE
  5
28DE
  8
TITLE
 10
119.51759060022459
 20
36.91630366670973
 30
0.0
 11
123.7053660540868
 21
41.10407912057223
 31
0.0
  0
LINE
  5
28DF
  8
TITLE
 10
119.5108149115576
 20
36.996812850689828
 30
0.0
 11
123.61808118143971
 21
41.10407912057223
 31
0.0
  0
LINE
  5
28E0
  8
TITLE
 10
119.5056623657138
 20
37.078945177492869
 30
0.0
 11
123.5307963087924
 21
41.10407912057223
 31
0.0
  0
LINE
  5
28E1
  8
TITLE
 10
119.5022281098659
 20
37.16279579428339
 30
0.0
 11
123.4435114361454
 21
41.10407912057223
 31
0.0
  0
LINE
  5
28E2
  8
TITLE
 10
119.50061965915749
 20
37.248472216222567
 30
0.0
 11
123.3562265634982
 21
41.10407912057223
 31
0.0
  0
LINE
  5
28E3
  8
TITLE
 10
119.6991955842627
 20
38.494466613062869
 30
0.0
 11
122.30880809173939
 21
41.10407912057223
 31
0.0
  0
LINE
  5
28E4
  8
TITLE
 10
119.50095923156231
 20
37.336096661273821
 30
0.0
 11
123.26894169085099
 21
41.10407912057223
 31
0.0
  0
LINE
  5
28E5
  8
TITLE
 10
119.5033866891867
 20
37.42580899153608
 30
0.0
 11
123.1816568182039
 21
41.10407912057223
 31
0.0
  0
LINE
  5
28E6
  8
TITLE
 10
119.5080632908661
 20
37.517770465861418
 30
0.0
 11
123.0943719455567
 21
41.10407912057223
 31
0.0
  0
LINE
  5
28E7
  8
TITLE
 10
119.515176548241
 20
37.61216859589581
 30
0.0
 11
123.0070870729167
 21
41.10407912057223
 31
0.0
  0
LINE
  5
28E8
  8
TITLE
 10
119.5249466109308
 20
37.709223531232851
 30
0.0
 11
122.9198022002697
 21
41.10407912057223
 31
0.0
  0
LINE
  5
28E9
  8
TITLE
 10
119.53763481556
 20
37.809196608509289
 30
0.0
 11
122.8325173276225
 21
41.10407912057223
 31
0.0
  0
LINE
  5
28EA
  8
TITLE
 10
119.5535553710679
 20
37.912402036663472
 30
0.0
 11
122.7452324549748
 21
41.10407912057223
 31
0.0
  0
LINE
  5
28EB
  8
TITLE
 10
119.57309171664239
 20
38.019223254885439
 30
0.0
 11
122.65794758232821
 21
41.10407912057223
 31
0.0
  0
LINE
  5
28EC
  8
TITLE
 10
119.59672006767271
 20
38.13013647856279
 30
0.0
 11
122.570662709681
 21
41.10407912057223
 31
0.0
  0
LINE
  5
28ED
  8
TITLE
 10
119.62504444435901
 20
38.24574572788277
 30
0.0
 11
122.4833778370334
 21
41.10407912057223
 31
0.0
  0
LINE
  5
28EE
  8
TITLE
 10
119.6588508908735
 20
38.366837047043397
 30
0.0
 11
122.3960929643867
 21
41.10407912057223
 31
0.0
  0
LINE
  5
28EF
  8
TITLE
 10
119.7475570630408
 20
38.630112964483381
 30
0.0
 11
122.2215232190924
 21
41.10407912057223
 31
0.0
  0
LINE
  5
28F0
  8
TITLE
 10
119.87837471686809
 20
38.935500363634212
 30
0.0
 11
122.0469534738052
 21
41.10407912057223
 31
0.0
  0
LINE
  5
28F1
  8
TITLE
 10
119.8061210691303
 20
38.775961843213722
 30
0.0
 11
122.1342383464451
 21
41.10407912057223
 31
0.0
  0
LINE
  5
28F2
  8
TITLE
 10
119.97055903818359
 20
39.114969557597867
 30
0.0
 11
121.959668601158
 21
41.10407912057223
 31
0.0
  0
LINE
  5
28F3
  8
TITLE
 10
119.99855021796149
 20
35.389711213578479
 30
0.0
 11
122.0544190242494
 21
37.445580019865119
 31
0.0
  0
LINE
  5
28F4
  8
TITLE
 10
119.9673574068533
 20
35.445803275119722
 30
0.0
 11
122.07292524772851
 21
37.551371115991969
 31
0.0
  0
LINE
  5
28F5
  8
TITLE
 10
119.9369620260149
 20
35.502692766959491
 30
0.0
 11
122.1051251839025
 21
37.670855924819641
 31
0.0
  0
LINE
  5
28F6
  8
TITLE
 10
119.9073764141267
 20
35.560392027709561
 30
0.0
 11
122.1607584701223
 21
37.813774083683832
 31
0.0
  0
LINE
  5
28F7
  8
TITLE
 10
119.8786139441458
 20
35.618914430321752
 30
0.0
 11
122.2803928826206
 21
38.020693368814698
 31
0.0
  0
LINE
  5
28F8
  8
TITLE
 10
120.0305290909704
 20
35.334405213938211
 30
0.0
 11
122.04537152320729
 21
37.349247646174952
 31
0.0
  0
LINE
  5
28F9
  8
TITLE
 10
120.47256755522839
 20
34.729025206448242
 30
0.0
 11
122.27930117902849
 21
36.535758830238251
 31
0.0
  0
LINE
  5
28FA
  8
TITLE
 10
120.5992525161099
 20
34.593855549403322
 30
0.0
 11
122.3975003441045
 21
36.392103377374937
 31
0.0
  0
LINE
  5
28FB
  8
TITLE
 10
120.5563192463167
 20
34.638207152264492
 30
0.0
 11
122.3559745190459
 21
36.437862424963427
 31
0.0
  0
LINE
  5
28FC
  8
TITLE
 10
120.5140905573129
 20
34.68326333588027
 30
0.0
 11
122.3165647872932
 21
36.485737565855842
 31
0.0
  0
LINE
  5
28FD
  8
TITLE
 10
120.3916458255553
 20
34.82267322205859
 30
0.0
 11
122.21141576110131
 21
36.64244315760412
 31
0.0
  0
LINE
  5
28FE
  8
TITLE
 10
120.3522521212294
 20
34.870564390380189
 30
0.0
 11
122.1809433794769
 21
36.699255648627847
 31
0.0
  0
LINE
  5
28FF
  8
TITLE
 10
120.3135741703726
 20
34.91917131217042
 30
0.0
 11
122.1529221823247
 21
36.758519324122631
 31
0.0
  0
LINE
  5
2900
  8
TITLE
 10
120.27561595025691
 20
34.968497964702678
 30
0.0
 11
122.12749083113459
 21
36.820372845580209
 31
0.0
  0
LINE
  5
2901
  8
TITLE
 10
120.16610875714279
 20
35.12084538950797
 30
0.0
 11
122.06873736886099
 21
37.023474001244153
 31
0.0
  0
LINE
  5
2902
  8
TITLE
 10
120.2383820510444
 20
35.018548938136291
 30
0.0
 11
122.104824553463
 21
36.884991440554813
 31
0.0
  0
LINE
  5
2903
  8
TITLE
 10
120.20187769474791
 20
35.069329454486933
 30
0.0
 11
122.08514542238881
 21
36.952597182127867
 31
0.0
  0
LINE
  5
2904
  8
TITLE
 10
120.1310817927645
 20
35.17310329781867
 30
0.0
 11
122.0559687700524
 21
37.097990275081081
 31
0.0
  0
LINE
  5
2905
  8
TITLE
 10
120.0968040634874
 20
35.226110441196283
 30
0.0
 11
122.0473277703134
 21
37.176634147990057
 31
0.0
  0
LINE
  5
2906
  8
TITLE
 10
120.0632835705832
 20
35.279874820909981
 30
0.0
 11
122.0434802906087
 21
37.260071540929147
 31
0.0
  0
LINE
  5
2907
  8
TITLE
 10
120.4317519027408
 20
34.775494426607452
 30
0.0
 11
122.2442300364996
 21
36.587972560356192
 31
0.0
  0
LINE
  5
2908
  8
TITLE
 10
121.7420937297892
 20
41.10407912057223
 30
0.0
 11
120.6213018105436
 21
39.983287201326682
 31
0.0
  0
LINE
  5
2909
  8
TITLE
 10
120.30236018531239
 20
39.621340450015161
 30
0.0
 11
121.78509885586379
 21
41.10407912057223
 31
0.0
  0
LINE
  5
290A
  8
TITLE
 10
120.0962783141607
 20
39.327973706222679
 30
0.0
 11
121.872383728511
 21
41.10407912057223
 31
0.0
  0
LINE
  5
290B
  8
TITLE
 10
129.59289779332849
 20
37.881962860033113
 30
0.0
 11
131.5561701176261
 21
39.845235184330811
 31
0.0
  0
LINE
  5
290C
  8
TITLE
 10
129.59289779332849
 20
39.01666620443882
 30
0.0
 11
130.42146677322009
 21
39.845235184330811
 31
0.0
  0
LINE
  5
290D
  8
TITLE
 10
129.59289779332849
 20
38.92938133179166
 30
0.0
 11
130.5087516458679
 21
39.845235184330811
 31
0.0
  0
LINE
  5
290E
  8
TITLE
 10
129.59289779332849
 20
38.842096459144372
 30
0.0
 11
130.5960365185145
 21
39.845235184330811
 31
0.0
  0
LINE
  5
290F
  8
TITLE
 10
129.59289779332849
 20
38.754811586497681
 30
0.0
 11
130.68332139116171
 21
39.845235184330811
 31
0.0
  0
LINE
  5
2910
  8
TITLE
 10
129.59289779332849
 20
38.05653260532744
 30
0.0
 11
131.38160037233169
 21
39.845235184330811
 31
0.0
  0
LINE
  5
2911
  8
TITLE
 10
129.59289779332849
 20
37.969247732680287
 30
0.0
 11
131.46888524497891
 21
39.845235184330811
 31
0.0
  0
LINE
  5
2912
  8
TITLE
 10
129.59289779332849
 20
38.492956968555852
 30
0.0
 11
130.9451760090964
 21
39.845235184330811
 31
0.0
  0
LINE
  5
2913
  8
TITLE
 10
129.59289779332849
 20
38.405672095908798
 30
0.0
 11
131.03246088174311
 21
39.845235184330811
 31
0.0
  0
LINE
  5
2914
  8
TITLE
 10
129.59289779332849
 20
38.318387223265162
 30
0.0
 11
131.11974575439021
 21
39.845235184330811
 31
0.0
  0
LINE
  5
2915
  8
TITLE
 10
129.59289779332849
 20
38.231102350618009
 30
0.0
 11
131.20703062703751
 21
39.845235184330811
 31
0.0
  0
LINE
  5
2916
  8
TITLE
 10
129.59289779332849
 20
38.143817477970728
 30
0.0
 11
131.29431549968459
 21
39.845235184330811
 31
0.0
  0
LINE
  5
2917
  8
TITLE
 10
129.59289779332849
 20
38.667526713850293
 30
0.0
 11
130.7706062638089
 21
39.845235184330811
 31
0.0
  0
LINE
  5
2918
  8
TITLE
 10
129.59289779332849
 20
38.580241841203012
 30
0.0
 11
130.857891136456
 21
39.845235184330811
 31
0.0
  0
LINE
  5
2919
  8
TITLE
 10
129.59289779332849
 20
39.103951077082463
 30
0.0
 11
130.33418190057299
 21
39.845235184330811
 31
0.0
  0
LINE
  5
291A
  8
TITLE
 10
129.59289779332849
 20
39.19123594972973
 30
0.0
 11
130.246897027926
 21
39.845235184330811
 31
0.0
  0
LINE
  5
291B
  8
TITLE
 10
129.59289779332849
 20
39.278520822373707
 30
0.0
 11
130.15961215527869
 21
39.845235184330811
 31
0.0
  0
LINE
  5
291C
  8
TITLE
 10
123.78421616629051
 20
38.477098180735197
 30
0.0
 11
123.7942807515736
 21
38.487162766017718
 31
0.0
  0
LINE
  5
291D
  8
TITLE
 10
123.8460696877482
 20
38.451666829545729
 30
0.0
 11
123.8815656242204
 21
38.487162766017718
 31
0.0
  0
LINE
  5
291E
  8
TITLE
 10
124.3744360268477
 20
38.019899569533891
 30
0.0
 11
124.8416992233322
 21
38.487162766017718
 31
0.0
  0
LINE
  5
291F
  8
TITLE
 10
124.4423873928957
 20
37.913281190288103
 30
0.0
 11
125.0162689686257
 21
38.487162766017718
 31
0.0
  0
LINE
  5
2920
  8
TITLE
 10
124.5009526056255
 20
37.797276657723152
 30
0.0
 11
125.1908387139204
 21
38.487162766017718
 31
0.0
  0
LINE
  5
2921
  8
TITLE
 10
124.5264229374815
 20
37.735462116931792
 30
0.0
 11
125.2781235865676
 21
38.487162766017718
 31
0.0
  0
LINE
  5
2922
  8
TITLE
 10
124.472894695139
 20
37.8565036198844
 30
0.0
 11
125.1035538412729
 21
38.487162766017718
 31
0.0
  0
LINE
  5
2923
  8
TITLE
 10
124.4095396027068
 20
37.967718272745863
 30
0.0
 11
124.92898409597851
 21
38.487162766017718
 31
0.0
  0
LINE
  5
2924
  8
TITLE
 10
124.33714078677841
 20
38.069889202111867
 30
0.0
 11
124.7544143506847
 21
38.487162766017718
 31
0.0
  0
LINE
  5
2925
  8
TITLE
 10
124.2124856345076
 20
38.207088667754761
 30
0.0
 11
124.49255973277459
 21
38.487162766017718
 31
0.0
  0
LINE
  5
2926
  8
TITLE
 10
124.2561433951963
 20
38.163461555839831
 30
0.0
 11
124.5798446053717
 21
38.487162766017718
 31
0.0
  0
LINE
  5
2927
  8
TITLE
 10
124.2976999757305
 20
38.11773326371042
 30
0.0
 11
124.6671294780375
 21
38.487162766017718
 31
0.0
  0
LINE
  5
2928
  8
TITLE
 10
124.1667265869232
 20
38.248614492810589
 30
0.0
 11
124.4052748601342
 21
38.487162766017931
 31
0.0
  0
LINE
  5
2929
  8
TITLE
 10
124.06883018163791
 20
38.32528783283783
 30
0.0
 11
124.230705114819
 21
38.487162766017931
 31
0.0
  0
LINE
  5
292A
  8
TITLE
 10
124.1188514460177
 20
38.288024224574869
 30
0.0
 11
124.3179899874612
 21
38.487162766017718
 31
0.0
  0
LINE
  5
292B
  8
TITLE
 10
123.9621458542659
 20
38.39317325076955
 30
0.0
 11
124.05613536951419
 21
38.487162766017718
 31
0.0
  0
LINE
  5
292C
  8
TITLE
 10
123.9053333632427
 20
38.42364563239299
 30
0.0
 11
123.96885049686711
 21
38.487162766017718
 31
0.0
  0
LINE
  5
292D
  8
TITLE
 10
124.01661645152031
 20
38.360358975367141
 30
0.0
 11
124.1434202421718
 21
38.487162766017931
 31
0.0
  0
LINE
  5
292E
  8
TITLE
 10
124.5491310620004
 20
37.67088536880317
 30
0.0
 11
125.36540845921481
 21
38.487162766017491
 31
0.0
  0
LINE
  5
292F
  8
TITLE
 10
124.5688556840167
 20
37.60332511816614
 30
0.0
 11
125.4526933318747
 21
38.487162766017491
 31
0.0
  0
LINE
  5
2930
  8
TITLE
 10
124.58531391526731
 20
37.53249847678353
 30
0.0
 11
125.53997820450191
 21
38.487162766017718
 31
0.0
  0
LINE
  5
2931
  8
TITLE
 10
124.59813882611969
 20
37.458038514988729
 30
0.0
 11
125.6272630771485
 21
38.487162766017718
 31
0.0
  0
LINE
  5
2932
  8
TITLE
 10
124.6068443657982
 20
37.379459182020788
 30
0.0
 11
125.7145479497953
 21
38.487162766017718
 31
0.0
  0
LINE
  5
2933
  8
TITLE
 10
124.6089690745242
 20
37.207014145452021
 30
0.0
 11
125.88911769509011
 21
38.487162766017718
 31
0.0
  0
LINE
  5
2934
  8
TITLE
 10
124.600039712387
 20
37.110799910667431
 30
0.0
 11
125.9764025677373
 21
38.487162766017718
 31
0.0
  0
LINE
  5
2935
  8
TITLE
 10
124.5816952156959
 20
37.00517054132898
 30
0.0
 11
126.0636874403849
 21
38.487162766017718
 31
0.0
  0
LINE
  5
2936
  8
TITLE
 10
124.610767795605
 20
37.296097739180148
 30
0.0
 11
125.8018328224429
 21
38.487162766017718
 31
0.0
  0
LINE
  5
2937
  8
TITLE
 10
124.5497433491294
 20
36.885933802115908
 30
0.0
 11
126.150972313032
 21
38.487162766017491
 31
0.0
  0
LINE
  5
2938
  8
TITLE
 10
124.4945869165047
 20
36.743492496843828
 30
0.0
 11
126.23825718567861
 21
38.487162766017491
 31
0.0
  0
LINE
  5
2939
  8
TITLE
 10
124.3769474790779
 20
36.538568186776722
 30
0.0
 11
126.3255420583059
 21
38.487162766017718
 31
0.0
  0
LINE
  5
293A
  8
TITLE
 10
124.5422261388139
 20
33.648876303887839
 30
0.0
 11
126.9557127079824
 21
36.062362873056593
 31
0.0
  0
LINE
  5
293B
  8
TITLE
 10
124.8234209858055
 20
33.755501405585392
 30
0.0
 11
126.8490876062873
 21
35.781168026070411
 31
0.0
  0
LINE
  5
293C
  8
TITLE
 10
124.67774191356359
 20
33.697107205987201
 30
0.0
 11
126.9074818058829
 21
35.92684709830575
 31
0.0
  0
LINE
  5
293D
  8
TITLE
 10
124.98272433684311
 20
33.827519883972172
 30
0.0
 11
126.7770691278982
 21
35.621864675026572
 31
0.0
  0
LINE
  5
293E
  8
TITLE
 10
125.1618332045709
 20
33.91934387905394
 30
0.0
 11
126.685245132814
 21
35.442755807295839
 31
0.0
  0
LINE
  5
293F
  8
TITLE
 10
125.66539193621099
 20
34.248332865401949
 30
0.0
 11
126.3562561464685
 21
34.939197075659081
 31
0.0
  0
LINE
  5
2940
  8
TITLE
 10
125.3741686879833
 20
34.04439448982145
 30
0.0
 11
126.5601945220491
 21
35.230420323887301
 31
0.0
  0
LINE
  5
2941
  8
TITLE
 10
124.29369694209061
 20
33.574916852455203
 30
0.0
 11
127.0296721594149
 21
36.310892069779811
 31
0.0
  0
LINE
  5
2942
  8
TITLE
 10
124.41470140681891
 20
33.608636444536252
 30
0.0
 11
126.9959525673338
 21
36.18988760505146
 31
0.0
  0
LINE
  5
2943
  8
TITLE
 10
124.1781613964544
 20
33.546666179466328
 30
0.0
 11
127.057922832404
 21
36.426427615416053
 31
0.0
  0
LINE
  5
2944
  8
TITLE
 10
124.0673119095798
 20
33.52310156523879
 30
0.0
 11
127.0814874466309
 21
36.537277102285543
 31
0.0
  0
LINE
  5
2945
  8
TITLE
 10
130.75522780646949
 20
37.036740802303839
 30
0.0
 11
130.8727180180498
 21
37.154231013884228
 31
0.0
  0
LINE
  5
2946
  8
TITLE
 10
130.8425126791166
 20
37.036740802303839
 30
0.0
 11
130.8727180180498
 21
37.066946141237047
 31
0.0
  0
LINE
  5
2947
  8
TITLE
 10
130.4933731885275
 20
37.036740802303839
 30
0.0
 11
130.8727180180498
 21
37.416085631822291
 31
0.0
  0
LINE
  5
2948
  8
TITLE
 10
130.5806580611752
 20
37.036740802303839
 30
0.0
 11
130.8727180180498
 21
37.328800759175117
 31
0.0
  0
LINE
  5
2949
  8
TITLE
 10
130.66794293382219
 20
37.036740802303839
 30
0.0
 11
130.8727180180498
 21
37.24151588653114
 31
0.0
  0
LINE
  5
294A
  8
TITLE
 10
130.2315185705942
 20
37.036740802303839
 30
0.0
 11
130.8727180180498
 21
37.677940249759892
 31
0.0
  0
LINE
  5
294B
  8
TITLE
 10
130.31880344324051
 20
37.036740802303839
 30
0.0
 11
130.8727180180498
 21
37.590655377112718
 31
0.0
  0
LINE
  5
294C
  8
TITLE
 10
130.40608831588801
 20
37.036740802303839
 30
0.0
 11
130.8727180180498
 21
37.503370504469217
 31
0.0
  0
LINE
  5
294D
  8
TITLE
 10
129.88237908000499
 20
37.036740802303839
 30
0.0
 11
130.8727180180498
 21
38.02707974034854
 31
0.0
  0
LINE
  5
294E
  8
TITLE
 10
129.9696639526523
 20
37.036740802303839
 30
0.0
 11
130.8727180180498
 21
37.93979486770148
 31
0.0
  0
LINE
  5
294F
  8
TITLE
 10
130.0569488252994
 20
37.036740802303839
 30
0.0
 11
130.8727180180498
 21
37.852509995054213
 31
0.0
  0
LINE
  5
2950
  8
TITLE
 10
130.1442336979465
 20
37.036740802303839
 30
0.0
 11
130.8727180180498
 21
37.765225122407173
 31
0.0
  0
LINE
  5
2951
  8
TITLE
 10
129.59289779332849
 20
37.358253624153797
 30
0.0
 11
130.8727180180498
 21
38.638073848871151
 31
0.0
  0
LINE
  5
2952
  8
TITLE
 10
129.59289779332849
 20
37.270968751506722
 30
0.0
 11
130.8727180180498
 21
38.550788976224332
 31
0.0
  0
LINE
  5
2953
  8
TITLE
 10
129.6205244620636
 20
37.036740802303839
 30
0.0
 11
130.8727180180498
 21
38.288934358286269
 31
0.0
  0
LINE
  5
2954
  8
TITLE
 10
129.7078093347107
 20
37.036740802303839
 30
0.0
 11
130.8727180180498
 21
38.20164948564274
 31
0.0
  0
LINE
  5
2955
  8
TITLE
 10
129.79509420735741
 20
37.036740802303839
 30
0.0
 11
130.8727180180498
 21
38.114364612995928
 31
0.0
  0
LINE
  5
2956
  8
TITLE
 10
129.59289779332849
 20
37.183683878863242
 30
0.0
 11
130.8727180180498
 21
38.46350410358081
 31
0.0
  0
LINE
  5
2957
  8
TITLE
 10
129.59289779332849
 20
37.096399006216068
 30
0.0
 11
130.8727180180498
 21
38.376219230933998
 31
0.0
  0
LINE
  5
2958
  8
TITLE
 10
130.1617067820934
 20
34.87209207029332
 30
0.0
 11
130.63770382871141
 21
35.348089116911282
 31
0.0
  0
LINE
  5
2959
  8
TITLE
 10
130.1617067820934
 20
34.784807197646153
 30
0.0
 11
130.72498870135851
 21
35.348089116911282
 31
0.0
  0
LINE
  5
295A
  8
TITLE
 10
130.1617067820934
 20
34.697522324999319
 30
0.0
 11
130.81227357400559
 21
35.348089116911282
 31
0.0
  0
LINE
  5
295B
  8
TITLE
 10
130.1617067820934
 20
34.610237452351953
 30
0.0
 11
130.8995584466528
 21
35.348089116911282
 31
0.0
  0
LINE
  5
295C
  8
TITLE
 10
130.1617067820934
 20
34.522952579704672
 30
0.0
 11
130.98684331929979
 21
35.348089116911282
 31
0.0
  0
LINE
  5
295D
  8
TITLE
 10
130.1617067820934
 20
34.435667707057519
 30
0.0
 11
131.07412819194721
 21
35.348089116911282
 31
0.0
  0
LINE
  5
295E
  8
TITLE
 10
130.1617067820934
 20
34.348382834410572
 30
0.0
 11
131.1614130645942
 21
35.348089116911282
 31
0.0
  0
LINE
  5
295F
  8
TITLE
 10
130.19127318441861
 20
34.290664364088208
 30
0.0
 11
131.2486979372415
 21
35.348089116911282
 31
0.0
  0
LINE
  5
2960
  8
TITLE
 10
130.27855805706531
 20
34.290664364088208
 30
0.0
 11
131.33598280988869
 21
35.348089116911282
 31
0.0
  0
LINE
  5
2961
  8
TITLE
 10
130.36584292970559
 20
34.290664364088208
 30
0.0
 11
131.42326768253571
 21
35.348089116911282
 31
0.0
  0
LINE
  5
2962
  8
TITLE
 10
130.4531278023527
 20
34.290664364088208
 30
0.0
 11
131.51055255517619
 21
35.348089116911282
 31
0.0
  0
LINE
  5
2963
  8
TITLE
 10
130.1617067820934
 20
35.133946688231163
 30
0.0
 11
130.3758492107772
 21
35.348089116911282
 31
0.0
  0
LINE
  5
2964
  8
TITLE
 10
130.1617067820934
 20
35.04666181558413
 30
0.0
 11
130.46313408342419
 21
35.348089116911282
 31
0.0
  0
LINE
  5
2965
  8
TITLE
 10
130.1617067820934
 20
34.959376942936828
 30
0.0
 11
130.55041895606419
 21
35.348089116911282
 31
0.0
  0
LINE
  5
2966
  8
TITLE
 10
130.1617067820934
 20
35.308516433522172
 30
0.0
 11
130.20127946548291
 21
35.348089116911282
 31
0.0
  0
LINE
  5
2967
  8
TITLE
 10
130.1617067820934
 20
35.221231560875012
 30
0.0
 11
130.28856433812999
 21
35.348089116911282
 31
0.0
  0
LINE
  5
2968
  8
TITLE
 10
129.59289779332849
 20
39.627660312961893
 30
0.0
 11
129.81047266469739
 21
39.845235184330811
 31
0.0
  0
LINE
  5
2969
  8
TITLE
 10
129.59289779332849
 20
39.8022300582561
 30
0.0
 11
129.63590291940301
 21
39.845235184330811
 31
0.0
  0
LINE
  5
296A
  8
TITLE
 10
129.59289779332849
 20
39.714945185609153
 30
0.0
 11
129.72318779205031
 21
39.845235184330811
 31
0.0
  0
LINE
  5
296B
  8
TITLE
 10
129.59289779332849
 20
39.365805695020413
 30
0.0
 11
130.07232728263199
 21
39.845235184330811
 31
0.0
  0
LINE
  5
296C
  8
TITLE
 10
129.59289779332849
 20
39.54037544031474
 30
0.0
 11
129.89775753734449
 21
39.845235184330811
 31
0.0
  0
LINE
  5
296D
  8
TITLE
 10
129.59289779332849
 20
39.45309056766758
 30
0.0
 11
129.9850424099844
 21
39.845235184330811
 31
0.0
  0
LINE
  5
296E
  8
TITLE
 10
139.8749999999998
 20
52.5
 30
0.0
 11
139.8749999999998
 21
42.5
 31
0.0
  0
LINE
  5
296F
  8
TITLE
 10
147.6481874641326
 20
34.552458732449281
 30
0.0
 11
149.61920505014211
 21
36.523476318458378
 31
0.0
  0
LINE
  5
2970
  8
TITLE
 10
147.6481874641326
 20
34.465173859801901
 30
0.0
 11
149.57332672906281
 21
36.390313124733083
 31
0.0
  0
LINE
  5
2971
  8
TITLE
 10
147.6481874641326
 20
34.377888987154734
 30
0.0
 11
149.52744840798459
 21
36.257149931010652
 31
0.0
  0
LINE
  5
2972
  8
TITLE
 10
147.64824771371269
 20
34.290664364088208
 30
0.0
 11
149.481570086906
 21
36.123986737284781
 31
0.0
  0
LINE
  5
2973
  8
TITLE
 10
147.73553258635269
 20
34.290664364088208
 30
0.0
 11
149.43569176582741
 21
35.990823543562783
 31
0.0
  0
LINE
  5
2974
  8
TITLE
 10
147.6481874641326
 20
34.814313350390762
 30
0.0
 11
149.75684001337811
 21
36.922965899635862
 31
0.0
  0
LINE
  5
2975
  8
TITLE
 10
147.6481874641326
 20
34.727028477743481
 30
0.0
 11
149.71096169229881
 21
36.789802705910333
 31
0.0
  0
LINE
  5
2976
  8
TITLE
 10
147.6481874641326
 20
34.6397436050962
 30
0.0
 11
149.66508337122059
 21
36.656639512184711
 31
0.0
  0
LINE
  5
2977
  8
TITLE
 10
147.6481874641326
 20
35.338022586266433
 30
0.0
 11
150.0321099398424
 21
37.721945061983412
 31
0.0
  0
LINE
  5
2978
  8
TITLE
 10
147.6481874641326
 20
35.25073771361906
 30
0.0
 11
149.98623161876361
 21
37.588781868257684
 31
0.0
  0
LINE
  5
2979
  8
TITLE
 10
147.6481874641326
 20
35.163452840975872
 30
0.0
 11
149.94035329768531
 21
37.455618674532147
 31
0.0
  0
LINE
  5
297A
  8
TITLE
 10
147.6481874641326
 20
35.07616796832837
 30
0.0
 11
149.89447497660609
 21
37.32245548080607
 31
0.0
  0
LINE
  5
297B
  8
TITLE
 10
147.6481874641326
 20
34.988883095681111
 30
0.0
 11
149.84859665553481
 21
37.189292287084292
 31
0.0
  0
LINE
  5
297C
  8
TITLE
 10
147.6481874641326
 20
34.901598223037809
 30
0.0
 11
149.8027183344565
 21
37.056129093358102
 31
0.0
  0
LINE
  5
297D
  8
TITLE
 10
147.82281745899991
 20
34.290664364088208
 30
0.0
 11
149.3898134447486
 21
35.857660349836813
 31
0.0
  0
LINE
  5
297E
  8
TITLE
 10
147.9101023316469
 20
34.290664364088208
 30
0.0
 11
149.34393512367021
 21
35.724497156111042
 31
0.0
  0
LINE
  5
297F
  8
TITLE
 10
139.62562638847371
 20
38.138785718775573
 30
0.0
 11
141.3266014247059
 21
39.839760755008328
 31
0.0
  0
LINE
  5
2980
  8
TITLE
 10
138.08225919892851
 20
37.206412637753502
 30
0.0
 11
140.5272332402119
 21
39.65138667904079
 31
0.0
  0
LINE
  5
2981
  8
TITLE
 10
138.1783584674894
 20
37.215227033663147
 30
0.0
 11
140.65121190913291
 21
39.68808047531104
 31
0.0
  0
LINE
  5
2982
  8
TITLE
 10
138.1783584674894
 20
37.127942161019639
 30
0.0
 11
140.7713804755158
 21
39.72096416904629
 31
0.0
  0
LINE
  5
2983
  8
TITLE
 10
138.1783584674894
 20
37.040657288372799
 30
0.0
 11
140.8881251627416
 21
39.750423983625872
 31
0.0
  0
LINE
  5
2984
  8
TITLE
 10
138.1783584674894
 20
36.953372415725532
 30
0.0
 11
141.00176757038659
 21
39.776781518622784
 31
0.0
  0
LINE
  5
2985
  8
TITLE
 10
138.1783584674894
 20
36.8660875430785
 30
0.0
 11
141.1125789192387
 21
39.800307994835038
 31
0.0
  0
LINE
  5
2986
  8
TITLE
 10
138.1783584674894
 20
36.778802670431197
 30
0.0
 11
141.2207904891041
 21
39.821234692053849
 31
0.0
  0
LINE
  5
2987
  8
TITLE
 10
137.9246858038359
 20
37.13612411530471
 30
0.0
 11
140.3989737173687
 21
39.610412028840543
 31
0.0
  0
LINE
  5
2988
  8
TITLE
 10
137.37058204309909
 20
36.931159845160103
 30
0.0
 11
139.82868408240739
 21
39.38926188446851
 31
0.0
  0
LINE
  5
2989
  8
TITLE
 10
137.50014370117421
 20
36.973436630584487
 30
0.0
 11
139.9818283551862
 21
39.455121284592551
 31
0.0
  0
LINE
  5
298A
  8
TITLE
 10
137.635039327627
 20
37.021047384393441
 30
0.0
 11
140.12712112781171
 21
39.51312918457802
 31
0.0
  0
LINE
  5
298B
  8
TITLE
 10
137.7761585635744
 20
37.07488174768617
 30
0.0
 11
140.26584947541539
 21
39.564572659535187
 31
0.0
  0
LINE
  5
298C
  8
TITLE
 10
137.24566571198179
 20
36.893528386682981
 30
0.0
 11
139.6658927124885
 21
39.313755387196807
 31
0.0
  0
LINE
  5
298D
  8
TITLE
 10
133.8234146472609
 20
38.010090699581482
 30
0.0
 11
135.1387854337799
 21
39.325461486096728
 31
0.0
  0
LINE
  5
298E
  8
TITLE
 10
133.8234146472609
 20
38.446515062813781
 30
0.0
 11
135.1387854337799
 21
39.761885849332543
 31
0.0
  0
LINE
  5
298F
  8
TITLE
 10
133.8234146472609
 20
38.3592301901665
 30
0.0
 11
135.1387854337799
 21
39.674600976685142
 31
0.0
  0
LINE
  5
2990
  8
TITLE
 10
133.8234146472609
 20
38.271945317519439
 30
0.0
 11
135.1387854337799
 21
39.587316104038209
 31
0.0
  0
LINE
  5
2991
  8
TITLE
 10
133.8234146472609
 20
38.184660444872158
 30
0.0
 11
135.1387854337799
 21
39.500031231391382
 31
0.0
  0
LINE
  5
2992
  8
TITLE
 10
133.8234146472609
 20
38.097375572224898
 30
0.0
 11
135.1387854337799
 21
39.412746358744023
 31
0.0
  0
LINE
  5
2993
  8
TITLE
 10
133.8234146472609
 20
38.533799935460941
 30
0.0
 11
135.13484989613099
 21
39.845235184330811
 31
0.0
  0
LINE
  5
2994
  8
TITLE
 10
133.8048868924111
 20
38.689841925901888
 30
0.0
 11
134.9602801508363
 21
39.845235184330811
 31
0.0
  0
LINE
  5
2995
  8
TITLE
 10
133.8234146472609
 20
38.621084808108321
 30
0.0
 11
135.04756502348391
 21
39.845235184330811
 31
0.0
  0
LINE
  5
2996
  8
TITLE
 10
131.62276507624651
 20
38.689841925901888
 30
0.0
 11
132.7781583346723
 21
39.845235184330811
 31
0.0
  0
LINE
  5
2997
  8
TITLE
 10
131.7100499488937
 20
38.689841925901888
 30
0.0
 11
132.8654432073194
 21
39.845235184330811
 31
0.0
  0
LINE
  5
2998
  8
TITLE
 10
131.7973348215408
 20
38.689841925901888
 30
0.0
 11
132.95272807996659
 21
39.845235184330811
 31
0.0
  0
LINE
  5
2999
  8
TITLE
 10
131.8846196941881
 20
38.689841925901888
 30
0.0
 11
133.04001295261361
 21
39.845235184330811
 31
0.0
  0
LINE
  5
299A
  8
TITLE
 10
131.97190456683569
 20
38.689841925901888
 30
0.0
 11
133.12729782526091
 21
39.845235184330811
 31
0.0
  0
LINE
  5
299B
  8
TITLE
 10
132.0591894394824
 20
38.689841925901888
 30
0.0
 11
133.21458269790759
 21
39.845235184330811
 31
0.0
  0
LINE
  5
299C
  8
TITLE
 10
132.14647431213001
 20
38.689841925901888
 30
0.0
 11
133.3018675705552
 21
39.845235184330811
 31
0.0
  0
LINE
  5
299D
  8
TITLE
 10
132.2337591847772
 20
38.689841925901888
 30
0.0
 11
133.38915244320239
 21
39.845235184330811
 31
0.0
  0
LINE
  5
299E
  8
TITLE
 10
132.321044057417
 20
38.689841925901888
 30
0.0
 11
133.4764373158491
 21
39.845235184330811
 31
0.0
  0
LINE
  5
299F
  8
TITLE
 10
132.40832893006379
 20
38.689841925901888
 30
0.0
 11
133.5637221884962
 21
39.845235184330811
 31
0.0
  0
LINE
  5
29A0
  8
TITLE
 10
132.4956138027114
 20
38.689841925901888
 30
0.0
 11
133.65100706113651
 21
39.845235184330811
 31
0.0
  0
LINE
  5
29A1
  8
TITLE
 10
132.582898675358
 20
38.689841925901888
 30
0.0
 11
133.7382919337837
 21
39.845235184330811
 31
0.0
  0
LINE
  5
29A2
  8
TITLE
 10
132.6701835480057
 20
38.689841925901888
 30
0.0
 11
133.8255768064308
 21
39.845235184330811
 31
0.0
  0
LINE
  5
29A3
  8
TITLE
 10
132.7574684206524
 20
38.689841925901888
 30
0.0
 11
133.91286167907739
 21
39.845235184330811
 31
0.0
  0
LINE
  5
29A4
  8
TITLE
 10
132.84475329329959
 20
38.689841925901888
 30
0.0
 11
134.00014655172509
 21
39.845235184330811
 31
0.0
  0
LINE
  5
29A5
  8
TITLE
 10
132.93203816594669
 20
38.689841925901888
 30
0.0
 11
134.0874314243724
 21
39.845235184330811
 31
0.0
  0
LINE
  5
29A6
  8
TITLE
 10
133.01932303859371
 20
38.689841925901888
 30
0.0
 11
134.17471629701939
 21
39.845235184330811
 31
0.0
  0
LINE
  5
29A7
  8
TITLE
 10
133.10660791124101
 20
38.689841925901888
 30
0.0
 11
134.26200116966669
 21
39.845235184330811
 31
0.0
  0
LINE
  5
29A8
  8
TITLE
 10
133.1938927838813
 20
38.689841925901888
 30
0.0
 11
134.34928604231391
 21
39.845235184330811
 31
0.0
  0
LINE
  5
29A9
  8
TITLE
 10
133.28117765652851
 20
38.689841925901888
 30
0.0
 11
134.4365709149609
 21
39.845235184330811
 31
0.0
  0
LINE
  5
29AA
  8
TITLE
 10
133.36846252917559
 20
38.689841925901888
 30
0.0
 11
134.52385578760811
 21
39.845235184330811
 31
0.0
  0
LINE
  5
29AB
  8
TITLE
 10
133.45574740182241
 20
38.689841925901888
 30
0.0
 11
134.6111406602476
 21
39.845235184330811
 31
0.0
  0
LINE
  5
29AC
  8
TITLE
 10
133.54303227446999
 20
38.689841925901888
 30
0.0
 11
134.6984255328947
 21
39.845235184330811
 31
0.0
  0
LINE
  5
29AD
  8
TITLE
 10
133.6303171471167
 20
38.689841925901888
 30
0.0
 11
134.7857104055424
 21
39.845235184330811
 31
0.0
  0
LINE
  5
29AE
  8
TITLE
 10
133.7176020197638
 20
38.689841925901888
 30
0.0
 11
134.87299527818951
 21
39.845235184330811
 31
0.0
  0
LINE
  5
29AF
  8
TITLE
 10
135.6009427371518
 20
36.994502864780877
 30
0.0
 11
136.49015255532359
 21
37.883712682960208
 31
0.0
  0
LINE
  5
29B0
  8
TITLE
 10
135.6009427371518
 20
36.907217992133852
 30
0.0
 11
136.59399317660231
 21
37.900268431588408
 31
0.0
  0
LINE
  5
29B1
  8
TITLE
 10
135.6009427371518
 20
36.819933119486791
 30
0.0
 11
136.7002008248237
 21
37.919191207166477
 31
0.0
  0
LINE
  5
29B2
  8
TITLE
 10
135.6009427371518
 20
36.732648246842928
 30
0.0
 11
136.80897126922619
 21
37.940676778921222
 31
0.0
  0
LINE
  5
29B3
  8
TITLE
 10
135.61900412636601
 20
36.663424763414142
 30
0.0
 11
136.92053195825559
 21
37.964952595300467
 31
0.0
  0
LINE
  5
29B4
  8
TITLE
 10
135.6009427371518
 20
37.169072610075077
 30
0.0
 11
136.28891381967949
 21
37.857043692603831
 31
0.0
  0
LINE
  5
29B5
  8
TITLE
 10
135.6009427371518
 20
37.081787737427803
 30
0.0
 11
136.38850900001569
 21
37.869354000292212
 31
0.0
  0
LINE
  5
29B6
  8
TITLE
 10
135.6009427371518
 20
37.518212100660087
 30
0.0
 11
135.9086073855344
 21
37.825876749046742
 31
0.0
  0
LINE
  5
29B7
  8
TITLE
 10
135.6009427371518
 20
37.430927228016571
 30
0.0
 11
136.00118090381
 21
37.831165394675381
 31
0.0
  0
LINE
  5
29B8
  8
TITLE
 10
135.6009427371518
 20
37.343642355369397
 30
0.0
 11
136.09535955470389
 21
37.838059172922272
 31
0.0
  0
LINE
  5
29B9
  8
TITLE
 10
135.6009427371518
 20
37.256357482722137
 30
0.0
 11
136.19123603529621
 21
37.846650780866639
 31
0.0
  0
LINE
  5
29BA
  8
TITLE
 10
135.6009427371518
 20
37.692781845951338
 30
0.0
 11
135.7279500578382
 21
37.819789166644782
 31
0.0
  0
LINE
  5
29BB
  8
TITLE
 10
135.6009427371518
 20
37.60549697330714
 30
0.0
 11
135.81755557183391
 21
37.822109807993463
 31
0.0
  0
LINE
  5
29BC
  8
TITLE
 10
135.6009427371518
 20
37.780066718598171
 30
0.0
 11
135.63972242446181
 21
37.818846405916027
 31
0.0
  0
LINE
  5
29BD
  8
TITLE
 10
133.8234146472609
 20
37.922805826934209
 30
0.0
 11
135.1387854337799
 21
39.23817661344993
 31
0.0
  0
LINE
  5
29BE
  8
TITLE
 10
133.8234146472609
 20
37.835520954290573
 30
0.0
 11
135.1387854337799
 21
39.150891740802649
 31
0.0
  0
LINE
  5
29BF
  8
TITLE
 10
133.8234146472609
 20
37.748236081643419
 30
0.0
 11
135.1387854337799
 21
39.063606868159141
 31
0.0
  0
LINE
  5
29C0
  8
TITLE
 10
133.8234146472609
 20
37.399096591054892
 30
0.0
 11
135.1387854337799
 21
38.714467377573769
 31
0.0
  0
LINE
  5
29C1
  8
TITLE
 10
133.8234146472609
 20
37.311811718408201
 30
0.0
 11
135.1387854337799
 21
38.627182504926608
 31
0.0
  0
LINE
  5
29C2
  8
TITLE
 10
133.8234146472609
 20
37.22452684576092
 30
0.0
 11
135.1387854337799
 21
38.539897632279811
 31
0.0
  0
LINE
  5
29C3
  8
TITLE
 10
133.8217139176262
 20
36.960971498188208
 30
0.0
 11
135.1387854337799
 21
38.278043014338209
 31
0.0
  0
LINE
  5
29C4
  8
TITLE
 10
133.81484334510961
 20
36.866816053027613
 30
0.0
 11
135.1387854337799
 21
38.190758141694317
 31
0.0
  0
LINE
  5
29C5
  8
TITLE
 10
133.8234146472609
 20
37.13724197311705
 30
0.0
 11
135.1387854337799
 21
38.45261275963253
 31
0.0
  0
LINE
  5
29C6
  8
TITLE
 10
133.8234146472609
 20
37.049957100469783
 30
0.0
 11
135.1387854337799
 21
38.365327886985142
 31
0.0
  0
LINE
  5
29C7
  8
TITLE
 10
133.8234146472609
 20
37.486381463702067
 30
0.0
 11
135.1387854337799
 21
38.801752250220822
 31
0.0
  0
LINE
  5
29C8
  8
TITLE
 10
133.8234146472609
 20
37.66095120899648
 30
0.0
 11
135.1387854337799
 21
38.97632199551186
 31
0.0
  0
LINE
  5
29C9
  8
TITLE
 10
133.8234146472609
 20
37.573666336349319
 30
0.0
 11
135.1387854337799
 21
38.889037122868103
 31
0.0
  0
LINE
  5
29CA
  8
TITLE
 10
133.80161933378321
 20
36.766307169047529
 30
0.0
 11
135.1387854337799
 21
38.10347326904764
 31
0.0
  0
LINE
  5
29CB
  8
TITLE
 10
133.7803326429997
 20
36.657735605623998
 30
0.0
 11
135.1387854337799
 21
38.016188396400253
 31
0.0
  0
LINE
  5
29CC
  8
TITLE
 10
133.74817320077901
 20
36.53829129075244
 30
0.0
 11
135.1387854337799
 21
37.928903523756951
 31
0.0
  0
LINE
  5
29CD
  8
TITLE
 10
133.69985969700781
 20
36.402692914337301
 30
0.0
 11
135.1387854337799
 21
37.841618651109442
 31
0.0
  0
LINE
  5
29CE
  8
TITLE
 10
133.62269831766559
 20
36.238246662352012
 30
0.0
 11
135.1387854337799
 21
37.754333778462069
 31
0.0
  0
LINE
  5
29CF
  8
TITLE
 10
133.96490850222551
 20
34.747474521331917
 30
0.0
 11
134.68197527653581
 21
35.464541295642888
 31
0.0
  0
LINE
  5
29D0
  8
TITLE
 10
131.5878311467585
 20
34.290664364088208
 30
0.0
 11
132.76881084983441
 21
35.471644067164789
 31
0.0
  0
LINE
  5
29D1
  8
TITLE
 10
131.67511601940569
 20
34.290664364088208
 30
0.0
 11
132.93325710182339
 21
35.548805446506208
 31
0.0
  0
LINE
  5
29D2
  8
TITLE
 10
131.7624008920528
 20
34.290664364088208
 30
0.0
 11
133.19069160982869
 21
35.718955081863889
 31
0.0
  0
LINE
  5
29D3
  8
TITLE
 10
133.2861376300601
 20
34.417843139748229
 30
0.0
 11
135.0116066581198
 21
36.143312167808048
 31
0.0
  0
LINE
  5
29D4
  8
TITLE
 10
133.4204500329497
 20
34.46487066999827
 30
0.0
 11
134.96457912786991
 21
36.008999764918251
 31
0.0
  0
LINE
  5
29D5
  8
TITLE
 10
133.7429555842744
 20
34.61280647602824
 30
0.0
 11
134.81664332183919
 21
35.686494213593271
 31
0.0
  0
LINE
  5
29D6
  8
TITLE
 10
133.56978837649461
 20
34.52692414089573
 30
0.0
 11
134.90252565697239
 21
35.859661421373183
 31
0.0
  0
LINE
  5
29D7
  8
TITLE
 10
131.84968576470001
 20
34.290664364088208
 30
0.0
 11
135.1387854337799
 21
37.57976403316809
 31
0.0
  0
LINE
  5
29D8
  8
TITLE
 10
131.936970637347
 20
34.290664364088208
 30
0.0
 11
135.1387854337799
 21
37.492479160520787
 31
0.0
  0
LINE
  5
29D9
  8
TITLE
 10
132.02425550999391
 20
34.290664364088208
 30
0.0
 11
135.1387854337799
 21
37.405194287873996
 31
0.0
  0
LINE
  5
29DA
  8
TITLE
 10
132.11154038264149
 20
34.290664364088208
 30
0.0
 11
135.1387854337799
 21
37.317909415226502
 31
0.0
  0
LINE
  5
29DB
  8
TITLE
 10
132.19882525528121
 20
34.290664364088208
 30
0.0
 11
135.1387854337799
 21
37.230624542582973
 31
0.0
  0
LINE
  5
29DC
  8
TITLE
 10
132.28611012792899
 20
34.290664364088208
 30
0.0
 11
135.1387854337799
 21
37.143339669935798
 31
0.0
  0
LINE
  5
29DD
  8
TITLE
 10
132.3733950005757
 20
34.290664364088208
 30
0.0
 11
135.1387854337799
 21
37.056054797292532
 31
0.0
  0
LINE
  5
29DE
  8
TITLE
 10
132.4606798732228
 20
34.290664364088208
 30
0.0
 11
135.1387854337799
 21
36.968769924645123
 31
0.0
  0
LINE
  5
29DF
  8
TITLE
 10
132.54906446653081
 20
34.291764084749389
 30
0.0
 11
135.13768571311849
 21
36.880385331336917
 31
0.0
  0
LINE
  5
29E0
  8
TITLE
 10
132.64055128721469
 20
34.295966032789131
 30
0.0
 11
135.13348376507511
 21
36.788898510649801
 31
0.0
  0
LINE
  5
29E1
  8
TITLE
 10
132.7355420371122
 20
34.303671910036307
 30
0.0
 11
135.1257778878319
 21
36.693907760755692
 31
0.0
  0
LINE
  5
29E2
  8
TITLE
 10
132.83451018011959
 20
34.315355180399933
 30
0.0
 11
135.11409461746459
 21
36.59493961774821
 31
0.0
  0
LINE
  5
29E3
  8
TITLE
 10
132.9380668681809
 20
34.331626995810311
 30
0.0
 11
135.09782280205741
 21
36.491382929686893
 31
0.0
  0
LINE
  5
29E4
  8
TITLE
 10
133.04702469539041
 20
34.353299950380219
 30
0.0
 11
135.0761498474879
 21
36.38242510247413
 31
0.0
  0
LINE
  5
29E5
  8
TITLE
 10
133.16250562646869
 20
34.38149600880751
 30
0.0
 11
135.0479537890572
 21
36.266944171399452
 31
0.0
  0
LINE
  5
29E6
  8
TITLE
 10
133.45254868230811
 20
35.980812154347291
 30
0.0
 11
135.1387854337799
 21
37.66704890581525
 31
0.0
  0
LINE
  5
29E7
  8
TITLE
 10
135.979095482638
 20
36.674376629097758
 30
0.0
 11
137.40085015379179
 21
38.0961313002515
 31
0.0
  0
LINE
  5
29E8
  8
TITLE
 10
136.0728856406412
 20
36.680881914460649
 30
0.0
 11
137.53160755963819
 21
38.139603833454309
 31
0.0
  0
LINE
  5
29E9
  8
TITLE
 10
136.16835074212031
 20
36.68906214329273
 30
0.0
 11
137.6678888718005
 21
38.1886002729658
 31
0.0
  0
LINE
  5
29EA
  8
TITLE
 10
135.70691449470939
 20
36.664050259110233
 30
0.0
 11
137.03514973620389
 21
37.992285500604787
 31
0.0
  0
LINE
  5
29EB
  8
TITLE
 10
135.79618745172851
 20
36.666038343485411
 30
0.0
 11
137.1531411700752
 21
38.022992061829072
 31
0.0
  0
LINE
  5
29EC
  8
TITLE
 10
135.886889893708
 20
36.66945591281808
 30
0.0
 11
137.27488665635011
 21
38.057452675456943
 31
0.0
  0
LINE
  5
29ED
  8
TITLE
 10
138.1783584674894
 20
36.342378307199148
 30
0.0
 11
139.4937292540007
 21
37.657749093714543
 31
0.0
  0
LINE
  5
29EE
  8
TITLE
 10
138.1783584674894
 20
36.255093434555192
 30
0.0
 11
139.4937292540007
 21
37.570464221067247
 31
0.0
  0
LINE
  5
29EF
  8
TITLE
 10
138.1783584674894
 20
36.691517797784051
 30
0.0
 11
139.4937292540007
 21
38.006888584302821
 31
0.0
  0
LINE
  5
29F0
  8
TITLE
 10
138.1783584674894
 20
36.604232925136792
 30
0.0
 11
139.4937292540007
 21
37.919603711655888
 31
0.0
  0
LINE
  5
29F1
  8
TITLE
 10
138.1783584674894
 20
36.516948052493248
 30
0.0
 11
139.4937292540007
 21
37.832318839008842
 31
0.0
  0
LINE
  5
29F2
  8
TITLE
 10
138.1783584674894
 20
36.42966317984633
 30
0.0
 11
139.4937292540007
 21
37.745033966361781
 31
0.0
  0
LINE
  5
29F3
  8
TITLE
 10
136.26559155389481
 20
36.699018082412863
 30
0.0
 11
137.8106433446172
 21
38.244069873139097
 31
0.0
  0
LINE
  5
29F4
  8
TITLE
 10
136.36472098974991
 20
36.710862645627799
 30
0.0
 11
137.96114514669441
 21
38.30728680256891
 31
0.0
  0
LINE
  5
29F5
  8
TITLE
 10
137.00768852730599
 20
36.830120947300991
 30
0.0
 11
139.29926065819831
 21
39.121693078193729
 31
0.0
  0
LINE
  5
29F6
  8
TITLE
 10
137.12484853071859
 20
36.859996078069791
 30
0.0
 11
139.49081270551719
 21
39.225960252872241
 31
0.0
  0
LINE
  5
29F7
  8
TITLE
 10
136.6748015050556
 20
36.759088542992437
 30
0.0
 11
138.48354408961669
 21
38.567831127553397
 31
0.0
  0
LINE
  5
29F8
  8
TITLE
 10
136.4658662677252
 20
36.724723050955852
 30
0.0
 11
138.12117539071079
 21
38.380032173941892
 31
0.0
  0
LINE
  5
29F9
  8
TITLE
 10
136.5691715894267
 20
36.74074350000717
 30
0.0
 11
138.29336139830909
 21
38.464933308892789
 31
0.0
  0
LINE
  5
29FA
  8
TITLE
 10
136.78294519211201
 20
36.77994735740139
 30
0.0
 11
138.82879720034271
 21
38.825799365632172
 31
0.0
  0
LINE
  5
29FB
  8
TITLE
 10
136.89382197118249
 20
36.803539263828853
 30
0.0
 11
139.08383951003401
 21
38.993556802679791
 31
0.0
  0
LINE
  5
29FC
  8
TITLE
 10
138.1783584674894
 20
34.771250599561071
 30
0.0
 11
139.4937292540007
 21
36.086621386079848
 31
0.0
  0
LINE
  5
29FD
  8
TITLE
 10
138.1783584674894
 20
34.683965726917322
 30
0.0
 11
139.4937292540007
 21
35.999336513432702
 31
0.0
  0
LINE
  5
29FE
  8
TITLE
 10
138.1783584674894
 20
34.858535472208011
 30
0.0
 11
139.4937292540007
 21
36.173906258726788
 31
0.0
  0
LINE
  5
29FF
  8
TITLE
 10
138.1783584674894
 20
34.596680854269948
 30
0.0
 11
139.4937292540007
 21
35.912051640785641
 31
0.0
  0
LINE
  5
2A00
  8
TITLE
 10
138.1783584674894
 20
34.509395981623122
 30
0.0
 11
139.4937292540007
 21
35.824766768138382
 31
0.0
  0
LINE
  5
2A01
  8
TITLE
 10
138.1783584674894
 20
34.422111108979493
 30
0.0
 11
139.4937292540007
 21
35.737481895494859
 31
0.0
  0
LINE
  5
2A02
  8
TITLE
 10
138.1783584674894
 20
34.334826236332198
 30
0.0
 11
139.4937292540007
 21
35.650197022847678
 31
0.0
  0
LINE
  5
2A03
  8
TITLE
 10
138.22148146789169
 20
34.290664364088208
 30
0.0
 11
139.4937292540007
 21
35.562912150200532
 31
0.0
  0
LINE
  5
2A04
  8
TITLE
 10
138.5706209584805
 20
34.290664364088208
 30
0.0
 11
139.4937292540007
 21
35.213772659615522
 31
0.0
  0
LINE
  5
2A05
  8
TITLE
 10
138.6579058311203
 20
34.290664364088208
 30
0.0
 11
139.4937292540007
 21
35.126487786968582
 31
0.0
  0
LINE
  5
2A06
  8
TITLE
 10
138.74519070376749
 20
34.290664364088208
 30
0.0
 11
139.4937292540007
 21
35.039202914321201
 31
0.0
  0
LINE
  5
2A07
  8
TITLE
 10
138.83247557641459
 20
34.290664364088208
 30
0.0
 11
139.4937292540007
 21
34.951918041674048
 31
0.0
  0
LINE
  5
2A08
  8
TITLE
 10
138.48333608583329
 20
34.290664364088208
 30
0.0
 11
139.4937292540007
 21
35.30105753226281
 31
0.0
  0
LINE
  5
2A09
  8
TITLE
 10
138.30876634053931
 20
34.290664364088208
 30
0.0
 11
139.4937292540007
 21
35.475627277557138
 31
0.0
  0
LINE
  5
2A0A
  8
TITLE
 10
138.3960512131861
 20
34.290664364088208
 30
0.0
 11
139.4937292540007
 21
35.388342404909856
 31
0.0
  0
LINE
  5
2A0B
  8
TITLE
 10
138.91976044906181
 20
34.290664364088208
 30
0.0
 11
139.4937292540007
 21
34.864633169026881
 31
0.0
  0
LINE
  5
2A0C
  8
TITLE
 10
139.007045321709
 20
34.290664364088208
 30
0.0
 11
139.4937292540007
 21
34.777348296383352
 31
0.0
  0
LINE
  5
2A0D
  8
TITLE
 10
139.09433019435619
 20
34.290664364088208
 30
0.0
 11
139.4937292540007
 21
34.690063423736319
 31
0.0
  0
LINE
  5
2A0E
  8
TITLE
 10
139.18161506700369
 20
34.290664364088208
 30
0.0
 11
139.4937292540007
 21
34.602778551089152
 31
0.0
  0
LINE
  5
2A0F
  8
TITLE
 10
139.26889993965079
 20
34.290664364088208
 30
0.0
 11
139.4937292540007
 21
34.515493678445871
 31
0.0
  0
LINE
  5
2A10
  8
TITLE
 10
139.3561848122975
 20
34.290664364088208
 30
0.0
 11
139.4937292540007
 21
34.428208805798803
 31
0.0
  0
LINE
  5
2A11
  8
TITLE
 10
139.4434696849448
 20
34.290664364088208
 30
0.0
 11
139.4937292540007
 21
34.340923933151203
 31
0.0
  0
LINE
  5
2A12
  8
TITLE
 10
138.1783584674894
 20
35.905953943966892
 30
0.0
 11
139.4937292540007
 21
37.221324730485648
 31
0.0
  0
LINE
  5
2A13
  8
TITLE
 10
138.1783584674894
 20
35.818669071319597
 30
0.0
 11
139.4937292540007
 21
37.134039857838381
 31
0.0
  0
LINE
  5
2A14
  8
TITLE
 10
138.1783584674894
 20
35.731384198672792
 30
0.0
 11
139.4937292540007
 21
37.046754985191328
 31
0.0
  0
LINE
  5
2A15
  8
TITLE
 10
138.1783584674894
 20
35.644099326025618
 30
0.0
 11
139.4937292540007
 21
36.959470112544288
 31
0.0
  0
LINE
  5
2A16
  8
TITLE
 10
138.1783584674894
 20
35.556814453381662
 30
0.0
 11
139.4937292540007
 21
36.872185239897242
 31
0.0
  0
LINE
  5
2A17
  8
TITLE
 10
138.1783584674894
 20
35.469529580734722
 30
0.0
 11
139.4937292540007
 21
36.784900367250103
 31
0.0
  0
LINE
  5
2A18
  8
TITLE
 10
138.1783584674894
 20
35.38224470809098
 30
0.0
 11
139.4937292540007
 21
36.697615494602793
 31
0.0
  0
LINE
  5
2A19
  8
TITLE
 10
138.1783584674894
 20
35.294959835443599
 30
0.0
 11
139.4937292540007
 21
36.610330621959051
 31
0.0
  0
LINE
  5
2A1A
  8
TITLE
 10
138.1783584674894
 20
35.207674962796759
 30
0.0
 11
139.4937292540007
 21
36.523045749312011
 31
0.0
  0
LINE
  5
2A1B
  8
TITLE
 10
138.1783584674894
 20
35.120390090149499
 30
0.0
 11
139.4937292540007
 21
36.435760876664851
 31
0.0
  0
LINE
  5
2A1C
  8
TITLE
 10
138.1783584674894
 20
35.033105217502211
 30
0.0
 11
139.4937292540007
 21
36.348476004021208
 31
0.0
  0
LINE
  5
2A1D
  8
TITLE
 10
138.1783584674894
 20
34.945820344855171
 30
0.0
 11
139.4937292540007
 21
36.261191131374183
 31
0.0
  0
LINE
  5
2A1E
  8
TITLE
 10
138.1783584674894
 20
36.080523689261092
 30
0.0
 11
139.4937292540007
 21
37.395894475776451
 31
0.0
  0
LINE
  5
2A1F
  8
TITLE
 10
138.1783584674894
 20
35.993238816613832
 30
0.0
 11
139.4937292540007
 21
37.308609603133171
 31
0.0
  0
LINE
  5
2A20
  8
TITLE
 10
138.1783584674894
 20
36.16780856190838
 30
0.0
 11
139.4937292540007
 21
37.483179348423732
 31
0.0
  0
LINE
  5
2A21
  8
TITLE
 10
144.94339156120699
 20
38.743167768598482
 30
0.0
 11
146.05551204396659
 21
39.855288251358161
 31
0.0
  0
LINE
  5
2A22
  8
TITLE
 10
145.03067643385361
 20
38.743167768598482
 30
0.0
 11
146.14279691661369
 21
39.855288251358161
 31
0.0
  0
LINE
  5
2A23
  8
TITLE
 10
145.117961306501
 20
38.743167768598482
 30
0.0
 11
146.23008178926099
 21
39.855288251358161
 31
0.0
  0
LINE
  5
2A24
  8
TITLE
 10
145.55438566972981
 20
38.743167768598482
 30
0.0
 11
146.66650615249631
 21
39.855288251358161
 31
0.0
  0
LINE
  5
2A25
  8
TITLE
 10
145.6416705423764
 20
38.743167768598482
 30
0.0
 11
146.7537910251439
 21
39.855288251358161
 31
0.0
  0
LINE
  5
2A26
  8
TITLE
 10
145.72895541502379
 20
38.743167768598482
 30
0.0
 11
146.7549315011947
 21
39.769143854765723
 31
0.0
  0
LINE
  5
2A27
  8
TITLE
 10
145.81624028767081
 20
38.743167768598482
 30
0.0
 11
146.7549315011947
 21
39.681858982121753
 31
0.0
  0
LINE
  5
2A28
  8
TITLE
 10
145.90352516031851
 20
38.743167768598482
 30
0.0
 11
146.7549315011947
 21
39.594574109474678
 31
0.0
  0
LINE
  5
2A29
  8
TITLE
 10
145.9908100329653
 20
38.743167768598482
 30
0.0
 11
146.7549315011947
 21
39.507289236827532
 31
0.0
  0
LINE
  5
2A2A
  8
TITLE
 10
146.0780949056128
 20
38.743167768598482
 30
0.0
 11
146.7549315011947
 21
39.420004364180272
 31
0.0
  0
LINE
  5
2A2B
  8
TITLE
 10
146.1653797782601
 20
38.743167768598482
 30
0.0
 11
146.7549315011947
 21
39.332719491533332
 31
0.0
  0
LINE
  5
2A2C
  8
TITLE
 10
145.4671007970899
 20
38.743167768598482
 30
0.0
 11
146.57922127984941
 21
39.855288251358161
 31
0.0
  0
LINE
  5
2A2D
  8
TITLE
 10
145.20524617914859
 20
38.743167768598482
 30
0.0
 11
146.31736666190801
 21
39.855288251358161
 31
0.0
  0
LINE
  5
2A2E
  8
TITLE
 10
145.29253105179569
 20
38.743167768598482
 30
0.0
 11
146.40465153455531
 21
39.855288251358161
 31
0.0
  0
LINE
  5
2A2F
  8
TITLE
 10
145.37981592444279
 20
38.743167768598482
 30
0.0
 11
146.49193640720191
 21
39.855288251358161
 31
0.0
  0
LINE
  5
2A30
  8
TITLE
 10
139.94629400025619
 20
38.284883585264211
 30
0.0
 11
141.3601337483822
 21
39.698723333390149
 31
0.0
  0
LINE
  5
2A31
  8
TITLE
 10
140.0933162955269
 20
38.344621007887781
 30
0.0
 11
141.3601337483822
 21
39.611438460742882
 31
0.0
  0
LINE
  5
2A32
  8
TITLE
 10
140.2335037822171
 20
38.397523621927242
 30
0.0
 11
141.3601337483822
 21
39.524153588095828
 31
0.0
  0
LINE
  5
2A33
  8
TITLE
 10
139.79104971230279
 20
38.21692416995824
 30
0.0
 11
141.3601337483822
 21
39.786008206037309
 31
0.0
  0
LINE
  5
2A34
  8
TITLE
 10
142.32484538181399
 20
38.743167768598482
 30
0.0
 11
143.43696586457349
 21
39.855288251358161
 31
0.0
  0
LINE
  5
2A35
  8
TITLE
 10
142.4121302544612
 20
38.743167768598482
 30
0.0
 11
143.52425073722031
 21
39.855288251358161
 31
0.0
  0
LINE
  5
2A36
  8
TITLE
 10
142.49941512710799
 20
38.743167768598482
 30
0.0
 11
143.6115356098679
 21
39.855288251358161
 31
0.0
  0
LINE
  5
2A37
  8
TITLE
 10
142.5866999997551
 20
38.743167768598482
 30
0.0
 11
143.69882048251469
 21
39.855288251358161
 31
0.0
  0
LINE
  5
2A38
  8
TITLE
 10
142.67398487240229
 20
38.743167768598482
 30
0.0
 11
143.78610535516231
 21
39.855288251358161
 31
0.0
  0
LINE
  5
2A39
  8
TITLE
 10
142.23756050916651
 20
38.743167768598482
 30
0.0
 11
143.3496809919265
 21
39.855288251358161
 31
0.0
  0
LINE
  5
2A3A
  8
TITLE
 10
142.1502756365193
 20
38.743167768598482
 30
0.0
 11
143.2623961192794
 21
39.855288251358161
 31
0.0
  0
LINE
  5
2A3B
  8
TITLE
 10
140.36788261305841
 20
38.444617580124948
 30
0.0
 11
141.3601337483822
 21
39.43686871545242
 31
0.0
  0
LINE
  5
2A3C
  8
TITLE
 10
140.49723749477741
 20
38.48668758919689
 30
0.0
 11
141.3601337483822
 21
39.349583842805131
 31
0.0
  0
LINE
  5
2A3D
  8
TITLE
 10
141.8134034113063
 20
39.017289651908072
 30
0.0
 11
142.65140201075599
 21
39.855288251358161
 31
0.0
  0
LINE
  5
2A3E
  8
TITLE
 10
141.8134034113063
 20
38.930004779261239
 30
0.0
 11
142.73868688340369
 21
39.855288251358161
 31
0.0
  0
LINE
  5
2A3F
  8
TITLE
 10
141.8134034113063
 20
38.842719906613851
 30
0.0
 11
142.82597175605039
 21
39.855288251358161
 31
0.0
  0
LINE
  5
2A40
  8
TITLE
 10
141.8134034113063
 20
38.755435033966691
 30
0.0
 11
142.91325662869801
 21
39.855288251358161
 31
0.0
  0
LINE
  5
2A41
  8
TITLE
 10
141.8884210185779
 20
38.743167768598482
 30
0.0
 11
143.0005415013446
 21
39.855288251358161
 31
0.0
  0
LINE
  5
2A42
  8
TITLE
 10
141.97570589122489
 20
38.743167768598482
 30
0.0
 11
143.0878263739919
 21
39.855288251358161
 31
0.0
  0
LINE
  5
2A43
  8
TITLE
 10
142.06299076387251
 20
38.743167768598482
 30
0.0
 11
143.17511124663159
 21
39.855288251358161
 31
0.0
  0
LINE
  5
2A44
  8
TITLE
 10
141.8134034113063
 20
39.104574524555233
 30
0.0
 11
142.56411713810891
 21
39.855288251358161
 31
0.0
  0
LINE
  5
2A45
  8
TITLE
 10
141.8134034113063
 20
39.279144269850001
 30
0.0
 11
142.38954739281499
 21
39.855288251358161
 31
0.0
  0
LINE
  5
2A46
  8
TITLE
 10
141.8134034113063
 20
39.191859397202613
 30
0.0
 11
142.47683226546201
 21
39.855288251358161
 31
0.0
  0
LINE
  5
2A47
  8
TITLE
 10
143.66203262479209
 20
38.421942431288372
 30
0.0
 11
145.09537844485521
 21
39.855288251358161
 31
0.0
  0
LINE
  5
2A48
  8
TITLE
 10
143.66203262479209
 20
38.334657558645048
 30
0.0
 11
145.1826633175022
 21
39.855288251358161
 31
0.0
  0
LINE
  5
2A49
  8
TITLE
 10
143.66203262479209
 20
38.247372685997682
 30
0.0
 11
145.26994819014899
 21
39.855288251358161
 31
0.0
  0
LINE
  5
2A4A
  8
TITLE
 10
143.66203262479209
 20
38.160087813350728
 30
0.0
 11
145.35723306279661
 21
39.855288251358161
 31
0.0
  0
LINE
  5
2A4B
  8
TITLE
 10
143.66203262479209
 20
38.072802940706993
 30
0.0
 11
145.4445179354438
 21
39.855288251358161
 31
0.0
  0
LINE
  5
2A4C
  8
TITLE
 10
143.66203262479209
 20
37.985518068059598
 30
0.0
 11
145.5318028080909
 21
39.855288251358161
 31
0.0
  0
LINE
  5
2A4D
  8
TITLE
 10
143.66203262479209
 20
37.898233195412772
 30
0.0
 11
145.61908768073801
 21
39.855288251358161
 31
0.0
  0
LINE
  5
2A4E
  8
TITLE
 10
143.66203262479209
 20
37.810948322765718
 30
0.0
 11
145.70637255338471
 21
39.855288251358161
 31
0.0
  0
LINE
  5
2A4F
  8
TITLE
 10
143.66203262479209
 20
37.723663450118238
 30
0.0
 11
145.79365742603201
 21
39.855288251358161
 31
0.0
  0
LINE
  5
2A50
  8
TITLE
 10
143.37226385357269
 20
38.743167768598482
 30
0.0
 11
144.48438433633231
 21
39.855288251358161
 31
0.0
  0
LINE
  5
2A51
  8
TITLE
 10
143.4595487262194
 20
38.743167768598482
 30
0.0
 11
144.5716692089789
 21
39.855288251358161
 31
0.0
  0
LINE
  5
2A52
  8
TITLE
 10
143.54683359886661
 20
38.743167768598482
 30
0.0
 11
144.6589540816264
 21
39.855288251358161
 31
0.0
  0
LINE
  5
2A53
  8
TITLE
 10
143.63411847151369
 20
38.743167768598482
 30
0.0
 11
144.7462389542732
 21
39.855288251358161
 31
0.0
  0
LINE
  5
2A54
  8
TITLE
 10
143.66203262479209
 20
38.683797049229831
 30
0.0
 11
144.83352382692101
 21
39.855288251358161
 31
0.0
  0
LINE
  5
2A55
  8
TITLE
 10
143.66203262479209
 20
38.596512176582891
 30
0.0
 11
144.920808699568
 21
39.855288251358161
 31
0.0
  0
LINE
  5
2A56
  8
TITLE
 10
143.66203262479209
 20
38.509227303935518
 30
0.0
 11
145.00809357220791
 21
39.855288251358161
 31
0.0
  0
LINE
  5
2A57
  8
TITLE
 10
143.66203262479209
 20
37.636378577471191
 30
0.0
 11
145.8809422986723
 21
39.855288251358161
 31
0.0
  0
LINE
  5
2A58
  8
TITLE
 10
143.66203262479209
 20
37.549093704824031
 30
0.0
 11
145.9682271713194
 21
39.855288251358161
 31
0.0
  0
LINE
  5
2A59
  8
TITLE
 10
142.76126974504939
 20
38.743167768598482
 30
0.0
 11
143.87339022780901
 21
39.855288251358161
 31
0.0
  0
LINE
  5
2A5A
  8
TITLE
 10
142.8485546176897
 20
38.743167768598482
 30
0.0
 11
143.9606751004566
 21
39.855288251358161
 31
0.0
  0
LINE
  5
2A5B
  8
TITLE
 10
142.93583949033689
 20
38.743167768598482
 30
0.0
 11
144.047959973096
 21
39.855288251358161
 31
0.0
  0
LINE
  5
2A5C
  8
TITLE
 10
143.02312436298411
 20
38.743167768598482
 30
0.0
 11
144.1352448457435
 21
39.855288251358161
 31
0.0
  0
LINE
  5
2A5D
  8
TITLE
 10
143.1104092356307
 20
38.743167768598482
 30
0.0
 11
144.2225297183904
 21
39.855288251358161
 31
0.0
  0
LINE
  5
2A5E
  8
TITLE
 10
143.1976941082784
 20
38.743167768598482
 30
0.0
 11
144.30981459103759
 21
39.855288251358161
 31
0.0
  0
LINE
  5
2A5F
  8
TITLE
 10
143.28497898092559
 20
38.743167768598482
 30
0.0
 11
144.39709946368521
 21
39.855288251358161
 31
0.0
  0
LINE
  5
2A60
  8
TITLE
 10
143.66203262479209
 20
36.414390360421862
 30
0.0
 11
144.9063022877084
 21
37.658660023341547
 31
0.0
  0
LINE
  5
2A61
  8
TITLE
 10
143.66203262479209
 20
36.327105487774688
 30
0.0
 11
144.9063022877084
 21
37.571375150694401
 31
0.0
  0
LINE
  5
2A62
  8
TITLE
 10
143.66203262479209
 20
36.239820615130732
 30
0.0
 11
144.9063022877084
 21
37.484090278050871
 31
0.0
  0
LINE
  5
2A63
  8
TITLE
 10
143.66203262479209
 20
37.461808832177098
 30
0.0
 11
144.9063022877084
 21
38.70607849510008
 31
0.0
  0
LINE
  5
2A64
  8
TITLE
 10
143.66203262479209
 20
37.374523959533583
 30
0.0
 11
144.9063022877084
 21
38.618793622452799
 31
0.0
  0
LINE
  5
2A65
  8
TITLE
 10
143.66203262479209
 20
37.287239086885961
 30
0.0
 11
144.9063022877084
 21
38.531508749805887
 31
0.0
  0
LINE
  5
2A66
  8
TITLE
 10
143.66203262479209
 20
37.199954214242439
 30
0.0
 11
144.9063022877084
 21
38.444223877158826
 31
0.0
  0
LINE
  5
2A67
  8
TITLE
 10
143.66203262479209
 20
37.112669341595151
 30
0.0
 11
144.9063022877084
 21
38.356939004515191
 31
0.0
  0
LINE
  5
2A68
  8
TITLE
 10
143.66203262479209
 20
37.025384468948232
 30
0.0
 11
144.9063022877084
 21
38.269654131867931
 31
0.0
  0
LINE
  5
2A69
  8
TITLE
 10
143.66203262479209
 20
36.938099596301413
 30
0.0
 11
144.9063022877084
 21
38.182369259224643
 31
0.0
  0
LINE
  5
2A6A
  8
TITLE
 10
143.66203262479209
 20
36.850814723653791
 30
0.0
 11
144.9063022877084
 21
38.095084386577227
 31
0.0
  0
LINE
  5
2A6B
  8
TITLE
 10
143.66203262479209
 20
36.763529851006972
 30
0.0
 11
144.9063022877084
 21
38.007799513930308
 31
0.0
  0
LINE
  5
2A6C
  8
TITLE
 10
143.66203262479209
 20
36.67624497835947
 30
0.0
 11
144.9063022877084
 21
37.920514641283127
 31
0.0
  0
LINE
  5
2A6D
  8
TITLE
 10
143.66203262479209
 20
36.58896010571231
 30
0.0
 11
144.9063022877084
 21
37.833229768635867
 31
0.0
  0
LINE
  5
2A6E
  8
TITLE
 10
143.66203262479209
 20
36.501675233069008
 30
0.0
 11
144.9063022877084
 21
37.745944895988828
 31
0.0
  0
LINE
  5
2A6F
  8
TITLE
 10
143.02214946344941
 20
34.290664364088208
 30
0.0
 11
144.9063022877084
 21
36.174817188353799
 31
0.0
  0
LINE
  5
2A70
  8
TITLE
 10
143.10943433608989
 20
34.290664364088208
 30
0.0
 11
144.9063022877084
 21
36.087532315707101
 31
0.0
  0
LINE
  5
2A71
  8
TITLE
 10
143.19671920873679
 20
34.290664364088208
 30
0.0
 11
144.9063022877084
 21
36.00024744305982
 31
0.0
  0
LINE
  5
2A72
  8
TITLE
 10
143.2840040813839
 20
34.290664364088208
 30
0.0
 11
144.9063022877084
 21
35.912962570412787
 31
0.0
  0
LINE
  5
2A73
  8
TITLE
 10
143.371288954031
 20
34.290664364088208
 30
0.0
 11
144.9063022877084
 21
35.825677697765506
 31
0.0
  0
LINE
  5
2A74
  8
TITLE
 10
143.4585738266781
 20
34.290664364088208
 30
0.0
 11
144.9063022877084
 21
35.73839282511824
 31
0.0
  0
LINE
  5
2A75
  8
TITLE
 10
143.54585869932541
 20
34.290664364088208
 30
0.0
 11
144.9063022877084
 21
35.65110795247471
 31
0.0
  0
LINE
  5
2A76
  8
TITLE
 10
143.63314357197251
 20
34.290664364088208
 30
0.0
 11
144.9063022877084
 21
35.56382307982755
 31
0.0
  0
LINE
  5
2A77
  8
TITLE
 10
143.7204284446197
 20
34.290664364088208
 30
0.0
 11
144.9063022877084
 21
35.476538207184248
 31
0.0
  0
LINE
  5
2A78
  8
TITLE
 10
143.8077133172664
 20
34.290664364088208
 30
0.0
 11
144.93623919368551
 21
35.419190240506957
 31
0.0
  0
LINE
  5
2A79
  8
TITLE
 10
142.58572510021381
 20
34.290664364088208
 30
0.0
 11
144.9063022877084
 21
36.611241551586318
 31
0.0
  0
LINE
  5
2A7A
  8
TITLE
 10
142.67300997286111
 20
34.290664364088208
 30
0.0
 11
144.9063022877084
 21
36.52395667893915
 31
0.0
  0
LINE
  5
2A7B
  8
TITLE
 10
142.76029484550821
 20
34.290664364088208
 30
0.0
 11
144.9063022877084
 21
36.436671806292331
 31
0.0
  0
LINE
  5
2A7C
  8
TITLE
 10
142.8475797181554
 20
34.290664364088208
 30
0.0
 11
144.9063022877084
 21
36.349386933648802
 31
0.0
  0
LINE
  5
2A7D
  8
TITLE
 10
142.93486459080211
 20
34.290664364088208
 30
0.0
 11
144.9063022877084
 21
36.262102061001208
 31
0.0
  0
LINE
  5
2A7E
  8
TITLE
 10
143.66203262479209
 20
35.977965997189933
 30
0.0
 11
144.9063022877084
 21
37.222235660112801
 31
0.0
  0
LINE
  5
2A7F
  8
TITLE
 10
143.66203262479209
 20
35.890681124542532
 30
0.0
 11
144.9063022877084
 21
37.134950787465627
 31
0.0
  0
LINE
  5
2A80
  8
TITLE
 10
143.66203262479209
 20
35.803396251895151
 30
0.0
 11
144.9063022877084
 21
37.047665914818602
 31
0.0
  0
LINE
  5
2A81
  8
TITLE
 10
143.66203262479209
 20
35.716111379247756
 30
0.0
 11
144.9063022877084
 21
36.960381042171427
 31
0.0
  0
LINE
  5
2A82
  8
TITLE
 10
143.66203262479209
 20
35.628826506604227
 30
0.0
 11
144.9063022877084
 21
36.873096169524487
 31
0.0
  0
LINE
  5
2A83
  8
TITLE
 10
143.66203262479209
 20
35.54154163395777
 30
0.0
 11
144.9063022877084
 21
36.7858112968771
 31
0.0
  0
LINE
  5
2A84
  8
TITLE
 10
143.66203262479209
 20
35.454256761310248
 30
0.0
 11
144.9063022877084
 21
36.698526424229847
 31
0.0
  0
LINE
  5
2A85
  8
TITLE
 10
143.66203262479209
 20
36.152535742483771
 30
0.0
 11
144.9063022877084
 21
37.396805405404052
 31
0.0
  0
LINE
  5
2A86
  8
TITLE
 10
143.66203262479209
 20
36.065250869836731
 30
0.0
 11
144.9063022877084
 21
37.309520532756771
 31
0.0
  0
LINE
  5
2A87
  8
TITLE
 10
140.62218465666271
 20
38.524349878441967
 30
0.0
 11
141.3601337483822
 21
39.262298970161382
 31
0.0
  0
LINE
  5
2A88
  8
TITLE
 10
140.74321866771911
 20
38.558099016847208
 30
0.0
 11
141.3601337483822
 21
39.175014097514577
 31
0.0
  0
LINE
  5
2A89
  8
TITLE
 10
140.86074372522799
 20
38.588339201709438
 30
0.0
 11
141.3601337483822
 21
39.087729224867289
 31
0.0
  0
LINE
  5
2A8A
  8
TITLE
 10
141.3017276160158
 20
38.680183601908652
 30
0.0
 11
141.3601337483822
 21
38.73858973427842
 31
0.0
  0
LINE
  5
2A8B
  8
TITLE
 10
141.1953641685613
 20
38.66110502710147
 30
0.0
 11
141.3601337483822
 21
38.825874606925701
 31
0.0
  0
LINE
  5
2A8C
  8
TITLE
 10
140.97509528488959
 20
38.615405888720367
 30
0.0
 11
141.3601337483822
 21
39.000444352220249
 31
0.0
  0
LINE
  5
2A8D
  8
TITLE
 10
141.08655544654491
 20
38.639581177735408
 30
0.0
 11
141.3601337483822
 21
38.913159479572869
 31
0.0
  0
LINE
  5
2A8E
  8
TITLE
 10
142.32387048227241
 20
34.290664364088208
 30
0.0
 11
143.4523963586912
 21
35.419190240506957
 31
0.0
  0
LINE
  5
2A8F
  8
TITLE
 10
142.411155354919
 20
34.290664364088208
 30
0.0
 11
143.53968123133779
 21
35.419190240506957
 31
0.0
  0
LINE
  5
2A90
  8
TITLE
 10
142.4984402275667
 20
34.290664364088208
 30
0.0
 11
143.62696610398541
 21
35.419190240506957
 31
0.0
  0
LINE
  5
2A91
  8
TITLE
 10
142.23658560962519
 20
34.290664364088208
 30
0.0
 11
143.36511148605081
 21
35.419190240506957
 31
0.0
  0
LINE
  5
2A92
  8
TITLE
 10
142.1493007369854
 20
34.290664364088208
 30
0.0
 11
143.27782661340399
 21
35.419190240506957
 31
0.0
  0
LINE
  5
2A93
  8
TITLE
 10
141.3601337483822
 20
34.810770465188718
 30
0.0
 11
141.96855352370389
 21
35.419190240506957
 31
0.0
  0
LINE
  5
2A94
  8
TITLE
 10
141.3601337483822
 20
34.72348559254533
 30
0.0
 11
142.05583839635059
 21
35.419190240506957
 31
0.0
  0
LINE
  5
2A95
  8
TITLE
 10
141.3601337483822
 20
34.898055337836013
 30
0.0
 11
141.8812686510567
 21
35.419190240506957
 31
0.0
  0
LINE
  5
2A96
  8
TITLE
 10
141.3601337483822
 20
35.159909955773969
 30
0.0
 11
141.61941403311479
 21
35.419190240506957
 31
0.0
  0
LINE
  5
2A97
  8
TITLE
 10
141.3601337483822
 20
35.07262508312693
 30
0.0
 11
141.70669890576241
 21
35.419190240506957
 31
0.0
  0
LINE
  5
2A98
  8
TITLE
 10
141.3601337483822
 20
34.985340210479762
 30
0.0
 11
141.79398377840971
 21
35.419190240506957
 31
0.0
  0
LINE
  5
2A99
  8
TITLE
 10
141.3601337483822
 20
35.334479701068283
 30
0.0
 11
141.44484428782809
 21
35.419190240506957
 31
0.0
  0
LINE
  5
2A9A
  8
TITLE
 10
141.3601337483822
 20
35.24719482842125
 30
0.0
 11
141.5321291604682
 21
35.419190240506957
 31
0.0
  0
LINE
  5
2A9B
  8
TITLE
 10
141.3601337483822
 20
34.636200719898277
 30
0.0
 11
142.14312326899821
 21
35.419190240506957
 31
0.0
  0
LINE
  5
2A9C
  8
TITLE
 10
141.3601337483822
 20
34.548915847251131
 30
0.0
 11
142.23040814164551
 21
35.419190240506957
 31
0.0
  0
LINE
  5
2A9D
  8
TITLE
 10
141.3601337483822
 20
34.461630974603722
 30
0.0
 11
142.31769301429259
 21
35.419190240506957
 31
0.0
  0
LINE
  5
2A9E
  8
TITLE
 10
141.3601337483822
 20
34.37434610195703
 30
0.0
 11
142.40497788693239
 21
35.419190240506957
 31
0.0
  0
LINE
  5
2A9F
  8
TITLE
 10
141.3637368831609
 20
34.290664364088208
 30
0.0
 11
142.4922627595796
 21
35.419190240506957
 31
0.0
  0
LINE
  5
2AA0
  8
TITLE
 10
141.45102175580749
 20
34.290664364088208
 30
0.0
 11
142.57954763222679
 21
35.419190240506957
 31
0.0
  0
LINE
  5
2AA1
  8
TITLE
 10
141.53830662845479
 20
34.290664364088208
 30
0.0
 11
142.66683250487401
 21
35.419190240506957
 31
0.0
  0
LINE
  5
2AA2
  8
TITLE
 10
141.62559150110241
 20
34.290664364088208
 30
0.0
 11
142.75411737752071
 21
35.419190240506957
 31
0.0
  0
LINE
  5
2AA3
  8
TITLE
 10
141.7128763737494
 20
34.290664364088208
 30
0.0
 11
142.8414022501683
 21
35.419190240506957
 31
0.0
  0
LINE
  5
2AA4
  8
TITLE
 10
141.80016124639661
 20
34.290664364088208
 30
0.0
 11
142.92868712281489
 21
35.419190240506957
 31
0.0
  0
LINE
  5
2AA5
  8
TITLE
 10
141.8874461190438
 20
34.290664364088208
 30
0.0
 11
143.01597199546251
 21
35.419190240506957
 31
0.0
  0
LINE
  5
2AA6
  8
TITLE
 10
141.97473099169059
 20
34.290664364088208
 30
0.0
 11
143.1032568681097
 21
35.419190240506957
 31
0.0
  0
LINE
  5
2AA7
  8
TITLE
 10
142.06201586433809
 20
34.290664364088208
 30
0.0
 11
143.190541740757
 21
35.419190240506957
 31
0.0
  0
LINE
  5
2AA8
  8
TITLE
 10
146.25266465090669
 20
38.743167768598482
 30
0.0
 11
146.7549315011947
 21
39.245434618886293
 31
0.0
  0
LINE
  5
2AA9
  8
TITLE
 10
146.33994952355391
 20
38.743167768598482
 30
0.0
 11
146.7549315011947
 21
39.158149746239239
 31
0.0
  0
LINE
  5
2AAA
  8
TITLE
 10
146.42723439619371
 20
38.743167768598482
 30
0.0
 11
146.7549315011947
 21
39.070864873592072
 31
0.0
  0
LINE
  5
2AAB
  8
TITLE
 10
146.6890890141357
 20
38.743167768598482
 30
0.0
 11
146.7549315011947
 21
38.809010255654023
 31
0.0
  0
LINE
  5
2AAC
  8
TITLE
 10
146.51451926884141
 20
38.743167768598482
 30
0.0
 11
146.7549315011947
 21
38.983580000948102
 31
0.0
  0
LINE
  5
2AAD
  8
TITLE
 10
146.60180414148849
 20
38.743167768598482
 30
0.0
 11
146.7549315011947
 21
38.896295128301048
 31
0.0
  0
LINE
  5
2AAE
  8
TITLE
 10
143.98228306256121
 20
34.290664364088208
 30
0.0
 11
145.11080893897989
 21
35.419190240506957
 31
0.0
  0
LINE
  5
2AAF
  8
TITLE
 10
144.06956793520109
 20
34.290664364088208
 30
0.0
 11
145.1980938116196
 21
35.419190240506957
 31
0.0
  0
LINE
  5
2AB0
  8
TITLE
 10
144.1568528078482
 20
34.290664364088208
 30
0.0
 11
145.28537868426699
 21
35.419190240506957
 31
0.0
  0
LINE
  5
2AB1
  8
TITLE
 10
144.24413768049541
 20
34.290664364088208
 30
0.0
 11
145.3726635569146
 21
35.419190240506957
 31
0.0
  0
LINE
  5
2AB2
  8
TITLE
 10
144.33142255314249
 20
34.290664364088208
 30
0.0
 11
145.45994842956171
 21
35.419190240506957
 31
0.0
  0
LINE
  5
2AB3
  8
TITLE
 10
143.89499818991351
 20
34.290664364088208
 30
0.0
 11
145.0235240663327
 21
35.419190240506957
 31
0.0
  0
LINE
  5
2AB4
  8
TITLE
 10
147.6481874641326
 20
35.425307458913132
 30
0.0
 11
147.6617130821999
 21
35.438833076981723
 31
0.0
  0
LINE
  5
2AB5
  8
TITLE
 10
146.2516897513654
 20
34.290664364088208
 30
0.0
 11
147.20820116411841
 21
35.247175776841317
 31
0.0
  0
LINE
  5
2AB6
  8
TITLE
 10
146.33897462401271
 20
34.290664364088208
 30
0.0
 11
147.20820116411841
 21
35.159890904194057
 31
0.0
  0
LINE
  5
2AB7
  8
TITLE
 10
146.42625949665961
 20
34.290664364088208
 30
0.0
 11
147.20820116411841
 21
35.07260603154679
 31
0.0
  0
LINE
  5
2AB8
  8
TITLE
 10
146.51354436930691
 20
34.290664364088208
 30
0.0
 11
147.20820116411841
 21
34.985321158899971
 31
0.0
  0
LINE
  5
2AB9
  8
TITLE
 10
146.60082924195419
 20
34.290664364088208
 30
0.0
 11
147.20820116411841
 21
34.89803628625247
 31
0.0
  0
LINE
  5
2ABA
  8
TITLE
 10
146.6881141146018
 20
34.290664364088208
 30
0.0
 11
147.20820116411841
 21
34.810751413605203
 31
0.0
  0
LINE
  5
2ABB
  8
TITLE
 10
146.77539898724169
 20
34.290664364088208
 30
0.0
 11
147.20820116411841
 21
34.723466540958043
 31
0.0
  0
LINE
  5
2ABC
  8
TITLE
 10
146.86268385988839
 20
34.290664364088208
 30
0.0
 11
147.20820116411841
 21
34.636181668310989
 31
0.0
  0
LINE
  5
2ABD
  8
TITLE
 10
146.9499687325355
 20
34.290664364088208
 30
0.0
 11
147.20820116411841
 21
34.548896795667702
 31
0.0
  0
LINE
  5
2ABE
  8
TITLE
 10
147.0372536051826
 20
34.290664364088208
 30
0.0
 11
147.20820116411841
 21
34.461611923020321
 31
0.0
  0
LINE
  5
2ABF
  8
TITLE
 10
147.12453847782959
 20
34.290664364088208
 30
0.0
 11
147.20820116411841
 21
34.374327050373147
 31
0.0
  0
LINE
  5
2AC0
  8
TITLE
 10
144.41870742578971
 20
34.290664364088208
 30
0.0
 11
145.54723330220841
 21
35.419190240506957
 31
0.0
  0
LINE
  5
2AC1
  8
TITLE
 10
144.50599229843681
 20
34.290664364088208
 30
0.0
 11
145.6345181748556
 21
35.419190240506957
 31
0.0
  0
LINE
  5
2AC2
  8
TITLE
 10
144.59327717108391
 20
34.290664364088208
 30
0.0
 11
145.72180304750279
 21
35.419190240506957
 31
0.0
  0
LINE
  5
2AC3
  8
TITLE
 10
144.6805620437317
 20
34.290664364088208
 30
0.0
 11
145.80908792014989
 21
35.419190240506957
 31
0.0
  0
LINE
  5
2AC4
  8
TITLE
 10
144.7678469163784
 20
34.290664364088208
 30
0.0
 11
145.89637279279711
 21
35.419190240506957
 31
0.0
  0
LINE
  5
2AC5
  8
TITLE
 10
144.85513178902551
 20
34.290664364088208
 30
0.0
 11
145.9836576654443
 21
35.419190240506957
 31
0.0
  0
LINE
  5
2AC6
  8
TITLE
 10
144.94241666166479
 20
34.290664364088208
 30
0.0
 11
146.07094253808401
 21
35.419190240506957
 31
0.0
  0
LINE
  5
2AC7
  8
TITLE
 10
145.02970153431241
 20
34.290664364088208
 30
0.0
 11
146.15822741073109
 21
35.419190240506957
 31
0.0
  0
LINE
  5
2AC8
  8
TITLE
 10
145.55341077019551
 20
34.290664364088208
 30
0.0
 11
146.6819366466143
 21
35.419190240506957
 31
0.0
  0
LINE
  5
2AC9
  8
TITLE
 10
145.6406956428427
 20
34.290664364088208
 30
0.0
 11
146.76922151926129
 21
35.419190240506957
 31
0.0
  0
LINE
  5
2ACA
  8
TITLE
 10
145.72798051548989
 20
34.290664364088208
 30
0.0
 11
146.85650639190899
 21
35.419190240506957
 31
0.0
  0
LINE
  5
2ACB
  8
TITLE
 10
145.81526538813679
 20
34.290664364088208
 30
0.0
 11
146.9437912645557
 21
35.419190240506957
 31
0.0
  0
LINE
  5
2ACC
  8
TITLE
 10
145.90255026077691
 20
34.290664364088208
 30
0.0
 11
147.0310761371955
 21
35.419190240506957
 31
0.0
  0
LINE
  5
2ACD
  8
TITLE
 10
145.9898351334239
 20
34.290664364088208
 30
0.0
 11
147.1183610098426
 21
35.419190240506957
 31
0.0
  0
LINE
  5
2ACE
  8
TITLE
 10
146.0771200060712
 20
34.290664364088208
 30
0.0
 11
147.2056458824899
 21
35.419190240506957
 31
0.0
  0
LINE
  5
2ACF
  8
TITLE
 10
146.16440487871839
 20
34.290664364088208
 30
0.0
 11
147.20820116411841
 21
35.334460649484853
 31
0.0
  0
LINE
  5
2AD0
  8
TITLE
 10
145.11698640695971
 20
34.290664364088208
 30
0.0
 11
146.2455122833789
 21
35.419190240506957
 31
0.0
  0
LINE
  5
2AD1
  8
TITLE
 10
145.2042712796069
 20
34.290664364088208
 30
0.0
 11
146.33279715602561
 21
35.419190240506957
 31
0.0
  0
LINE
  5
2AD2
  8
TITLE
 10
145.291556152254
 20
34.290664364088208
 30
0.0
 11
146.42008202867271
 21
35.419190240506957
 31
0.0
  0
LINE
  5
2AD3
  8
TITLE
 10
145.37884102490111
 20
34.290664364088208
 30
0.0
 11
146.50736690131981
 21
35.419190240506957
 31
0.0
  0
LINE
  5
2AD4
  8
TITLE
 10
145.46612589754841
 20
34.290664364088208
 30
0.0
 11
146.594651773967
 21
35.419190240506957
 31
0.0
  0
LINE
  5
2AD5
  8
TITLE
 10
141.8134034113063
 20
39.62828376043489
 30
0.0
 11
142.0404079022332
 21
39.855288251358161
 31
0.0
  0
LINE
  5
2AD6
  8
TITLE
 10
141.8134034113063
 20
39.540998887787509
 30
0.0
 11
142.1276927748807
 21
39.855288251358161
 31
0.0
  0
LINE
  5
2AD7
  8
TITLE
 10
141.8134034113063
 20
39.8028535057257
 30
0.0
 11
141.86583815693891
 21
39.855288251358161
 31
0.0
  0
LINE
  5
2AD8
  8
TITLE
 10
141.8134034113063
 20
39.715568633078192
 30
0.0
 11
141.9531230295859
 21
39.855288251358161
 31
0.0
  0
LINE
  5
2AD9
  8
TITLE
 10
141.8134034113063
 20
39.453714015140797
 30
0.0
 11
142.21497764752061
 21
39.855288251358161
 31
0.0
  0
LINE
  5
2ADA
  8
TITLE
 10
141.8134034113063
 20
39.366429142496813
 30
0.0
 11
142.3022625201674
 21
39.855288251358161
 31
0.0
  0
LINE
  5
2ADB
  8
TITLE
 10
155.8782284782819
 20
39.02925022279998
 30
0.0
 11
156.7042665068405
 21
39.855288251358161
 31
0.0
  0
LINE
  5
2ADC
  8
TITLE
 10
155.965513350929
 20
39.02925022279998
 30
0.0
 11
156.79155137948041
 21
39.855288251358161
 31
0.0
  0
LINE
  5
2ADD
  8
TITLE
 10
156.05279822357659
 20
39.02925022279998
 30
0.0
 11
156.87883625212771
 21
39.855288251358161
 31
0.0
  0
LINE
  5
2ADE
  8
TITLE
 10
156.1400830962165
 20
39.02925022279998
 30
0.0
 11
156.9661211247747
 21
39.855288251358161
 31
0.0
  0
LINE
  5
2ADF
  8
TITLE
 10
155.41660137924501
 20
34.290664364088208
 30
0.0
 11
157.25268124470219
 21
36.126744229544897
 31
0.0
  0
LINE
  5
2AE0
  8
TITLE
 10
155.5038862518918
 20
34.290664364088208
 30
0.0
 11
157.25268124470219
 21
36.039459356901723
 31
0.0
  0
LINE
  5
2AE1
  8
TITLE
 10
155.59117112453939
 20
34.290664364088208
 30
0.0
 11
157.25268124470219
 21
35.952174484254229
 31
0.0
  0
LINE
  5
2AE2
  8
TITLE
 10
155.6784559971864
 20
34.290664364088208
 30
0.0
 11
157.25268124470219
 21
35.864889611607062
 31
0.0
  0
LINE
  5
2AE3
  8
TITLE
 10
155.76574086983371
 20
34.290664364088208
 30
0.0
 11
157.25268124470219
 21
35.77760473896376
 31
0.0
  0
LINE
  5
2AE4
  8
TITLE
 10
155.8530257424809
 20
34.290664364088208
 30
0.0
 11
157.25268124470219
 21
35.690319866316493
 31
0.0
  0
LINE
  5
2AE5
  8
TITLE
 10
155.94031061512069
 20
34.290664364088208
 30
0.0
 11
157.25268124470219
 21
35.603034993669439
 31
0.0
  0
LINE
  5
2AE6
  8
TITLE
 10
156.02759548776791
 20
34.290664364088208
 30
0.0
 11
157.25268124470219
 21
35.51575012102218
 31
0.0
  0
LINE
  5
2AE7
  8
TITLE
 10
156.1148803604151
 20
34.290664364088208
 30
0.0
 11
157.25268124470219
 21
35.428465248375332
 31
0.0
  0
LINE
  5
2AE8
  8
TITLE
 10
155.35451924239939
 20
39.02925022279998
 30
0.0
 11
156.18055727095771
 21
39.855288251358161
 31
0.0
  0
LINE
  5
2AE9
  8
TITLE
 10
155.44180411504641
 20
39.02925022279998
 30
0.0
 11
156.26784214360461
 21
39.855288251358161
 31
0.0
  0
LINE
  5
2AEA
  8
TITLE
 10
155.5290889876932
 20
39.02925022279998
 30
0.0
 11
156.3551270162514
 21
39.855288251358161
 31
0.0
  0
LINE
  5
2AEB
  8
TITLE
 10
155.6163738603409
 20
39.02925022279998
 30
0.0
 11
156.44241188889899
 21
39.855288251358161
 31
0.0
  0
LINE
  5
2AEC
  8
TITLE
 10
155.70365873298789
 20
39.02925022279998
 30
0.0
 11
156.52969676154621
 21
39.855288251358161
 31
0.0
  0
LINE
  5
2AED
  8
TITLE
 10
155.79094360563511
 20
39.02925022279998
 30
0.0
 11
156.61698163419351
 21
39.855288251358161
 31
0.0
  0
LINE
  5
2AEE
  8
TITLE
 10
155.32931650659791
 20
34.290664364088208
 30
0.0
 11
156.1817485699606
 21
35.143096427454793
 31
0.0
  0
LINE
  5
2AEF
  8
TITLE
 10
154.48167051593501
 20
39.02925022279998
 30
0.0
 11
155.30770854449321
 21
39.855288251358161
 31
0.0
  0
LINE
  5
2AF0
  8
TITLE
 10
154.5689553885818
 20
39.02925022279998
 30
0.0
 11
155.39499341714051
 21
39.855288251358161
 31
0.0
  0
LINE
  5
2AF1
  8
TITLE
 10
154.6562402612289
 20
39.02925022279998
 30
0.0
 11
155.4822782897875
 21
39.855288251358161
 31
0.0
  0
LINE
  5
2AF2
  8
TITLE
 10
154.74352513387601
 20
39.02925022279998
 30
0.0
 11
155.56956316243441
 21
39.855288251358161
 31
0.0
  0
LINE
  5
2AF3
  8
TITLE
 10
154.83081000652319
 20
39.02925022279998
 30
0.0
 11
155.65684803508199
 21
39.855288251358161
 31
0.0
  0
LINE
  5
2AF4
  8
TITLE
 10
154.91809487917041
 20
39.02925022279998
 30
0.0
 11
155.7441329077287
 21
39.855288251358161
 31
0.0
  0
LINE
  5
2AF5
  8
TITLE
 10
155.0053797518176
 20
39.02925022279998
 30
0.0
 11
155.8314177803756
 21
39.855288251358161
 31
0.0
  0
LINE
  5
2AF6
  8
TITLE
 10
155.09266462446459
 20
39.02925022279998
 30
0.0
 11
155.91870265301571
 21
39.855288251358161
 31
0.0
  0
LINE
  5
2AF7
  8
TITLE
 10
155.1799494971051
 20
39.02925022279998
 30
0.0
 11
156.0059875256633
 21
39.855288251358161
 31
0.0
  0
LINE
  5
2AF8
  8
TITLE
 10
155.2672343697522
 20
39.02925022279998
 30
0.0
 11
156.0932723983104
 21
39.855288251358161
 31
0.0
  0
LINE
  5
2AF9
  8
TITLE
 10
154.20383223845721
 20
39.187836308551027
 30
0.0
 11
154.87128418126471
 21
39.855288251358161
 31
0.0
  0
LINE
  5
2AFA
  8
TITLE
 10
154.20383223845721
 20
39.10055143590386
 30
0.0
 11
154.95856905390471
 21
39.855288251358161
 31
0.0
  0
LINE
  5
2AFB
  8
TITLE
 10
154.21981589800041
 20
39.02925022279998
 30
0.0
 11
155.0458539265519
 21
39.855288251358161
 31
0.0
  0
LINE
  5
2AFC
  8
TITLE
 10
154.3071007706406
 20
39.02925022279998
 30
0.0
 11
155.13313879919841
 21
39.855288251358161
 31
0.0
  0
LINE
  5
2AFD
  8
TITLE
 10
154.3943856432879
 20
39.02925022279998
 30
0.0
 11
155.22042367184611
 21
39.855288251358161
 31
0.0
  0
LINE
  5
2AFE
  8
TITLE
 10
154.20383223845721
 20
39.27512118119818
 30
0.0
 11
154.78399930861769
 21
39.855288251358161
 31
0.0
  0
LINE
  5
2AFF
  8
TITLE
 10
149.1945564427084
 20
38.979228508363342
 30
0.0
 11
150.07061618570691
 21
39.855288251358161
 31
0.0
  0
LINE
  5
2B00
  8
TITLE
 10
149.1486781216299
 20
38.846065314641351
 30
0.0
 11
150.1579010583539
 21
39.855288251358161
 31
0.0
  0
LINE
  5
2B01
  8
TITLE
 10
149.10279980055111
 20
38.7129021209157
 30
0.0
 11
150.2451859310012
 21
39.855288251358161
 31
0.0
  0
LINE
  5
2B02
  8
TITLE
 10
149.05692147948
 20
38.57973892718951
 30
0.0
 11
150.33247080364839
 21
39.855288251358161
 31
0.0
  0
LINE
  5
2B03
  8
TITLE
 10
149.2863130848659
 20
39.245554895811331
 30
0.0
 11
149.8960464404125
 21
39.855288251358161
 31
0.0
  0
LINE
  5
2B04
  8
TITLE
 10
149.24043476378711
 20
39.112391702089099
 30
0.0
 11
149.98333131305969
 21
39.855288251358161
 31
0.0
  0
LINE
  5
2B05
  8
TITLE
 10
148.8734081951651
 20
38.047086152290149
 30
0.0
 11
150.6816102942297
 21
39.855288251358161
 31
0.0
  0
LINE
  5
2B06
  8
TITLE
 10
148.82752987408631
 20
37.913922958567703
 30
0.0
 11
150.76616307709341
 21
39.852556161578271
 31
0.0
  0
LINE
  5
2B07
  8
TITLE
 10
148.781651553008
 20
37.780759764841932
 30
0.0
 11
150.7202847560219
 21
39.71939296785262
 31
0.0
  0
LINE
  5
2B08
  8
TITLE
 10
149.01104315840121
 20
38.44657573346376
 30
0.0
 11
150.41975567628819
 21
39.855288251358161
 31
0.0
  0
LINE
  5
2B09
  8
TITLE
 10
148.9651648373227
 20
38.313412539738238
 30
0.0
 11
150.50704054893541
 21
39.855288251358161
 31
0.0
  0
LINE
  5
2B0A
  8
TITLE
 10
148.919286516244
 20
38.180249346016012
 30
0.0
 11
150.5943254215826
 21
39.855288251358161
 31
0.0
  0
LINE
  5
2B0B
  8
TITLE
 10
148.73577323192919
 20
37.647596571116431
 30
0.0
 11
150.67440643494351
 21
39.586229774130182
 31
0.0
  0
LINE
  5
2B0C
  8
TITLE
 10
148.6898949108504
 20
37.514433377390112
 30
0.0
 11
150.6285281138652
 21
39.453066580404773
 31
0.0
  0
LINE
  5
2B0D
  8
TITLE
 10
148.64401658977141
 20
37.381270183664931
 30
0.0
 11
150.58264979278599
 21
39.319903386678789
 31
0.0
  0
LINE
  5
2B0E
  8
TITLE
 10
151.7233766375634
 20
36.794665580311289
 30
0.0
 11
152.6454192273774
 21
37.716708170125692
 31
0.0
  0
LINE
  5
2B0F
  8
TITLE
 10
151.73955738104951
 20
36.723561451150431
 30
0.0
 11
152.73270410002479
 21
37.716708170125692
 31
0.0
  0
LINE
  5
2B10
  8
TITLE
 10
151.75573812453541
 20
36.652457321989559
 30
0.0
 11
152.75858620665699
 21
37.655305404110443
 31
0.0
  0
LINE
  5
2B11
  8
TITLE
 10
151.77191886802251
 20
36.581353192829063
 30
0.0
 11
152.77476695014309
 21
37.584201274949471
 31
0.0
  0
LINE
  5
2B12
  8
TITLE
 10
151.7880996115085
 20
36.51024906366785
 30
0.0
 11
152.79094769362919
 21
37.513097145788826
 31
0.0
  0
LINE
  5
2B13
  8
TITLE
 10
151.804280354995
 20
36.439144934507112
 30
0.0
 11
152.80712843711581
 21
37.441993016627848
 31
0.0
  0
LINE
  5
2B14
  8
TITLE
 10
151.82046109848119
 20
36.36804080534683
 30
0.0
 11
152.82330918060231
 21
37.370888887467352
 31
0.0
  0
LINE
  5
2B15
  8
TITLE
 10
151.83664184196761
 20
36.296936676185851
 30
0.0
 11
152.83948992408841
 21
37.299784758306473
 31
0.0
  0
LINE
  5
2B16
  8
TITLE
 10
151.85282258545411
 20
36.225832547025
 30
0.0
 11
152.85567066757491
 21
37.228680629145849
 31
0.0
  0
LINE
  5
2B17
  8
TITLE
 10
151.67483440711101
 20
37.007977967793408
 30
0.0
 11
152.38356460944351
 21
37.716708170125692
 31
0.0
  0
LINE
  5
2B18
  8
TITLE
 10
151.69101515059759
 20
36.93687383863255
 30
0.0
 11
152.47084948208339
 21
37.716708170125692
 31
0.0
  0
LINE
  5
2B19
  8
TITLE
 10
151.7071958940837
 20
36.865769709471813
 30
0.0
 11
152.55813435473041
 21
37.716708170125692
 31
0.0
  0
LINE
  5
2B1A
  8
TITLE
 10
151.62629217665179
 20
37.221290355275869
 30
0.0
 11
152.121709991502
 21
37.716708170125692
 31
0.0
  0
LINE
  5
2B1B
  8
TITLE
 10
151.64247292013789
 20
37.150186226114897
 30
0.0
 11
152.20899486414899
 21
37.716708170125692
 31
0.0
  0
LINE
  5
2B1C
  8
TITLE
 10
151.65865366362451
 20
37.079082096953812
 30
0.0
 11
152.2962797367957
 21
37.716708170125692
 31
0.0
  0
LINE
  5
2B1D
  8
TITLE
 10
151.22692749221719
 20
34.290664364088208
 30
0.0
 11
153.09838181985651
 21
36.162118691730811
 31
0.0
  0
LINE
  5
2B1E
  8
TITLE
 10
151.3142123648644
 20
34.290664364088208
 30
0.0
 11
153.1145625633429
 21
36.091014562569612
 31
0.0
  0
LINE
  5
2B1F
  8
TITLE
 10
151.4014972375048
 20
34.290664364088208
 30
0.0
 11
153.130743306829
 21
36.01991043340945
 31
0.0
  0
LINE
  5
2B20
  8
TITLE
 10
151.4887821101519
 20
34.290664364088208
 30
0.0
 11
153.1469240503155
 21
35.948806304244719
 31
0.0
  0
LINE
  5
2B21
  8
TITLE
 10
151.57606698279901
 20
34.290664364088208
 30
0.0
 11
153.16310479379479
 21
35.877702175083868
 31
0.0
  0
LINE
  5
2B22
  8
TITLE
 10
151.66335185544571
 20
34.290664364088208
 30
0.0
 11
153.17928553728069
 21
35.806598045923216
 31
0.0
  0
LINE
  5
2B23
  8
TITLE
 10
151.7506367280929
 20
34.290664364088208
 30
0.0
 11
153.1954662807675
 21
35.735493916762252
 31
0.0
  0
LINE
  5
2B24
  8
TITLE
 10
151.8379216007404
 20
34.290664364088208
 30
0.0
 11
153.21164702425401
 21
35.664389787601863
 31
0.0
  0
LINE
  5
2B25
  8
TITLE
 10
151.92520647338759
 20
34.290664364088208
 30
0.0
 11
153.22782776774051
 21
35.593285658440891
 31
0.0
  0
LINE
  5
2B26
  8
TITLE
 10
152.01249134603441
 20
34.290664364088208
 30
0.0
 11
153.24400851122701
 21
35.522181529280253
 31
0.0
  0
LINE
  5
2B27
  8
TITLE
 10
150.9650728742763
 20
34.290664364088208
 30
0.0
 11
153.0498395893971
 21
36.375431079212717
 31
0.0
  0
LINE
  5
2B28
  8
TITLE
 10
151.05235774692301
 20
34.290664364088208
 30
0.0
 11
153.0660203328834
 21
36.304326950052207
 31
0.0
  0
LINE
  5
2B29
  8
TITLE
 10
151.13964261957011
 20
34.290664364088208
 30
0.0
 11
153.0822010763699
 21
36.233222820891683
 31
0.0
  0
LINE
  5
2B2A
  8
TITLE
 10
151.9984492768244
 20
35.585895384574783
 30
0.0
 11
153.00129735894501
 21
36.588743466695171
 31
0.0
  0
LINE
  5
2B2B
  8
TITLE
 10
152.0146300203036
 20
35.51479125541379
 30
0.0
 11
153.01747810242469
 21
36.517639337534213
 31
0.0
  0
LINE
  5
2B2C
  8
TITLE
 10
152.03081076379021
 20
35.443687126252811
 30
0.0
 11
153.03365884591071
 21
36.44653520837403
 31
0.0
  0
LINE
  5
2B2D
  8
TITLE
 10
151.91754555939269
 20
35.941416030378257
 30
0.0
 11
152.9203936415133
 21
36.94426411249902
 31
0.0
  0
LINE
  5
2B2E
  8
TITLE
 10
151.93372630287919
 20
35.870311901217519
 30
0.0
 11
152.93657438499969
 21
36.873159983338148
 31
0.0
  0
LINE
  5
2B2F
  8
TITLE
 10
151.94990704636521
 20
35.799207772057002
 30
0.0
 11
152.95275512848619
 21
36.80205585417751
 31
0.0
  0
LINE
  5
2B30
  8
TITLE
 10
151.96608778985171
 20
35.72810364289613
 30
0.0
 11
152.9689358719728
 21
36.730951725017
 31
0.0
  0
LINE
  5
2B31
  8
TITLE
 10
151.98226853333821
 20
35.656999513735279
 30
0.0
 11
152.98511661545891
 21
36.659847595856149
 31
0.0
  0
LINE
  5
2B32
  8
TITLE
 10
151.86900332893339
 20
36.154728417864121
 30
0.0
 11
152.87185141105411
 21
37.157576499984891
 31
0.0
  0
LINE
  5
2B33
  8
TITLE
 10
151.8851840724198
 20
36.083624288703497
 30
0.0
 11
152.8880321545401
 21
37.08647237082085
 31
0.0
  0
LINE
  5
2B34
  8
TITLE
 10
151.90136481590611
 20
36.012520159542653
 30
0.0
 11
152.9042128980268
 21
37.015368241659978
 31
0.0
  0
LINE
  5
2B35
  8
TITLE
 10
148.4146249843788
 20
36.715454215042783
 30
0.0
 11
150.3532581873927
 21
38.654087418056982
 31
0.0
  0
LINE
  5
2B36
  8
TITLE
 10
148.3687466632999
 20
36.582291021317012
 30
0.0
 11
150.30737986631439
 21
38.520924224331559
 31
0.0
  0
LINE
  5
2B37
  8
TITLE
 10
148.27699002114269
 20
36.315964633868923
 30
0.0
 11
150.21562322415721
 21
38.254597836879853
 31
0.0
  0
LINE
  5
2B38
  8
TITLE
 10
148.23111170006399
 20
36.182801440146811
 30
0.0
 11
150.16974490307831
 21
38.12143464315762
 31
0.0
  0
LINE
  5
2B39
  8
TITLE
 10
148.32286834222151
 20
36.449127827591269
 30
0.0
 11
150.2615015452356
 21
38.387761030605247
 31
0.0
  0
LINE
  5
2B3A
  8
TITLE
 10
148.46050330545751
 20
36.848617408768639
 30
0.0
 11
150.39913650847151
 21
38.787250611783172
 31
0.0
  0
LINE
  5
2B3B
  8
TITLE
 10
151.56156920271351
 20
37.505706871918733
 30
0.0
 11
151.7725705009133
 21
37.716708170125692
 31
0.0
  0
LINE
  5
2B3C
  8
TITLE
 10
151.5777499461928
 20
37.434602742758322
 30
0.0
 11
151.85985537356041
 21
37.716708170125692
 31
0.0
  0
LINE
  5
2B3D
  8
TITLE
 10
151.5939306896793
 20
37.363498613597251
 30
0.0
 11
151.94714024620771
 21
37.716708170125692
 31
0.0
  0
LINE
  5
2B3E
  8
TITLE
 10
151.6101114331654
 20
37.292394484436372
 30
0.0
 11
152.0344251188547
 21
37.716708170125692
 31
0.0
  0
LINE
  5
2B3F
  8
TITLE
 10
151.52920771574091
 20
37.647915130240683
 30
0.0
 11
151.5980007556189
 21
37.716708170125692
 31
0.0
  0
LINE
  5
2B40
  8
TITLE
 10
151.54538845922701
 20
37.576811001079363
 30
0.0
 11
151.68528562826609
 21
37.716708170125692
 31
0.0
  0
LINE
  5
2B41
  8
TITLE
 10
148.5981382686935
 20
37.248106989942578
 30
0.0
 11
150.53677147170751
 21
39.186740192953039
 31
0.0
  0
LINE
  5
2B42
  8
TITLE
 10
148.5522599476148
 20
37.114943796220018
 30
0.0
 11
150.49089315062881
 21
39.053576999227168
 31
0.0
  0
LINE
  5
2B43
  8
TITLE
 10
148.50638162653601
 20
36.981780602494503
 30
0.0
 11
150.4450148295499
 21
38.920413805505291
 31
0.0
  0
LINE
  5
2B44
  8
TITLE
 10
148.25924182223571
 20
34.290664364088208
 30
0.0
 11
149.3690350844534
 21
35.400457626305752
 31
0.0
  0
LINE
  5
2B45
  8
TITLE
 10
148.34652669488261
 20
34.290664364088208
 30
0.0
 11
149.45631995709331
 21
35.400457626305752
 31
0.0
  0
LINE
  5
2B46
  8
TITLE
 10
148.4338115675298
 20
34.290664364088208
 30
0.0
 11
149.54360482974101
 21
35.400457626305752
 31
0.0
  0
LINE
  5
2B47
  8
TITLE
 10
147.9973872042942
 20
34.290664364088208
 30
0.0
 11
149.2980568025913
 21
35.591333962385292
 31
0.0
  0
LINE
  5
2B48
  8
TITLE
 10
148.0846720769411
 20
34.290664364088208
 30
0.0
 11
149.252178481513
 21
35.45817076865967
 31
0.0
  0
LINE
  5
2B49
  8
TITLE
 10
148.17195694958841
 20
34.290664364088208
 30
0.0
 11
149.28175021180641
 21
35.400457626305752
 31
0.0
  0
LINE
  5
2B4A
  8
TITLE
 10
150.354078765753
 20
34.290664364088208
 30
0.0
 11
151.4638720279635
 21
35.400457626305752
 31
0.0
  0
LINE
  5
2B4B
  8
TITLE
 10
150.4413636383928
 20
34.290664364088208
 30
0.0
 11
151.5511569006112
 21
35.400457626305752
 31
0.0
  0
LINE
  5
2B4C
  8
TITLE
 10
150.52864851103999
 20
34.290664364088208
 30
0.0
 11
151.63844177325791
 21
35.400457626305752
 31
0.0
  0
LINE
  5
2B4D
  8
TITLE
 10
150.61593338368749
 20
34.290664364088208
 30
0.0
 11
151.72572664590501
 21
35.400457626305752
 31
0.0
  0
LINE
  5
2B4E
  8
TITLE
 10
150.70321825633431
 20
34.290664364088208
 30
0.0
 11
151.8130115185522
 21
35.400457626305752
 31
0.0
  0
LINE
  5
2B4F
  8
TITLE
 10
150.7905031289815
 20
34.290664364088208
 30
0.0
 11
151.90029639119939
 21
35.400457626305752
 31
0.0
  0
LINE
  5
2B50
  8
TITLE
 10
150.87778800162911
 20
34.290664364088208
 30
0.0
 11
151.98758126384641
 21
35.400457626305752
 31
0.0
  0
LINE
  5
2B51
  8
TITLE
 10
148.5210964401771
 20
34.290664364088208
 30
0.0
 11
149.6308897023882
 21
35.400457626305752
 31
0.0
  0
LINE
  5
2B52
  8
TITLE
 10
148.6083813128169
 20
34.290664364088208
 30
0.0
 11
149.71817457503491
 21
35.400457626305752
 31
0.0
  0
LINE
  5
2B53
  8
TITLE
 10
148.69566618546449
 20
34.290664364088208
 30
0.0
 11
149.80545944768201
 21
35.400457626305752
 31
0.0
  0
LINE
  5
2B54
  8
TITLE
 10
148.78295105811171
 20
34.290664364088208
 30
0.0
 11
149.8927443203292
 21
35.400457626305752
 31
0.0
  0
LINE
  5
2B55
  8
TITLE
 10
148.8702359307585
 20
34.290664364088208
 30
0.0
 11
149.9800291929767
 21
35.400457626305752
 31
0.0
  0
LINE
  5
2B56
  8
TITLE
 10
148.95752080340571
 20
34.290664364088208
 30
0.0
 11
150.06731406562341
 21
35.400457626305752
 31
0.0
  0
LINE
  5
2B57
  8
TITLE
 10
149.04480567605319
 20
34.290664364088208
 30
0.0
 11
150.15459893827071
 21
35.400457626305752
 31
0.0
  0
LINE
  5
2B58
  8
TITLE
 10
149.13209054870001
 20
34.290664364088208
 30
0.0
 11
150.2418838109183
 21
35.400457626305752
 31
0.0
  0
LINE
  5
2B59
  8
TITLE
 10
149.21937542134759
 20
34.290664364088208
 30
0.0
 11
150.32916868355761
 21
35.400457626305752
 31
0.0
  0
LINE
  5
2B5A
  8
TITLE
 10
149.30666029399421
 20
34.290664364088208
 30
0.0
 11
150.41645355620491
 21
35.400457626305752
 31
0.0
  0
LINE
  5
2B5B
  8
TITLE
 10
150.17950902045911
 20
34.290664364088208
 30
0.0
 11
151.28930228266921
 21
35.400457626305752
 31
0.0
  0
LINE
  5
2B5C
  8
TITLE
 10
150.26679389310561
 20
34.290664364088208
 30
0.0
 11
151.37658715531671
 21
35.400457626305752
 31
0.0
  0
LINE
  5
2B5D
  8
TITLE
 10
149.3939451666414
 20
34.290664364088208
 30
0.0
 11
150.5037384288521
 21
35.400457626305752
 31
0.0
  0
LINE
  5
2B5E
  8
TITLE
 10
149.4812300392885
 20
34.290664364088208
 30
0.0
 11
150.5910233014996
 21
35.400457626305752
 31
0.0
  0
LINE
  5
2B5F
  8
TITLE
 10
149.5685149119289
 20
34.290664364088208
 30
0.0
 11
150.67830817414639
 21
35.400457626305752
 31
0.0
  0
LINE
  5
2B60
  8
TITLE
 10
149.655799784576
 20
34.290664364088208
 30
0.0
 11
150.76559304679341
 21
35.400457626305752
 31
0.0
  0
LINE
  5
2B61
  8
TITLE
 10
149.74308465722271
 20
34.290664364088208
 30
0.0
 11
150.8528779194412
 21
35.400457626305752
 31
0.0
  0
LINE
  5
2B62
  8
TITLE
 10
149.8303695298699
 20
34.290664364088208
 30
0.0
 11
150.9401627920879
 21
35.400457626305752
 31
0.0
  0
LINE
  5
2B63
  8
TITLE
 10
149.9176544025172
 20
34.290664364088208
 30
0.0
 11
151.02744766473501
 21
35.400457626305752
 31
0.0
  0
LINE
  5
2B64
  8
TITLE
 10
150.00493927516459
 20
34.290664364088208
 30
0.0
 11
151.11473253738251
 21
35.400457626305752
 31
0.0
  0
LINE
  5
2B65
  8
TITLE
 10
150.09222414781141
 20
34.290664364088208
 30
0.0
 11
151.20201741002211
 21
35.400457626305752
 31
0.0
  0
LINE
  5
2B66
  8
TITLE
 10
148.08360621260991
 20
35.860726207394578
 30
0.0
 11
150.07798826092119
 21
37.855108255709631
 31
0.0
  0
LINE
  5
2B67
  8
TITLE
 10
148.1852333789929
 20
36.049638246420848
 30
0.0
 11
150.12386658200009
 21
37.988271449431963
 31
0.0
  0
LINE
  5
2B68
  8
TITLE
 10
152.09977621868211
 20
34.290664364088208
 30
0.0
 11
153.26018925471311
 21
35.451077400119388
 31
0.0
  0
LINE
  5
2B69
  8
TITLE
 10
152.18706109132921
 20
34.290664364088208
 30
0.0
 11
153.2763699981995
 21
35.379973270958871
 31
0.0
  0
LINE
  5
2B6A
  8
TITLE
 10
152.27434596396901
 20
34.290664364088208
 30
0.0
 11
153.29255074167881
 21
35.3088691417978
 31
0.0
  0
LINE
  5
2B6B
  8
TITLE
 10
152.3616308366158
 20
34.290664364088208
 30
0.0
 11
153.30873148516491
 21
35.237765012637283
 31
0.0
  0
LINE
  5
2B6C
  8
TITLE
 10
152.4489157092633
 20
34.290664364088208
 30
0.0
 11
153.3249122286515
 21
35.166660883476531
 31
0.0
  0
LINE
  5
2B6D
  8
TITLE
 10
152.53620058191041
 20
34.290664364088208
 30
0.0
 11
153.341092972138
 21
35.095556754315453
 31
0.0
  0
LINE
  5
2B6E
  8
TITLE
 10
154.45646778013341
 20
34.290664364088208
 30
0.0
 11
155.30889984349631
 21
35.143096427454793
 31
0.0
  0
LINE
  5
2B6F
  8
TITLE
 10
154.54375265278071
 20
34.290664364088208
 30
0.0
 11
155.39618471614341
 21
35.143096427454793
 31
0.0
  0
LINE
  5
2B70
  8
TITLE
 10
154.6310375254279
 20
34.290664364088208
 30
0.0
 11
155.48346958879071
 21
35.143096427454793
 31
0.0
  0
LINE
  5
2B71
  8
TITLE
 10
154.7183223980748
 20
34.290664364088208
 30
0.0
 11
155.57075446143759
 21
35.143096427454793
 31
0.0
  0
LINE
  5
2B72
  8
TITLE
 10
154.80560727072171
 20
34.290664364088208
 30
0.0
 11
155.65803933408441
 21
35.143096427454793
 31
0.0
  0
LINE
  5
2B73
  8
TITLE
 10
154.89289214336941
 20
34.290664364088208
 30
0.0
 11
155.74532420673211
 21
35.143096427454793
 31
0.0
  0
LINE
  5
2B74
  8
TITLE
 10
154.98017701600881
 20
34.290664364088208
 30
0.0
 11
155.83260907937969
 21
35.143096427454793
 31
0.0
  0
LINE
  5
2B75
  8
TITLE
 10
155.06746188865631
 20
34.290664364088208
 30
0.0
 11
155.91989395202651
 21
35.143096427454793
 31
0.0
  0
LINE
  5
2B76
  8
TITLE
 10
155.1547467613035
 20
34.290664364088208
 30
0.0
 11
156.0071788246737
 21
35.143096427454793
 31
0.0
  0
LINE
  5
2B77
  8
TITLE
 10
155.2420316339506
 20
34.290664364088208
 30
0.0
 11
156.0944636973208
 21
35.143096427454793
 31
0.0
  0
LINE
  5
2B78
  8
TITLE
 10
154.0260794294685
 20
34.82040961253449
 30
0.0
 11
154.34876624438479
 21
35.143096427454793
 31
0.0
  0
LINE
  5
2B79
  8
TITLE
 10
154.0260794294685
 20
34.733124739887451
 30
0.0
 11
154.4360511170315
 21
35.143096427454793
 31
0.0
  0
LINE
  5
2B7A
  8
TITLE
 10
154.0260794294685
 20
34.90769448518175
 30
0.0
 11
154.26148137173769
 21
35.143096427454793
 31
0.0
  0
LINE
  5
2B7B
  8
TITLE
 10
152.62348545455771
 20
34.290664364088208
 30
0.0
 11
153.35727371562399
 21
35.024452625154808
 31
0.0
  0
LINE
  5
2B7C
  8
TITLE
 10
152.7107703272049
 20
34.290664364088208
 30
0.0
 11
153.373454459111
 21
34.953348495994071
 31
0.0
  0
LINE
  5
2B7D
  8
TITLE
 10
152.798055199852
 20
34.290664364088208
 30
0.0
 11
153.38963520259711
 21
34.882244366833341
 31
0.0
  0
LINE
  5
2B7E
  8
TITLE
 10
152.88534007249899
 20
34.290664364088208
 30
0.0
 11
153.40581594608321
 21
34.811140237672809
 31
0.0
  0
LINE
  5
2B7F
  8
TITLE
 10
152.97262494514641
 20
34.290664364088208
 30
0.0
 11
153.42199668956971
 21
34.740036108511831
 31
0.0
  0
LINE
  5
2B80
  8
TITLE
 10
153.0599098177936
 20
34.290664364088208
 30
0.0
 11
153.4381774330495
 21
34.668931979350987
 31
0.0
  0
LINE
  5
2B81
  8
TITLE
 10
153.14719469043331
 20
34.290664364088208
 30
0.0
 11
153.45435817653549
 21
34.597827850190122
 31
0.0
  0
LINE
  5
2B82
  8
TITLE
 10
153.2344795630805
 20
34.290664364088208
 30
0.0
 11
153.47053892002211
 21
34.526723721029491
 31
0.0
  0
LINE
  5
2B83
  8
TITLE
 10
153.3217644357278
 20
34.290664364088208
 30
0.0
 11
153.4867196635085
 21
34.45561959186886
 31
0.0
  0
LINE
  5
2B84
  8
TITLE
 10
153.4090493083749
 20
34.290664364088208
 30
0.0
 11
153.50290040699471
 21
34.384515462708123
 31
0.0
  0
LINE
  5
2B85
  8
TITLE
 10
153.49633418102201
 20
34.290664364088208
 30
0.0
 11
153.51908115048079
 21
34.313411333547151
 31
0.0
  0
LINE
  5
2B86
  8
TITLE
 10
154.0260794294685
 20
35.082264230472781
 30
0.0
 11
154.08691162645059
 21
35.143096427454793
 31
0.0
  0
LINE
  5
2B87
  8
TITLE
 10
154.0260794294685
 20
34.994979357828932
 30
0.0
 11
154.1741964990978
 21
35.143096427454793
 31
0.0
  0
LINE
  5
2B88
  8
TITLE
 10
154.10732828954491
 20
34.290664364088208
 30
0.0
 11
154.95976035291491
 21
35.143096427454793
 31
0.0
  0
LINE
  5
2B89
  8
TITLE
 10
154.1946131621921
 20
34.290664364088208
 30
0.0
 11
155.04704522556219
 21
35.143096427454793
 31
0.0
  0
LINE
  5
2B8A
  8
TITLE
 10
154.2818980348388
 20
34.290664364088208
 30
0.0
 11
155.1343300982092
 21
35.143096427454793
 31
0.0
  0
LINE
  5
2B8B
  8
TITLE
 10
154.36918290748631
 20
34.290664364088208
 30
0.0
 11
155.2216149708492
 21
35.143096427454793
 31
0.0
  0
LINE
  5
2B8C
  8
TITLE
 10
154.0260794294685
 20
34.296700376655281
 30
0.0
 11
154.87247548026781
 21
35.143096427454793
 31
0.0
  0
LINE
  5
2B8D
  8
TITLE
 10
154.0260794294685
 20
34.64583986724017
 30
0.0
 11
154.5233359896792
 21
35.143096427454793
 31
0.0
  0
LINE
  5
2B8E
  8
TITLE
 10
154.0260794294685
 20
34.558554994593003
 30
0.0
 11
154.61062086232641
 21
35.143096427454793
 31
0.0
  0
LINE
  5
2B8F
  8
TITLE
 10
154.0260794294685
 20
34.471270121945857
 30
0.0
 11
154.6979057349734
 21
35.143096427454793
 31
0.0
  0
LINE
  5
2B90
  8
TITLE
 10
154.0260794294685
 20
34.383985249299137
 30
0.0
 11
154.78519060762071
 21
35.143096427454793
 31
0.0
  0
LINE
  5
2B91
  8
TITLE
 10
149.3321914059442
 20
39.37871808953718
 30
0.0
 11
149.80876156776509
 21
39.855288251358161
 31
0.0
  0
LINE
  5
2B92
  8
TITLE
 10
149.42394804810169
 20
39.645044476988801
 30
0.0
 11
149.63419182247111
 21
39.855288251358161
 31
0.0
  0
LINE
  5
2B93
  8
TITLE
 10
149.37806972702299
 20
39.511881283263151
 30
0.0
 11
149.7214766951183
 21
39.855288251358161
 31
0.0
  0
LINE
  5
2B94
  8
TITLE
 10
149.46982636918071
 20
39.778207670714551
 30
0.0
 11
149.54690694982401
 21
39.855288251358161
 31
0.0
  0
LINE
  5
2B95
  8
TITLE
 10
154.20383223845721
 20
39.624260671786828
 30
0.0
 11
154.4348598180286
 21
39.855288251358161
 31
0.0
  0
LINE
  5
2B96
  8
TITLE
 10
154.20383223845721
 20
39.798830417077632
 30
0.0
 11
154.26029007273411
 21
39.855288251358161
 31
0.0
  0
LINE
  5
2B97
  8
TITLE
 10
154.20383223845721
 20
39.711545544430678
 30
0.0
 11
154.34757494538161
 21
39.855288251358161
 31
0.0
  0
LINE
  5
2B98
  8
TITLE
 10
154.20383223845721
 20
39.536975799139903
 30
0.0
 11
154.52214469067559
 21
39.855288251358161
 31
0.0
  0
LINE
  5
2B99
  8
TITLE
 10
154.20383223845721
 20
39.449690926492508
 30
0.0
 11
154.60942956332281
 21
39.855288251358161
 31
0.0
  0
LINE
  5
2B9A
  8
TITLE
 10
154.20383223845721
 20
39.362406053845334
 30
0.0
 11
154.69671443596991
 21
39.855288251358161
 31
0.0
  0
LINE
  5
2B9B
  8
TITLE
 10
160.32493130327191
 20
38.762569924883323
 30
0.0
 11
161.29403806824709
 21
39.731676689861843
 31
0.0
  0
LINE
  5
2B9C
  8
TITLE
 10
160.4122161759191
 20
38.762569924883323
 30
0.0
 11
161.3219935781803
 21
39.672347327144401
 31
0.0
  0
LINE
  5
2B9D
  8
TITLE
 10
160.4995010485662
 20
38.762569924883323
 30
0.0
 11
161.34994908810671
 21
39.613017964427037
 31
0.0
  0
LINE
  5
2B9E
  8
TITLE
 10
160.58678592120609
 20
38.762569924883323
 30
0.0
 11
161.3779045980404
 21
39.553688601713361
 31
0.0
  0
LINE
  5
2B9F
  8
TITLE
 10
160.67407079385359
 20
38.762569924883323
 30
0.0
 11
161.4058601079735
 21
39.494359239000119
 31
0.0
  0
LINE
  5
2BA0
  8
TITLE
 10
160.761355666501
 20
38.762569924883323
 30
0.0
 11
161.43381561790011
 21
39.435029876278911
 31
0.0
  0
LINE
  5
2BA1
  8
TITLE
 10
160.73022861085241
 20
37.771309270119673
 30
0.0
 11
162.4860067238028
 21
39.52708738306967
 31
0.0
  0
LINE
  5
2BA2
  8
TITLE
 10
162.68162286472381
 20
38.762569924883323
 30
0.0
 11
163.7743411912023
 21
39.855288251358161
 31
0.0
  0
LINE
  5
2BA3
  8
TITLE
 10
162.76890773737111
 20
38.762569924883323
 30
0.0
 11
163.8616260638496
 21
39.855288251358161
 31
0.0
  0
LINE
  5
2BA4
  8
TITLE
 10
160.84864053914771
 20
38.762569924883323
 30
0.0
 11
161.50078572293279
 21
39.414715108664723
 31
0.0
  0
LINE
  5
2BA5
  8
TITLE
 10
160.93592541179481
 20
38.762569924883323
 30
0.0
 11
161.58807059558001
 21
39.414715108664723
 31
0.0
  0
LINE
  5
2BA6
  8
TITLE
 10
161.0232102844418
 20
38.762569924883323
 30
0.0
 11
161.6753554682272
 21
39.414715108664723
 31
0.0
  0
LINE
  5
2BA7
  8
TITLE
 10
161.11049515708919
 20
38.762569924883323
 30
0.0
 11
161.76264034086711
 21
39.414715108664723
 31
0.0
  0
LINE
  5
2BA8
  8
TITLE
 10
161.17767471993679
 20
38.742464615086881
 30
0.0
 11
162.29049835620791
 21
39.855288251358161
 31
0.0
  0
LINE
  5
2BA9
  8
TITLE
 10
161.98334388355391
 20
38.762569924883323
 30
0.0
 11
162.63548906733141
 21
39.414715108664723
 31
0.0
  0
LINE
  5
2BAA
  8
TITLE
 10
160.81751348349221
 20
37.771309270119673
 30
0.0
 11
162.4860067238028
 21
39.43980251042273
 31
0.0
  0
LINE
  5
2BAB
  8
TITLE
 10
160.90479835613951
 20
37.771309270119673
 30
0.0
 11
162.54820419469161
 21
39.414715108664723
 31
0.0
  0
LINE
  5
2BAC
  8
TITLE
 10
161.23592678136581
 20
38.451577185927249
 30
0.0
 11
162.4860067238028
 21
39.701657128360686
 31
0.0
  0
LINE
  5
2BAD
  8
TITLE
 10
161.2504897967228
 20
38.378855328637201
 30
0.0
 11
162.4860067238028
 21
39.614372255717051
 31
0.0
  0
LINE
  5
2BAE
  8
TITLE
 10
161.19223773529379
 20
38.66974275779728
 30
0.0
 11
162.37778322885509
 21
39.855288251358161
 31
0.0
  0
LINE
  5
2BAF
  8
TITLE
 10
161.20680075065141
 20
38.597020900507118
 30
0.0
 11
162.46506810150271
 21
39.855288251358161
 31
0.0
  0
LINE
  5
2BB0
  8
TITLE
 10
161.22136376600869
 20
38.524299043217518
 30
0.0
 11
162.4860067238028
 21
39.788942001008202
 31
0.0
  0
LINE
  5
2BB1
  8
TITLE
 10
162.59433799207679
 20
38.762569924883323
 30
0.0
 11
163.68705631855519
 21
39.855288251358161
 31
0.0
  0
LINE
  5
2BB2
  8
TITLE
 10
162.4197682467819
 20
38.762569924883323
 30
0.0
 11
163.07191343056709
 21
39.414715108664723
 31
0.0
  0
LINE
  5
2BB3
  8
TITLE
 10
162.5070531194294
 20
38.762569924883323
 30
0.0
 11
163.15919830321431
 21
39.414715108664723
 31
0.0
  0
LINE
  5
2BB4
  8
TITLE
 10
162.07062875620059
 20
38.762569924883323
 30
0.0
 11
162.72277393997851
 21
39.414715108664723
 31
0.0
  0
LINE
  5
2BB5
  8
TITLE
 10
162.15791362884781
 20
38.762569924883323
 30
0.0
 11
162.8100588126261
 21
39.414715108664723
 31
0.0
  0
LINE
  5
2BB6
  8
TITLE
 10
162.24519850149531
 20
38.762569924883323
 30
0.0
 11
162.8973436852728
 21
39.414715108664723
 31
0.0
  0
LINE
  5
2BB7
  8
TITLE
 10
162.3324833741421
 20
38.762569924883323
 30
0.0
 11
162.9846285579201
 21
39.414715108664723
 31
0.0
  0
LINE
  5
2BB8
  8
TITLE
 10
162.85619261001781
 20
38.762569924883323
 30
0.0
 11
163.8775382128436
 21
39.783915527705531
 31
0.0
  0
LINE
  5
2BB9
  8
TITLE
 10
162.943477482665
 20
38.762569924883323
 30
0.0
 11
163.8775382128436
 21
39.696630655058591
 31
0.0
  0
LINE
  5
2BBA
  8
TITLE
 10
163.03076235531211
 20
38.762569924883323
 30
0.0
 11
163.8775382128436
 21
39.60934578241141
 31
0.0
  0
LINE
  5
2BBB
  8
TITLE
 10
163.11804722795961
 20
38.762569924883323
 30
0.0
 11
163.8775382128436
 21
39.522060909763823
 31
0.0
  0
LINE
  5
2BBC
  8
TITLE
 10
163.20533210060691
 20
38.762569924883323
 30
0.0
 11
163.8775382128436
 21
39.434776037120521
 31
0.0
  0
LINE
  5
2BBD
  8
TITLE
 10
163.29261697324679
 20
38.762569924883323
 30
0.0
 11
163.94476215703159
 21
39.414715108664723
 31
0.0
  0
LINE
  5
2BBE
  8
TITLE
 10
163.3799018458939
 20
38.762569924883323
 30
0.0
 11
164.03204702967841
 21
39.414715108664723
 31
0.0
  0
LINE
  5
2BBF
  8
TITLE
 10
163.46718671854049
 20
38.762569924883323
 30
0.0
 11
164.11933190232591
 21
39.414715108664723
 31
0.0
  0
LINE
  5
2BC0
  8
TITLE
 10
163.55447159118779
 20
38.762569924883323
 30
0.0
 11
164.2066167749731
 21
39.414715108664723
 31
0.0
  0
LINE
  5
2BC1
  8
TITLE
 10
156.2572655143635
 20
38.971862895652521
 30
0.0
 11
157.14069087006911
 21
39.855288251358161
 31
0.0
  0
LINE
  5
2BC2
  8
TITLE
 10
156.2572655143635
 20
38.884578023009112
 30
0.0
 11
157.2279757427163
 21
39.855288251358161
 31
0.0
  0
LINE
  5
2BC3
  8
TITLE
 10
156.2572655143635
 20
38.797293150361831
 30
0.0
 11
157.31526061536351
 21
39.855288251358161
 31
0.0
  0
LINE
  5
2BC4
  8
TITLE
 10
156.2572655143635
 20
38.273583914482522
 30
0.0
 11
157.8389698512392
 21
39.855288251358161
 31
0.0
  0
LINE
  5
2BC5
  8
TITLE
 10
156.2572655143635
 20
38.186299041835468
 30
0.0
 11
157.9262547238863
 21
39.855288251358161
 31
0.0
  0
LINE
  5
2BC6
  8
TITLE
 10
156.2572655143635
 20
38.099014169188187
 30
0.0
 11
158.01353959653341
 21
39.855288251358161
 31
0.0
  0
LINE
  5
2BC7
  8
TITLE
 10
156.2572655143635
 20
38.448153659776601
 30
0.0
 11
157.66440010595201
 21
39.855288251358161
 31
0.0
  0
LINE
  5
2BC8
  8
TITLE
 10
156.2572655143635
 20
38.360868787129441
 30
0.0
 11
157.7516849785919
 21
39.855288251358161
 31
0.0
  0
LINE
  5
2BC9
  8
TITLE
 10
156.2572655143635
 20
38.710008277715012
 30
0.0
 11
157.4025454880105
 21
39.855288251358161
 31
0.0
  0
LINE
  5
2BCA
  8
TITLE
 10
156.2572655143635
 20
38.622723405071149
 30
0.0
 11
157.48983036065781
 21
39.855288251358161
 31
0.0
  0
LINE
  5
2BCB
  8
TITLE
 10
156.2572655143635
 20
38.535438532424209
 30
0.0
 11
157.57711523330499
 21
39.855288251358161
 31
0.0
  0
LINE
  5
2BCC
  8
TITLE
 10
156.22736796886321
 20
39.02925022279998
 30
0.0
 11
157.05340599742141
 21
39.855288251358161
 31
0.0
  0
LINE
  5
2BCD
  8
TITLE
 10
158.58405953032241
 20
39.02925022279998
 30
0.0
 11
159.30611452061461
 21
39.751305213092451
 31
0.0
  0
LINE
  5
2BCE
  8
TITLE
 10
158.67134440296951
 20
39.02925022279998
 30
0.0
 11
159.30611452061461
 21
39.66402034044517
 31
0.0
  0
LINE
  5
2BCF
  8
TITLE
 10
158.75862927561681
 20
39.02925022279998
 30
0.0
 11
159.30611452061461
 21
39.57673546780164
 31
0.0
  0
LINE
  5
2BD0
  8
TITLE
 10
158.84591414825621
 20
39.02925022279998
 30
0.0
 11
159.30611452061461
 21
39.48945059515426
 31
0.0
  0
LINE
  5
2BD1
  8
TITLE
 10
158.93319902090369
 20
39.02925022279998
 30
0.0
 11
159.30611452061461
 21
39.402165722507107
 31
0.0
  0
LINE
  5
2BD2
  8
TITLE
 10
159.02048389355099
 20
39.02925022279998
 30
0.0
 11
159.30611452061461
 21
39.314880849863698
 31
0.0
  0
LINE
  5
2BD3
  8
TITLE
 10
160.0148037945464
 20
39.238006269974903
 30
0.0
 11
160.1915126332328
 21
39.414715108664723
 31
0.0
  0
LINE
  5
2BD4
  8
TITLE
 10
157.27478644062231
 20
39.02925022279998
 30
0.0
 11
158.10082446918051
 21
39.855288251358161
 31
0.0
  0
LINE
  5
2BD5
  8
TITLE
 10
157.36207131326941
 20
39.02925022279998
 30
0.0
 11
158.18810934182761
 21
39.855288251358161
 31
0.0
  0
LINE
  5
2BD6
  8
TITLE
 10
157.4493561859162
 20
39.02925022279998
 30
0.0
 11
158.275394214475
 21
39.855288251358161
 31
0.0
  0
LINE
  5
2BD7
  8
TITLE
 10
157.53664105856379
 20
39.02925022279998
 30
0.0
 11
158.36267908712199
 21
39.855288251358161
 31
0.0
  0
LINE
  5
2BD8
  8
TITLE
 10
157.62392593121089
 20
39.02925022279998
 30
0.0
 11
158.44996395976921
 21
39.855288251358161
 31
0.0
  0
LINE
  5
2BD9
  8
TITLE
 10
157.71121080385811
 20
39.02925022279998
 30
0.0
 11
158.5372488324164
 21
39.855288251358161
 31
0.0
  0
LINE
  5
2BDA
  8
TITLE
 10
158.4094897850282
 20
39.02925022279998
 30
0.0
 11
159.2355278135864
 21
39.855288251358161
 31
0.0
  0
LINE
  5
2BDB
  8
TITLE
 10
158.4967746576753
 20
39.02925022279998
 30
0.0
 11
159.30611452061461
 21
39.83859008573971
 31
0.0
  0
LINE
  5
2BDC
  8
TITLE
 10
157.7984956765049
 20
39.02925022279998
 30
0.0
 11
158.62453370505631
 21
39.855288251358161
 31
0.0
  0
LINE
  5
2BDD
  8
TITLE
 10
157.88578054914561
 20
39.02925022279998
 30
0.0
 11
158.71181857770341
 21
39.855288251358161
 31
0.0
  0
LINE
  5
2BDE
  8
TITLE
 10
157.9730654217918
 20
39.02925022279998
 30
0.0
 11
158.7991034503506
 21
39.855288251358161
 31
0.0
  0
LINE
  5
2BDF
  8
TITLE
 10
158.0603502944395
 20
39.02925022279998
 30
0.0
 11
158.8863883229977
 21
39.855288251358161
 31
0.0
  0
LINE
  5
2BE0
  8
TITLE
 10
158.14763516708621
 20
39.02925022279998
 30
0.0
 11
158.97367319564481
 21
39.855288251358161
 31
0.0
  0
LINE
  5
2BE1
  8
TITLE
 10
158.23492003973371
 20
39.02925022279998
 30
0.0
 11
159.06095806829211
 21
39.855288251358161
 31
0.0
  0
LINE
  5
2BE2
  8
TITLE
 10
158.32220491238101
 20
39.02925022279998
 30
0.0
 11
159.1482429409393
 21
39.855288251358161
 31
0.0
  0
LINE
  5
2BE3
  8
TITLE
 10
160.1503615579781
 20
38.762569924883323
 30
0.0
 11
161.23812704838741
 21
39.850335415292882
 31
0.0
  0
LINE
  5
2BE4
  8
TITLE
 10
160.23764643062469
 20
38.762569924883323
 30
0.0
 11
161.2660825583207
 21
39.791006052575533
 31
0.0
  0
LINE
  5
2BE5
  8
TITLE
 10
160.0148037945464
 20
38.97615165203738
 30
0.0
 11
160.45336725117431
 21
39.414715108664723
 31
0.0
  0
LINE
  5
2BE6
  8
TITLE
 10
160.0148037945464
 20
38.888866779390142
 30
0.0
 11
160.54065212382091
 21
39.414715108664723
 31
0.0
  0
LINE
  5
2BE7
  8
TITLE
 10
160.0148037945464
 20
38.801581906742612
 30
0.0
 11
160.62793699646861
 21
39.414715108664723
 31
0.0
  0
LINE
  5
2BE8
  8
TITLE
 10
160.0630766853304
 20
38.762569924883323
 30
0.0
 11
160.71522186911579
 21
39.414715108664723
 31
0.0
  0
LINE
  5
2BE9
  8
TITLE
 10
160.0148037945464
 20
39.063436524684228
 30
0.0
 11
160.3660823785271
 21
39.414715108664723
 31
0.0
  0
LINE
  5
2BEA
  8
TITLE
 10
160.0148037945464
 20
39.150721397331509
 30
0.0
 11
160.27879750587991
 21
39.414715108664723
 31
0.0
  0
LINE
  5
2BEB
  8
TITLE
 10
160.19255660353551
 20
38.019201116620351
 30
0.0
 11
160.51855254333981
 21
38.345197056431282
 31
0.0
  0
LINE
  5
2BEC
  8
TITLE
 10
160.19255660353551
 20
37.931916243973077
 30
0.0
 11
160.60583741598651
 21
38.345197056431282
 31
0.0
  0
LINE
  5
2BED
  8
TITLE
 10
160.19255660353551
 20
37.844631371326258
 30
0.0
 11
160.6931222886341
 21
38.345197056431282
 31
0.0
  0
LINE
  5
2BEE
  8
TITLE
 10
160.2065193749695
 20
37.771309270119673
 30
0.0
 11
160.78040716128081
 21
38.345197056431282
 31
0.0
  0
LINE
  5
2BEF
  8
TITLE
 10
160.19255660353551
 20
38.10648598926754
 30
0.0
 11
160.43126767069219
 21
38.345197056431282
 31
0.0
  0
LINE
  5
2BF0
  8
TITLE
 10
160.19255660353551
 20
38.193770861914572
 30
0.0
 11
160.34398279805231
 21
38.345197056431282
 31
0.0
  0
LINE
  5
2BF1
  8
TITLE
 10
160.19255660353551
 20
37.059067517508893
 30
0.0
 11
160.40916809021741
 21
37.27567900419411
 31
0.0
  0
LINE
  5
2BF2
  8
TITLE
 10
160.19255660353551
 20
36.971782644861811
 30
0.0
 11
160.49645296286451
 21
37.27567900419411
 31
0.0
  0
LINE
  5
2BF3
  8
TITLE
 10
160.19255660353551
 20
36.884497772214672
 30
0.0
 11
160.58373783551221
 21
37.27567900419411
 31
0.0
  0
LINE
  5
2BF4
  8
TITLE
 10
160.19255660353551
 20
36.797212899570823
 30
0.0
 11
160.6710227081588
 21
37.27567900419411
 31
0.0
  0
LINE
  5
2BF5
  8
TITLE
 10
160.2365914337756
 20
36.753962857166918
 30
0.0
 11
160.75830758080599
 21
37.27567900419411
 31
0.0
  0
LINE
  5
2BF6
  8
TITLE
 10
160.19255660353551
 20
37.146352390155798
 30
0.0
 11
160.3218832175707
 21
37.27567900419411
 31
0.0
  0
LINE
  5
2BF7
  8
TITLE
 10
160.0426995914558
 20
34.290664326043043
 30
0.0
 11
160.99164905593159
 21
35.23961379051137
 31
0.0
  0
LINE
  5
2BF8
  8
TITLE
 10
160.0148037945464
 20
34.524623147068162
 30
0.0
 11
160.49168987092881
 21
35.001509223450391
 31
0.0
  0
LINE
  5
2BF9
  8
TITLE
 10
160.0148037945464
 20
34.43733827442076
 30
0.0
 11
160.60971195709681
 21
35.03224643697127
 31
0.0
  0
LINE
  5
2BFA
  8
TITLE
 10
160.0148037945464
 20
34.35005340177392
 30
0.0
 11
160.75361888464741
 21
35.088868491874791
 31
0.0
  0
LINE
  5
2BFB
  8
TITLE
 10
160.0148037945464
 20
34.699192892358823
 30
0.0
 11
160.29421345776379
 21
34.978602555579421
 31
0.0
  0
LINE
  5
2BFC
  8
TITLE
 10
160.0148037945464
 20
34.611908019715187
 30
0.0
 11
160.38807530412561
 21
34.985179529294442
 31
0.0
  0
LINE
  5
2BFD
  8
TITLE
 10
160.1299843450528
 20
34.290664206992801
 30
0.0
 11
162.1237383645751
 21
36.284418226511548
 31
0.0
  0
LINE
  5
2BFE
  8
TITLE
 10
160.2178847076255
 20
34.291279696910813
 30
0.0
 11
162.21102323722241
 21
36.284418226511548
 31
0.0
  0
LINE
  5
2BFF
  8
TITLE
 10
160.0148037945464
 20
35.921181109408039
 30
0.0
 11
160.37804091164659
 21
36.284418226511548
 31
0.0
  0
LINE
  5
2C00
  8
TITLE
 10
160.0148037945464
 20
35.83389623676122
 30
0.0
 11
160.4653257842931
 21
36.284418226511548
 31
0.0
  0
LINE
  5
2C01
  8
TITLE
 10
160.0569803910189
 20
35.78878796058585
 30
0.0
 11
160.5526106569404
 21
36.284418226511548
 31
0.0
  0
LINE
  5
2C02
  8
TITLE
 10
160.144265263666
 20
35.78878796058585
 30
0.0
 11
160.6398955295881
 21
36.284418226511548
 31
0.0
  0
LINE
  5
2C03
  8
TITLE
 10
160.23155013631319
 20
35.78878796058585
 30
0.0
 11
160.72718040223481
 21
36.284418226511548
 31
0.0
  0
LINE
  5
2C04
  8
TITLE
 10
160.0148037945464
 20
36.008465982055213
 30
0.0
 11
160.2907560389994
 21
36.284418226511548
 31
0.0
  0
LINE
  5
2C05
  8
TITLE
 10
156.2572655143635
 20
37.837159551250252
 30
0.0
 11
157.25268124470219
 21
38.83257528158537
 31
0.0
  0
LINE
  5
2C06
  8
TITLE
 10
156.2572655143635
 20
37.749874678606709
 30
0.0
 11
157.25268124470219
 21
38.745290408941742
 31
0.0
  0
LINE
  5
2C07
  8
TITLE
 10
156.2572655143635
 20
38.011729296540921
 30
0.0
 11
157.25268124470219
 21
39.007145026879812
 31
0.0
  0
LINE
  5
2C08
  8
TITLE
 10
156.2572655143635
 20
37.924444423897278
 30
0.0
 11
157.25268124470219
 21
38.919860154232417
 31
0.0
  0
LINE
  5
2C09
  8
TITLE
 10
156.2572655143635
 20
36.702456206847728
 30
0.0
 11
157.25268124470219
 21
37.697871937182967
 31
0.0
  0
LINE
  5
2C0A
  8
TITLE
 10
156.2572655143635
 20
36.615171334200909
 30
0.0
 11
157.25268124470219
 21
37.610587064539793
 31
0.0
  0
LINE
  5
2C0B
  8
TITLE
 10
156.2572655143635
 20
36.527886461553848
 30
0.0
 11
157.25268124470219
 21
37.523302191892398
 31
0.0
  0
LINE
  5
2C0C
  8
TITLE
 10
156.2572655143635
 20
36.440601588906581
 30
0.0
 11
157.25268124470219
 21
37.436017319245018
 31
0.0
  0
LINE
  5
2C0D
  8
TITLE
 10
156.2572655143635
 20
36.353316716259783
 30
0.0
 11
157.25268124470219
 21
37.348732446597737
 31
0.0
  0
LINE
  5
2C0E
  8
TITLE
 10
156.2572655143635
 20
36.266031843612033
 30
0.0
 11
157.25268124470219
 21
37.261447573950711
 31
0.0
  0
LINE
  5
2C0F
  8
TITLE
 10
156.2572655143635
 20
36.178746970968731
 30
0.0
 11
157.25268124470219
 21
37.174162701303892
 31
0.0
  0
LINE
  5
2C10
  8
TITLE
 10
156.2572655143635
 20
37.662589805959428
 30
0.0
 11
157.25268124470219
 21
38.65800553629424
 31
0.0
  0
LINE
  5
2C11
  8
TITLE
 10
156.2572655143635
 20
37.575304933312182
 30
0.0
 11
157.25268124470219
 21
38.570720663647748
 31
0.0
  0
LINE
  5
2C12
  8
TITLE
 10
156.2572655143635
 20
37.226165442723861
 30
0.0
 11
157.25268124470219
 21
38.221581173062077
 31
0.0
  0
LINE
  5
2C13
  8
TITLE
 10
156.2572655143635
 20
37.138880570076473
 30
0.0
 11
157.25268124470219
 21
38.134296300415272
 31
0.0
  0
LINE
  5
2C14
  8
TITLE
 10
156.2572655143635
 20
37.488020060665249
 30
0.0
 11
157.25268124470219
 21
38.483435791003892
 31
0.0
  0
LINE
  5
2C15
  8
TITLE
 10
156.2572655143635
 20
37.400735188017848
 30
0.0
 11
157.25268124470219
 21
38.396150918356852
 31
0.0
  0
LINE
  5
2C16
  8
TITLE
 10
156.2572655143635
 20
37.313450315370801
 30
0.0
 11
157.25268124470219
 21
38.308866045709472
 31
0.0
  0
LINE
  5
2C17
  8
TITLE
 10
156.2572655143635
 20
36.964310824785677
 30
0.0
 11
157.25268124470219
 21
37.95972655512071
 31
0.0
  0
LINE
  5
2C18
  8
TITLE
 10
156.2572655143635
 20
36.877025952138872
 30
0.0
 11
157.25268124470219
 21
37.872441682477302
 31
0.0
  0
LINE
  5
2C19
  8
TITLE
 10
156.2572655143635
 20
36.789741079495002
 30
0.0
 11
157.25268124470219
 21
37.785156809830262
 31
0.0
  0
LINE
  5
2C1A
  8
TITLE
 10
156.2572655143635
 20
37.051595697433072
 30
0.0
 11
157.25268124470219
 21
38.047011427768091
 31
0.0
  0
LINE
  5
2C1B
  8
TITLE
 10
160.19255660353551
 20
38.281055734561839
 30
0.0
 11
160.25669792540521
 21
38.345197056431282
 31
0.0
  0
LINE
  5
2C1C
  8
TITLE
 10
159.10776876619821
 20
39.02925022279998
 30
0.0
 11
159.30611452061461
 21
39.227595977216893
 31
0.0
  0
LINE
  5
2C1D
  8
TITLE
 10
159.19505363884531
 20
39.02925022279998
 30
0.0
 11
159.30611452061461
 21
39.140311104569598
 31
0.0
  0
LINE
  5
2C1E
  8
TITLE
 10
159.28233851149241
 20
39.02925022279998
 30
0.0
 11
159.30611452061461
 21
39.053026231922772
 31
0.0
  0
LINE
  5
2C1F
  8
TITLE
 10
160.0148037945464
 20
36.18303572734964
 30
0.0
 11
160.11618629370511
 21
36.284418226511548
 31
0.0
  0
LINE
  5
2C20
  8
TITLE
 10
160.0148037945464
 20
36.270320599996801
 30
0.0
 11
160.0289014210648
 21
36.284418226511548
 31
0.0
  0
LINE
  5
2C21
  8
TITLE
 10
160.19255660353551
 20
37.233637262802851
 30
0.0
 11
160.2345983449236
 21
37.27567900419411
 31
0.0
  0
LINE
  5
2C22
  8
TITLE
 10
156.2021652330622
 20
34.290664364088208
 30
0.0
 11
157.25268124470219
 21
35.341180375727959
 31
0.0
  0
LINE
  5
2C23
  8
TITLE
 10
156.28945010570931
 20
34.290664364088208
 30
0.0
 11
157.25268124470219
 21
35.253895503080791
 31
0.0
  0
LINE
  5
2C24
  8
TITLE
 10
156.37673497835681
 20
34.290664364088208
 30
0.0
 11
157.25268124470219
 21
35.166610630433411
 31
0.0
  0
LINE
  5
2C25
  8
TITLE
 10
156.46401985100371
 20
34.290664364088208
 30
0.0
 11
157.31645191436641
 21
35.143096427454793
 31
0.0
  0
LINE
  5
2C26
  8
TITLE
 10
156.5513047236509
 20
34.290664364088208
 30
0.0
 11
157.40373678701371
 21
35.143096427454793
 31
0.0
  0
LINE
  5
2C27
  8
TITLE
 10
156.63858959629781
 20
34.290664364088208
 30
0.0
 11
157.49102165966059
 21
35.143096427454793
 31
0.0
  0
LINE
  5
2C28
  8
TITLE
 10
158.55885679452101
 20
34.290664364088208
 30
0.0
 11
159.41128885788359
 21
35.143096427454793
 31
0.0
  0
LINE
  5
2C29
  8
TITLE
 10
158.6461416671608
 20
34.290664364088208
 30
0.0
 11
159.48386732960381
 21
35.128390026527541
 31
0.0
  0
LINE
  5
2C2A
  8
TITLE
 10
158.73342653980799
 20
34.290664364088208
 30
0.0
 11
159.48386732960381
 21
35.041105153880281
 31
0.0
  0
LINE
  5
2C2B
  8
TITLE
 10
158.8207114124551
 20
34.290664364088208
 30
0.0
 11
159.48386732960381
 21
34.953820281233341
 31
0.0
  0
LINE
  5
2C2C
  8
TITLE
 10
160.0148037945464
 20
34.786477765006111
 30
0.0
 11
160.20765909336359
 21
34.979333063826623
 31
0.0
  0
LINE
  5
2C2D
  8
TITLE
 10
160.0148037945464
 20
34.873762637653037
 30
0.0
 11
160.1211690158425
 21
34.980127858948762
 31
0.0
  0
LINE
  5
2C2E
  8
TITLE
 10
158.90799628510231
 20
34.290664364088208
 30
0.0
 11
159.48386732960381
 21
34.866535408589677
 31
0.0
  0
LINE
  5
2C2F
  8
TITLE
 10
158.9952811577499
 20
34.290664364088208
 30
0.0
 11
159.48386732960381
 21
34.779250535942431
 31
0.0
  0
LINE
  5
2C30
  8
TITLE
 10
159.08256603039669
 20
34.290664364088208
 30
0.0
 11
159.48386732960381
 21
34.69196566329525
 31
0.0
  0
LINE
  5
2C31
  8
TITLE
 10
159.16985090304371
 20
34.290664364088208
 30
0.0
 11
159.48386732960381
 21
34.604680790648111
 31
0.0
  0
LINE
  5
2C32
  8
TITLE
 10
159.2571357756909
 20
34.290664364088208
 30
0.0
 11
159.48386732960381
 21
34.517395918001171
 31
0.0
  0
LINE
  5
2C33
  8
TITLE
 10
159.3444206483382
 20
34.290664364088208
 30
0.0
 11
159.48386732960381
 21
34.43011104535389
 31
0.0
  0
LINE
  5
2C34
  8
TITLE
 10
159.43170552098559
 20
34.290664364088208
 30
0.0
 11
159.48386732960381
 21
34.342826172707191
 31
0.0
  0
LINE
  5
2C35
  8
TITLE
 10
160.0148037945464
 20
34.961047510296787
 30
0.0
 11
160.03388414319471
 21
34.980127858948762
 31
0.0
  0
LINE
  5
2C36
  8
TITLE
 10
156.72587446894511
 20
34.290664364088208
 30
0.0
 11
157.57830653230801
 21
35.143096427454793
 31
0.0
  0
LINE
  5
2C37
  8
TITLE
 10
156.81315934158511
 20
34.290664364088208
 30
0.0
 11
157.66559140495559
 21
35.143096427454793
 31
0.0
  0
LINE
  5
2C38
  8
TITLE
 10
156.90044421423221
 20
34.290664364088208
 30
0.0
 11
157.7528762776023
 21
35.143096427454793
 31
0.0
  0
LINE
  5
2C39
  8
TITLE
 10
156.98772908687971
 20
34.290664364088208
 30
0.0
 11
157.8401611502494
 21
35.143096427454793
 31
0.0
  0
LINE
  5
2C3A
  8
TITLE
 10
157.0750139595265
 20
34.290664364088208
 30
0.0
 11
157.92744602288971
 21
35.143096427454793
 31
0.0
  0
LINE
  5
2C3B
  8
TITLE
 10
157.16229883217369
 20
34.290664364088208
 30
0.0
 11
158.0147308955365
 21
35.143096427454793
 31
0.0
  0
LINE
  5
2C3C
  8
TITLE
 10
157.24958370482071
 20
34.290664364088208
 30
0.0
 11
158.10201576818361
 21
35.143096427454793
 31
0.0
  0
LINE
  5
2C3D
  8
TITLE
 10
157.3368685774679
 20
34.290664364088208
 30
0.0
 11
158.18930064083071
 21
35.143096427454793
 31
0.0
  0
LINE
  5
2C3E
  8
TITLE
 10
157.4241534501152
 20
34.290664364088208
 30
0.0
 11
158.27658551347841
 21
35.143096427454793
 31
0.0
  0
LINE
  5
2C3F
  8
TITLE
 10
157.51143832276259
 20
34.290664364088208
 30
0.0
 11
158.3638703861252
 21
35.143096427454793
 31
0.0
  0
LINE
  5
2C40
  8
TITLE
 10
157.59872319540941
 20
34.290664364088208
 30
0.0
 11
158.45115525877259
 21
35.143096427454793
 31
0.0
  0
LINE
  5
2C41
  8
TITLE
 10
157.6860080680498
 20
34.290664364088208
 30
0.0
 11
158.53844013141941
 21
35.143096427454793
 31
0.0
  0
LINE
  5
2C42
  8
TITLE
 10
158.38428704922671
 20
34.290664364088208
 30
0.0
 11
159.2367191125899
 21
35.143096427454793
 31
0.0
  0
LINE
  5
2C43
  8
TITLE
 10
158.4715719218737
 20
34.290664364088208
 30
0.0
 11
159.32400398523669
 21
35.143096427454793
 31
0.0
  0
LINE
  5
2C44
  8
TITLE
 10
157.77329294069659
 20
34.290664364088208
 30
0.0
 11
158.6257250040666
 21
35.143096427454793
 31
0.0
  0
LINE
  5
2C45
  8
TITLE
 10
157.86057781334361
 20
34.290664364088208
 30
0.0
 11
158.7130098767137
 21
35.143096427454793
 31
0.0
  0
LINE
  5
2C46
  8
TITLE
 10
157.94786268599091
 20
34.290664364088208
 30
0.0
 11
158.8002947493604
 21
35.143096427454793
 31
0.0
  0
LINE
  5
2C47
  8
TITLE
 10
158.0351475586379
 20
34.290664364088208
 30
0.0
 11
158.88757962200069
 21
35.143096427454793
 31
0.0
  0
LINE
  5
2C48
  8
TITLE
 10
158.1224324312852
 20
34.290664364088208
 30
0.0
 11
158.9748644946479
 21
35.143096427454793
 31
0.0
  0
LINE
  5
2C49
  8
TITLE
 10
158.20971730393231
 20
34.290664364088208
 30
0.0
 11
159.06214936729521
 21
35.143096427454793
 31
0.0
  0
LINE
  5
2C4A
  8
TITLE
 10
158.29700217657941
 20
34.290664364088208
 30
0.0
 11
159.14943423994231
 21
35.143096427454793
 31
0.0
  0
LINE
  5
2C4B
  8
TITLE
 10
156.2572655143635
 20
35.567752862442141
 30
0.0
 11
157.25268124470219
 21
36.563168592780691
 31
0.0
  0
LINE
  5
2C4C
  8
TITLE
 10
156.2572655143635
 20
35.480467989795088
 30
0.0
 11
157.25268124470219
 21
36.475883720133872
 31
0.0
  0
LINE
  5
2C4D
  8
TITLE
 10
156.2572655143635
 20
35.393183117147707
 30
0.0
 11
157.25268124470219
 21
36.388598847486477
 31
0.0
  0
LINE
  5
2C4E
  8
TITLE
 10
156.2572655143635
 20
35.305898244500888
 30
0.0
 11
157.25268124470219
 21
36.301313974839218
 31
0.0
  0
LINE
  5
2C4F
  8
TITLE
 10
156.2572655143635
 20
35.218613371857131
 30
0.0
 11
157.25268124470219
 21
36.214029102192512
 31
0.0
  0
LINE
  5
2C50
  8
TITLE
 10
156.2572655143635
 20
35.916892353030789
 30
0.0
 11
157.25268124470219
 21
36.912308083366149
 31
0.0
  0
LINE
  5
2C51
  8
TITLE
 10
156.2572655143635
 20
35.829607480383856
 30
0.0
 11
157.25268124470219
 21
36.825023210718548
 31
0.0
  0
LINE
  5
2C52
  8
TITLE
 10
156.2572655143635
 20
35.742322607736469
 30
0.0
 11
157.25268124470219
 21
36.73773833807536
 31
0.0
  0
LINE
  5
2C53
  8
TITLE
 10
156.2572655143635
 20
35.655037735089209
 30
0.0
 11
157.25268124470219
 21
36.650453465427852
 31
0.0
  0
LINE
  5
2C54
  8
TITLE
 10
156.2572655143635
 20
36.091462098321351
 30
0.0
 11
157.25268124470219
 21
37.086877828656732
 31
0.0
  0
LINE
  5
2C55
  8
TITLE
 10
156.2572655143635
 20
36.004177225674297
 30
0.0
 11
157.25268124470219
 21
36.999592956009323
 31
0.0
  0
LINE
  5
2C56
  8
TITLE
 10
160.0148037945464
 20
36.095750854702722
 30
0.0
 11
160.2034711663517
 21
36.284418226511548
 31
0.0
  0
LINE
  5
2C57
  8
TITLE
 10
160.29380424761661
 20
37.771309270119673
 30
0.0
 11
160.86769203392851
 21
38.345197056431282
 31
0.0
  0
LINE
  5
2C58
  8
TITLE
 10
160.38108912026371
 20
37.771309270119673
 30
0.0
 11
160.9549769065751
 21
38.345197056431282
 31
0.0
  0
LINE
  5
2C59
  8
TITLE
 10
160.46837399291081
 20
37.771309270119673
 30
0.0
 11
161.0422617792228
 21
38.345197056431282
 31
0.0
  0
LINE
  5
2C5A
  8
TITLE
 10
160.555658865558
 20
37.771309270119673
 30
0.0
 11
161.12954665186939
 21
38.345197056431282
 31
0.0
  0
LINE
  5
2C5B
  8
TITLE
 10
160.64294373820559
 20
37.771309270119673
 30
0.0
 11
161.21683152451661
 21
38.345197056431282
 31
0.0
  0
LINE
  5
2C5C
  8
TITLE
 10
160.3238763064227
 20
36.753962857166918
 30
0.0
 11
160.84559245345361
 21
37.27567900419411
 31
0.0
  0
LINE
  5
2C5D
  8
TITLE
 10
160.41116117906981
 20
36.753962857166918
 30
0.0
 11
160.93287732610079
 21
37.27567900419411
 31
0.0
  0
LINE
  5
2C5E
  8
TITLE
 10
160.49844605171711
 20
36.753962857166918
 30
0.0
 11
161.02016219874071
 21
37.27567900419411
 31
0.0
  0
LINE
  5
2C5F
  8
TITLE
 10
160.58573092436379
 20
36.753962857166918
 30
0.0
 11
161.10744707138741
 21
37.27567900419411
 31
0.0
  0
LINE
  5
2C60
  8
TITLE
 10
160.67301579701089
 20
36.753962857166918
 30
0.0
 11
161.194731944035
 21
37.27567900419411
 31
0.0
  0
LINE
  5
2C61
  8
TITLE
 10
160.76030066965811
 20
36.753962857166918
 30
0.0
 11
161.2820168166821
 21
37.27567900419411
 31
0.0
  0
LINE
  5
2C62
  8
TITLE
 10
163.29156197640441
 20
36.753962857166918
 30
0.0
 11
163.81327812342801
 21
37.27567900419411
 31
0.0
  0
LINE
  5
2C63
  8
TITLE
 10
160.99208322878701
 20
37.771309270119673
 30
0.0
 11
161.94853797750781
 21
38.727764018840162
 31
0.0
  0
LINE
  5
2C64
  8
TITLE
 10
161.0793681014338
 20
37.771309270119673
 30
0.0
 11
161.96310099286481
 21
38.655042161550561
 31
0.0
  0
LINE
  5
2C65
  8
TITLE
 10
161.1666529740809
 20
37.771309270119673
 30
0.0
 11
161.97766400822181
 21
38.582320304256882
 31
0.0
  0
LINE
  5
2C66
  8
TITLE
 10
161.25393784672809
 20
37.771309270119673
 30
0.0
 11
161.99222702357881
 21
38.50959844696672
 31
0.0
  0
LINE
  5
2C67
  8
TITLE
 10
161.34122271937511
 20
37.771309270119673
 30
0.0
 11
162.0067900389362
 21
38.436876589676672
 31
0.0
  0
LINE
  5
2C68
  8
TITLE
 10
161.42850759202241
 20
37.771309270119673
 30
0.0
 11
162.02135305428581
 21
38.364154732383092
 31
0.0
  0
LINE
  5
2C69
  8
TITLE
 10
161.5157924646696
 20
37.771309270119673
 30
0.0
 11
162.08968025098139
 21
38.345197056431282
 31
0.0
  0
LINE
  5
2C6A
  8
TITLE
 10
161.60307733731671
 20
37.771309270119673
 30
0.0
 11
162.17696512362809
 21
38.345197056431282
 31
0.0
  0
LINE
  5
2C6B
  8
TITLE
 10
161.69036220995699
 20
37.771309270119673
 30
0.0
 11
162.26424999627531
 21
38.345197056431282
 31
0.0
  0
LINE
  5
2C6C
  8
TITLE
 10
161.77764708260381
 20
37.771309270119673
 30
0.0
 11
162.35153486891471
 21
38.345197056431282
 31
0.0
  0
LINE
  5
2C6D
  8
TITLE
 10
161.86493195525139
 20
37.771309270119673
 30
0.0
 11
162.43881974156281
 21
38.345197056431282
 31
0.0
  0
LINE
  5
2C6E
  8
TITLE
 10
161.95221682789801
 20
37.771309270119673
 30
0.0
 11
162.5261046142094
 21
38.345197056431282
 31
0.0
  0
LINE
  5
2C6F
  8
TITLE
 10
162.03950170054571
 20
37.771309270119673
 30
0.0
 11
162.61338948685659
 21
38.345197056431282
 31
0.0
  0
LINE
  5
2C70
  8
TITLE
 10
160.8475855423051
 20
36.753962857166918
 30
0.0
 11
161.36930168932881
 21
37.27567900419411
 31
0.0
  0
LINE
  5
2C71
  8
TITLE
 10
160.9348704149524
 20
36.753962857166918
 30
0.0
 11
161.45658656197651
 21
37.27567900419411
 31
0.0
  0
LINE
  5
2C72
  8
TITLE
 10
161.02215528759999
 20
36.753962857166918
 30
0.0
 11
161.54387143462361
 21
37.27567900419411
 31
0.0
  0
LINE
  5
2C73
  8
TITLE
 10
161.10944016024661
 20
36.753962857166918
 30
0.0
 11
161.6311563072704
 21
37.27567900419411
 31
0.0
  0
LINE
  5
2C74
  8
TITLE
 10
161.1967250328866
 20
36.753962857166918
 30
0.0
 11
161.71844117991799
 21
37.27567900419411
 31
0.0
  0
LINE
  5
2C75
  8
TITLE
 10
161.28400990553379
 20
36.753962857166918
 30
0.0
 11
161.80572605256461
 21
37.27567900419411
 31
0.0
  0
LINE
  5
2C76
  8
TITLE
 10
161.37129477818141
 20
36.753962857166918
 30
0.0
 11
161.893010925205
 21
37.27567900419411
 31
0.0
  0
LINE
  5
2C77
  8
TITLE
 10
161.45857965082851
 20
36.753962857166918
 30
0.0
 11
161.98029579785211
 21
37.27567900419411
 31
0.0
  0
LINE
  5
2C78
  8
TITLE
 10
161.54586452347559
 20
36.753962857166918
 30
0.0
 11
162.06758067049941
 21
37.27567900419411
 31
0.0
  0
LINE
  5
2C79
  8
TITLE
 10
161.6331493961228
 20
36.753962857166918
 30
0.0
 11
162.15486554314651
 21
37.27567900419411
 31
0.0
  0
LINE
  5
2C7A
  8
TITLE
 10
161.72043426876951
 20
36.753962857166918
 30
0.0
 11
162.24215041579319
 21
37.27567900419411
 31
0.0
  0
LINE
  5
2C7B
  8
TITLE
 10
161.8077191414171
 20
36.753962857166918
 30
0.0
 11
162.32943528844081
 21
37.27567900419411
 31
0.0
  0
LINE
  5
2C7C
  8
TITLE
 10
162.4023921071138
 20
37.610490440808562
 30
0.0
 11
163.13709872274001
 21
38.345197056431282
 31
0.0
  0
LINE
  5
2C7D
  8
TITLE
 10
162.4023921071138
 20
37.52320556816143
 30
0.0
 11
163.22438359538
 21
38.345197056431282
 31
0.0
  0
LINE
  5
2C7E
  8
TITLE
 10
162.4023921071138
 20
37.435920695517773
 30
0.0
 11
163.31166846802671
 21
38.345197056431282
 31
0.0
  0
LINE
  5
2C7F
  8
TITLE
 10
162.4023921071138
 20
37.348635822870961
 30
0.0
 11
163.39895334067381
 21
38.345197056431282
 31
0.0
  0
LINE
  5
2C80
  8
TITLE
 10
161.8950040140644
 20
36.753962857166918
 30
0.0
 11
163.486238213321
 21
38.345197056431282
 31
0.0
  0
LINE
  5
2C81
  8
TITLE
 10
161.9822888867111
 20
36.753962857166918
 30
0.0
 11
163.57352308596811
 21
38.345197056431282
 31
0.0
  0
LINE
  5
2C82
  8
TITLE
 10
162.06957375935141
 20
36.753962857166918
 30
0.0
 11
163.6608079586151
 21
38.345197056431282
 31
0.0
  0
LINE
  5
2C83
  8
TITLE
 10
162.1267865731929
 20
37.771309270119673
 30
0.0
 11
162.70067435950381
 21
38.345197056431282
 31
0.0
  0
LINE
  5
2C84
  8
TITLE
 10
162.21407144584001
 20
37.771309270119673
 30
0.0
 11
162.78795923215139
 21
38.345197056431282
 31
0.0
  0
LINE
  5
2C85
  8
TITLE
 10
162.30135631848671
 20
37.771309270119673
 30
0.0
 11
162.8752441047981
 21
38.345197056431282
 31
0.0
  0
LINE
  5
2C86
  8
TITLE
 10
162.38864119113441
 20
37.771309270119673
 30
0.0
 11
162.9625289774452
 21
38.345197056431282
 31
0.0
  0
LINE
  5
2C87
  8
TITLE
 10
162.4023921071138
 20
37.697775313452098
 30
0.0
 11
163.04981385009279
 21
38.345197056431282
 31
0.0
  0
LINE
  5
2C88
  8
TITLE
 10
162.33142837729281
 20
36.753962857166918
 30
0.0
 11
163.29115615205851
 21
37.71369063193287
 31
0.0
  0
LINE
  5
2C89
  8
TITLE
 10
162.4023921071138
 20
36.737641714344122
 30
0.0
 11
163.29115615205851
 21
37.626405759286072
 31
0.0
  0
LINE
  5
2C8A
  8
TITLE
 10
162.4023921071138
 20
36.650356841696741
 30
0.0
 11
163.29115615205851
 21
37.539120886638791
 31
0.0
  0
LINE
  5
2C8B
  8
TITLE
 10
162.4023921071138
 20
36.563071969049922
 30
0.0
 11
163.29115615205851
 21
37.451836013995141
 31
0.0
  0
LINE
  5
2C8C
  8
TITLE
 10
162.4023921071138
 20
36.475787096406179
 30
0.0
 11
163.29115615205851
 21
37.364551141347761
 31
0.0
  0
LINE
  5
2C8D
  8
TITLE
 10
162.4023921071138
 20
36.38850222375936
 30
0.0
 11
163.29115615205851
 21
37.2772662687006
 31
0.0
  0
LINE
  5
2C8E
  8
TITLE
 10
162.4023921071138
 20
36.301217351111852
 30
0.0
 11
163.37685376019951
 21
37.27567900419411
 31
0.0
  0
LINE
  5
2C8F
  8
TITLE
 10
163.7279863396401
 20
36.753962857166918
 30
0.0
 11
164.24970248666381
 21
37.27567900419411
 31
0.0
  0
LINE
  5
2C90
  8
TITLE
 10
163.81527121228731
 20
36.753962857166918
 30
0.0
 11
164.33698735931091
 21
37.27567900419411
 31
0.0
  0
LINE
  5
2C91
  8
TITLE
 10
163.37884684905151
 20
36.753962857166918
 30
0.0
 11
163.90056299607511
 21
37.27567900419411
 31
0.0
  0
LINE
  5
2C92
  8
TITLE
 10
163.46613172169859
 20
36.753962857166918
 30
0.0
 11
163.9878478687221
 21
37.27567900419411
 31
0.0
  0
LINE
  5
2C93
  8
TITLE
 10
163.55341659434541
 20
36.753962857166918
 30
0.0
 11
164.0751327413694
 21
37.27567900419411
 31
0.0
  0
LINE
  5
2C94
  8
TITLE
 10
163.64070146699251
 20
36.753962857166918
 30
0.0
 11
164.16241761401659
 21
37.27567900419411
 31
0.0
  0
LINE
  5
2C95
  8
TITLE
 10
162.6612458089015
 20
34.290664364088208
 30
0.0
 11
163.29115615205851
 21
34.920574707245457
 31
0.0
  0
LINE
  5
2C96
  8
TITLE
 10
162.7485306815488
 20
34.290664364088208
 30
0.0
 11
163.29115615205851
 21
34.833289834598759
 31
0.0
  0
LINE
  5
2C97
  8
TITLE
 10
162.8358155541959
 20
34.290664364088208
 30
0.0
 11
163.29115615205851
 21
34.746004961954782
 31
0.0
  0
LINE
  5
2C98
  8
TITLE
 10
162.9231004268425
 20
34.290664364088208
 30
0.0
 11
163.29115615205851
 21
34.65872008930797
 31
0.0
  0
LINE
  5
2C99
  8
TITLE
 10
163.01038529948971
 20
34.290664364088208
 30
0.0
 11
163.29115615205851
 21
34.571435216660461
 31
0.0
  0
LINE
  5
2C9A
  8
TITLE
 10
163.09767017213741
 20
34.290664364088208
 30
0.0
 11
163.29115615205851
 21
34.484150344016811
 31
0.0
  0
LINE
  5
2C9B
  8
TITLE
 10
163.1849550447773
 20
34.290664364088208
 30
0.0
 11
163.29115615205851
 21
34.396865471369772
 31
0.0
  0
LINE
  5
2C9C
  8
TITLE
 10
163.27223991742429
 20
34.290664364088208
 30
0.0
 11
163.29115615205851
 21
34.309580598722718
 31
0.0
  0
LINE
  5
2C9D
  8
TITLE
 10
161.44498062361481
 20
34.645526886440052
 30
0.0
 11
162.35071042157551
 21
35.55125668439689
 31
0.0
  0
LINE
  5
2C9E
  8
TITLE
 10
161.71786840926259
 20
34.831129799436781
 30
0.0
 11
162.16510750857501
 21
35.278368898749349
 31
0.0
  0
LINE
  5
2C9F
  8
TITLE
 10
162.4023921071138
 20
34.730089643477861
 30
0.0
 11
163.29115615205851
 21
35.618853688419229
 31
0.0
  0
LINE
  5
2CA0
  8
TITLE
 10
162.4023921071138
 20
34.642804770830693
 30
0.0
 11
163.29115615205851
 21
35.531568815772182
 31
0.0
  0
LINE
  5
2CA1
  8
TITLE
 10
162.4023921071138
 20
34.55551989818332
 30
0.0
 11
163.29115615205851
 21
35.444283943124901
 31
0.0
  0
LINE
  5
2CA2
  8
TITLE
 10
162.4023921071138
 20
34.46823502553606
 30
0.0
 11
163.29115615205851
 21
35.35699907048113
 31
0.0
  0
LINE
  5
2CA3
  8
TITLE
 10
162.4023921071138
 20
34.380950152888758
 30
0.0
 11
163.29115615205851
 21
35.269714197834318
 31
0.0
  0
LINE
  5
2CA4
  8
TITLE
 10
162.4023921071138
 20
34.293665280241719
 30
0.0
 11
163.29115615205851
 21
35.182429325186931
 31
0.0
  0
LINE
  5
2CA5
  8
TITLE
 10
162.48667606360721
 20
34.290664364088208
 30
0.0
 11
163.29115615205851
 21
35.095144452540133
 31
0.0
  0
LINE
  5
2CA6
  8
TITLE
 10
162.573960936254
 20
34.290664364088208
 30
0.0
 11
163.29115615205851
 21
35.007859579892717
 31
0.0
  0
LINE
  5
2CA7
  8
TITLE
 10
163.66372972693171
 20
35.11857853682784
 30
0.0
 11
164.33267756657139
 21
35.787526376463802
 31
0.0
  0
LINE
  5
2CA8
  8
TITLE
 10
163.7060649334779
 20
35.0736288707269
 30
0.0
 11
164.3550569315961
 21
35.722620868848921
 31
0.0
  0
LINE
  5
2CA9
  8
TITLE
 10
160.30949041180199
 20
34.295600528440097
 30
0.0
 11
162.29830810986951
 21
36.284418226511548
 31
0.0
  0
LINE
  5
2CAA
  8
TITLE
 10
160.40476624130341
 20
34.303591485298632
 30
0.0
 11
162.38559298251661
 21
36.284418226511548
 31
0.0
  0
LINE
  5
2CAB
  8
TITLE
 10
160.3188350089529
 20
35.78878796058585
 30
0.0
 11
160.8144652748818
 21
36.284418226511548
 31
0.0
  0
LINE
  5
2CAC
  8
TITLE
 10
160.4061198816002
 20
35.78878796058585
 30
0.0
 11
160.9017501475295
 21
36.284418226511548
 31
0.0
  0
LINE
  5
2CAD
  8
TITLE
 10
160.49340475424731
 20
35.78878796058585
 30
0.0
 11
160.98903502016941
 21
36.284418226511548
 31
0.0
  0
LINE
  5
2CAE
  8
TITLE
 10
160.58068962689441
 20
35.78878796058585
 30
0.0
 11
161.07631989281691
 21
36.284418226511548
 31
0.0
  0
LINE
  5
2CAF
  8
TITLE
 10
160.66797449954171
 20
35.78878796058585
 30
0.0
 11
161.1636047654637
 21
36.284418226511548
 31
0.0
  0
LINE
  5
2CB0
  8
TITLE
 10
160.7552593721889
 20
35.78878796058585
 30
0.0
 11
161.25088963811081
 21
36.284418226511548
 31
0.0
  0
LINE
  5
2CB1
  8
TITLE
 10
160.50423453726211
 20
34.31577490860969
 30
0.0
 11
163.46413863284661
 21
37.27567900419411
 31
0.0
  0
LINE
  5
2CB2
  8
TITLE
 10
160.60857848272451
 20
34.3328339814285
 30
0.0
 11
163.5514235054934
 21
37.27567900419411
 31
0.0
  0
LINE
  5
2CB3
  8
TITLE
 10
160.718721629127
 20
34.355692255183797
 30
0.0
 11
163.6387083781409
 21
37.27567900419411
 31
0.0
  0
LINE
  5
2CB4
  8
TITLE
 10
160.84254424483581
 20
35.78878796058585
 30
0.0
 11
161.33817451075811
 21
36.284418226511548
 31
0.0
  0
LINE
  5
2CB5
  8
TITLE
 10
160.92982911748311
 20
35.78878796058585
 30
0.0
 11
161.42545938340481
 21
36.284418226511548
 31
0.0
  0
LINE
  5
2CB6
  8
TITLE
 10
161.0171139901303
 20
35.78878796058585
 30
0.0
 11
161.5127442560524
 21
36.284418226511548
 31
0.0
  0
LINE
  5
2CB7
  8
TITLE
 10
161.1043988627774
 20
35.78878796058585
 30
0.0
 11
161.6000291286995
 21
36.284418226511548
 31
0.0
  0
LINE
  5
2CB8
  8
TITLE
 10
161.19168373541731
 20
35.78878796058585
 30
0.0
 11
161.6873140013461
 21
36.284418226511548
 31
0.0
  0
LINE
  5
2CB9
  8
TITLE
 10
161.2789686080649
 20
35.78878796058585
 30
0.0
 11
161.77459887399391
 21
36.284418226511548
 31
0.0
  0
LINE
  5
2CBA
  8
TITLE
 10
161.3589777037532
 20
35.781512183627569
 30
0.0
 11
161.86188374664101
 21
36.284418226511548
 31
0.0
  0
LINE
  5
2CBB
  8
TITLE
 10
161.30235564884961
 20
35.637605256076881
 30
0.0
 11
161.9491686192809
 21
36.284418226511548
 31
0.0
  0
LINE
  5
2CBC
  8
TITLE
 10
161.15161035021299
 20
35.3995750847929
 30
0.0
 11
162.03645349192811
 21
36.284418226511548
 31
0.0
  0
LINE
  5
2CBD
  8
TITLE
 10
160.8359669095943
 20
34.38565266300418
 30
0.0
 11
163.72599325078079
 21
37.27567900419411
 31
0.0
  0
LINE
  5
2CBE
  8
TITLE
 10
160.96226088844679
 20
34.424661769209592
 30
0.0
 11
163.29115615205851
 21
36.75355703282149
 31
0.0
  0
LINE
  5
2CBF
  8
TITLE
 10
161.1007575288526
 20
34.475873536971761
 30
0.0
 11
163.29115615205851
 21
36.666272160174572
 31
0.0
  0
LINE
  5
2CC0
  8
TITLE
 10
161.2572456288529
 20
34.545076764320918
 30
0.0
 11
163.29115615205851
 21
36.578987287530822
 31
0.0
  0
LINE
  5
2CC1
  8
TITLE
 10
162.4023921071138
 20
34.991944261411838
 30
0.0
 11
163.69486607220941
 21
36.284418226511548
 31
0.0
  0
LINE
  5
2CC2
  8
TITLE
 10
162.4023921071138
 20
34.904659388768202
 30
0.0
 11
163.78215094485671
 21
36.284418226511548
 31
0.0
  0
LINE
  5
2CC3
  8
TITLE
 10
162.4023921071138
 20
35.60293836994186
 30
0.0
 11
163.29115615205851
 21
36.491702414883541
 31
0.0
  0
LINE
  5
2CC4
  8
TITLE
 10
162.4023921071138
 20
35.515653497294572
 30
0.0
 11
163.29115615205851
 21
36.40441754223626
 31
0.0
  0
LINE
  5
2CC5
  8
TITLE
 10
162.4023921071138
 20
35.428368624647753
 30
0.0
 11
163.29115615205851
 21
36.317132669592851
 31
0.0
  0
LINE
  5
2CC6
  8
TITLE
 10
162.4023921071138
 20
35.341083752000358
 30
0.0
 11
163.3457265816277
 21
36.284418226511548
 31
0.0
  0
LINE
  5
2CC7
  8
TITLE
 10
162.4023921071138
 20
35.253798879352992
 30
0.0
 11
163.4330114542754
 21
36.284418226511548
 31
0.0
  0
LINE
  5
2CC8
  8
TITLE
 10
162.4023921071138
 20
35.166514006706173
 30
0.0
 11
163.52029632692251
 21
36.284418226511548
 31
0.0
  0
LINE
  5
2CC9
  8
TITLE
 10
162.4023921071138
 20
35.079229134059119
 30
0.0
 11
163.60758119956941
 21
36.284418226511548
 31
0.0
  0
LINE
  5
2CCA
  8
TITLE
 10
163.29967983550611
 20
35.627377371866373
 30
0.0
 11
163.9567206901508
 21
36.284418226511548
 31
0.0
  0
LINE
  5
2CCB
  8
TITLE
 10
163.33104717638199
 20
35.5714598400981
 30
0.0
 11
164.04400556279811
 21
36.284418226511548
 31
0.0
  0
LINE
  5
2CCC
  8
TITLE
 10
163.36358074300259
 20
35.516708534072109
 30
0.0
 11
164.13129043544541
 21
36.284418226511548
 31
0.0
  0
LINE
  5
2CCD
  8
TITLE
 10
163.39725859875341
 20
35.463101517168852
 30
0.0
 11
164.21857530809251
 21
36.284418226511548
 31
0.0
  0
LINE
  5
2CCE
  8
TITLE
 10
163.43206153260951
 20
35.410619578384612
 30
0.0
 11
164.30586018073959
 21
36.284418226511548
 31
0.0
  0
LINE
  5
2CCF
  8
TITLE
 10
162.4023921071138
 20
34.817374516121149
 30
0.0
 11
163.8694358175039
 21
36.284418226511548
 31
0.0
  0
LINE
  5
2CD0
  8
TITLE
 10
160.0148037945464
 20
39.412576015269451
 30
0.0
 11
160.01694288793851
 21
39.414715108664723
 31
0.0
  0
LINE
  5
2CD1
  8
TITLE
 10
160.0148037945464
 20
39.32529114262217
 30
0.0
 11
160.1042277605855
 21
39.414715108664723
 31
0.0
  0
LINE
  5
2CD2
  8
TITLE
 10
160.61614987812891
 20
39.664782608266712
 30
0.0
 11
160.8066555212211
 21
39.855288251358161
 31
0.0
  0
LINE
  5
2CD3
  8
TITLE
 10
160.6441053880551
 20
39.605453245545853
 30
0.0
 11
160.89394039386781
 21
39.855288251358161
 31
0.0
  0
LINE
  5
2CD4
  8
TITLE
 10
160.67206089798839
 20
39.546123882831921
 30
0.0
 11
160.98122526651511
 21
39.855288251358161
 31
0.0
  0
LINE
  5
2CD5
  8
TITLE
 10
160.7000164079148
 20
39.486794520118004
 30
0.0
 11
161.0685101391623
 21
39.855288251358161
 31
0.0
  0
LINE
  5
2CD6
  8
TITLE
 10
160.72797191784841
 20
39.427465157397123
 30
0.0
 11
161.1557950118094
 21
39.855288251358161
 31
0.0
  0
LINE
  5
2CD7
  8
TITLE
 10
160.53228334833551
 20
39.842770696411208
 30
0.0
 11
160.54480090327971
 21
39.855288251358161
 31
0.0
  0
LINE
  5
2CD8
  8
TITLE
 10
160.5602388582692
 20
39.783441333693759
 30
0.0
 11
160.63208577592641
 21
39.855288251358161
 31
0.0
  0
LINE
  5
2CD9
  8
TITLE
 10
160.58819436819519
 20
39.724111970980182
 30
0.0
 11
160.7193706485736
 21
39.855288251358161
 31
0.0
  0
LINE
  5
2CDA
  8
TITLE
 10
163.20754153537641
 20
39.637628086121133
 30
0.0
 11
163.42520170061371
 21
39.855288251358161
 31
0.0
  0
LINE
  5
2CDB
  8
TITLE
 10
163.20754153537641
 20
39.550343213474079
 30
0.0
 11
163.5124865732609
 21
39.855288251358161
 31
0.0
  0
LINE
  5
2CDC
  8
TITLE
 10
163.20754153537641
 20
39.463058340826699
 30
0.0
 11
163.5997714459084
 21
39.855288251358161
 31
0.0
  0
LINE
  5
2CDD
  8
TITLE
 10
163.20754153537641
 20
39.812197831411808
 30
0.0
 11
163.25063195531931
 21
39.855288251358161
 31
0.0
  0
LINE
  5
2CDE
  8
TITLE
 10
163.20754153537641
 20
39.724912958765003
 30
0.0
 11
163.3379168279665
 21
39.855288251358161
 31
0.0
  0
LINE
  5
2CDF
  8
TITLE
 10
161.81601004633541
 20
39.642654559420052
 30
0.0
 11
162.0286437382737
 21
39.855288251358161
 31
0.0
  0
LINE
  5
2CE0
  8
TITLE
 10
161.81601004633541
 20
39.555369686772792
 30
0.0
 11
162.1159286109208
 21
39.855288251358161
 31
0.0
  0
LINE
  5
2CE1
  8
TITLE
 10
161.81601004633541
 20
39.468084814125618
 30
0.0
 11
162.20321348356811
 21
39.855288251358161
 31
0.0
  0
LINE
  5
2CE2
  8
TITLE
 10
161.81601004633541
 20
39.817224304714152
 30
0.0
 11
161.85407399297981
 21
39.855288251358161
 31
0.0
  0
LINE
  5
2CE3
  8
TITLE
 10
161.81601004633541
 20
39.729939432067091
 30
0.0
 11
161.94135886562651
 21
39.855288251358161
 31
0.0
  0
LINE
  5
2CE4
  8
TITLE
 10
154.875
 20
67.5
 30
0.0
 11
154.875
 21
52.5
 31
0.0
  0
LINE
  5
2CE5
  8
TITLE
 10
169.875
 20
52.5
 30
0.0
 11
169.875
 21
42.5
 31
0.0
  0
LINE
  5
2CE6
  8
TITLE
 10
180.673038484198
 20
38.773301779179747
 30
0.0
 11
181.7324988401233
 21
39.832762135112482
 31
0.0
  0
LINE
  5
2CE7
  8
TITLE
 10
179.30763632220351
 20
37.844323980424512
 30
0.0
 11
181.31860059313701
 21
39.855288251358161
 31
0.0
  0
LINE
  5
2CE8
  8
TITLE
 10
179.9825343084444
 20
38.344652221363852
 30
0.0
 11
181.4931703384313
 21
39.855288251358161
 31
0.0
  0
LINE
  5
2CE9
  8
TITLE
 10
180.1749566122628
 20
38.449789652542691
 30
0.0
 11
181.5804552110784
 21
39.855288251358161
 31
0.0
  0
LINE
  5
2CEA
  8
TITLE
 10
179.8089045348305
 20
38.258307320404469
 30
0.0
 11
181.40588546578411
 21
39.855288251358161
 31
0.0
  0
LINE
  5
2CEB
  8
TITLE
 10
180.39642081793039
 20
38.583968985559629
 30
0.0
 11
181.6677400837255
 21
39.855288251354871
 31
0.0
  0
LINE
  5
2CEC
  8
TITLE
 10
180.64192957407201
 20
34.290664364088208
 30
0.0
 11
181.3583122065088
 21
35.007046996521801
 31
0.0
  0
LINE
  5
2CED
  8
TITLE
 10
180.72921444671911
 20
34.290664364088208
 30
0.0
 11
181.44559707914911
 21
35.007046996521801
 31
0.0
  0
LINE
  5
2CEE
  8
TITLE
 10
180.62811698430551
 20
36.28440384518489
 30
0.0
 11
181.33196672157911
 21
36.988253582461773
 31
0.0
  0
LINE
  5
2CEF
  8
TITLE
 10
180.71540185694531
 20
36.28440384518489
 30
0.0
 11
181.41925159422581
 21
36.988253582461773
 31
0.0
  0
LINE
  5
2CF0
  8
TITLE
 10
180.55314311294831
 20
37.431418190884401
 30
0.0
 11
181.33519837659151
 21
38.213473454524433
 31
0.0
  0
LINE
  5
2CF1
  8
TITLE
 10
180.64042798559601
 20
37.431418190884401
 30
0.0
 11
181.4224832492317
 21
38.213473454524433
 31
0.0
  0
LINE
  5
2CF2
  8
TITLE
 10
180.7277128582422
 20
37.431418190884401
 30
0.0
 11
181.50976812187841
 21
38.213473454524433
 31
0.0
  0
LINE
  5
2CF3
  8
TITLE
 10
179.0937551089996
 20
37.979582257802448
 30
0.0
 11
180.96946110255561
 21
39.855288251358161
 31
0.0
  0
LINE
  5
2CF4
  8
TITLE
 10
179.2227114978985
 20
38.021253774057868
 30
0.0
 11
181.0567459752028
 21
39.855288251358161
 31
0.0
  0
LINE
  5
2CF5
  8
TITLE
 10
179.30763632220351
 20
38.018893725715202
 30
0.0
 11
181.14403084784951
 21
39.855288251358161
 31
0.0
  0
LINE
  5
2CF6
  8
TITLE
 10
179.30763632220351
 20
37.9316088530719
 30
0.0
 11
181.2313157204897
 21
39.855288251358161
 31
0.0
  0
LINE
  5
2CF7
  8
TITLE
 10
179.42597096264521
 20
35.605967059410759
 30
0.0
 11
180.80825748569541
 21
36.988253582461773
 31
0.0
  0
LINE
  5
2CF8
  8
TITLE
 10
180.11822033819581
 20
34.290664364088208
 30
0.0
 11
180.83460297062581
 21
35.007046996521801
 31
0.0
  0
LINE
  5
2CF9
  8
TITLE
 10
180.205505210843
 20
34.290664364088208
 30
0.0
 11
180.9218878432728
 21
35.007046996521801
 31
0.0
  0
LINE
  5
2CFA
  8
TITLE
 10
180.2927900834901
 20
34.290664364088208
 30
0.0
 11
181.00917271591999
 21
35.007046996521801
 31
0.0
  0
LINE
  5
2CFB
  8
TITLE
 10
180.38007495613769
 20
34.290664364088208
 30
0.0
 11
181.0964575885672
 21
35.007046996521801
 31
0.0
  0
LINE
  5
2CFC
  8
TITLE
 10
180.46735982878451
 20
34.290664364088208
 30
0.0
 11
181.18374246121439
 21
35.007046996521801
 31
0.0
  0
LINE
  5
2CFD
  8
TITLE
 10
180.55464470142479
 20
34.290664364088208
 30
0.0
 11
181.2710273338615
 21
35.007046996521801
 31
0.0
  0
LINE
  5
2CFE
  8
TITLE
 10
180.5408321116582
 20
36.28440384518489
 30
0.0
 11
181.24468184893141
 21
36.988253582461773
 31
0.0
  0
LINE
  5
2CFF
  8
TITLE
 10
180.02943387707219
 20
37.431418190884401
 30
0.0
 11
180.8114891407088
 21
38.213473454524433
 31
0.0
  0
LINE
  5
2D00
  8
TITLE
 10
180.11671874971941
 20
37.431418190884401
 30
0.0
 11
180.8987740133561
 21
38.213473454524433
 31
0.0
  0
LINE
  5
2D01
  8
TITLE
 10
180.2040036223668
 20
37.431418190884401
 30
0.0
 11
180.98605888600281
 21
38.213473454524433
 31
0.0
  0
LINE
  5
2D02
  8
TITLE
 10
180.2912884950068
 20
37.431418190884401
 30
0.0
 11
181.07334375865031
 21
38.213473454524433
 31
0.0
  0
LINE
  5
2D03
  8
TITLE
 10
180.3785733676541
 20
37.431418190884401
 30
0.0
 11
181.1606286312975
 21
38.213473454524433
 31
0.0
  0
LINE
  5
2D04
  8
TITLE
 10
180.46585824030109
 20
37.431418190884401
 30
0.0
 11
181.2479135039448
 21
38.213473454524433
 31
0.0
  0
LINE
  5
2D05
  8
TITLE
 10
178.85011463170611
 20
37.91051152580701
 30
0.0
 11
180.79489135726121
 21
39.855288251358161
 31
0.0
  0
LINE
  5
2D06
  8
TITLE
 10
178.9697636220798
 20
37.942875643533398
 30
0.0
 11
180.88217622990851
 21
39.855288251358161
 31
0.0
  0
LINE
  5
2D07
  8
TITLE
 10
178.7072920514297
 20
34.800003275544867
 30
0.0
 11
180.89554235834279
 21
36.988253582461773
 31
0.0
  0
LINE
  5
2D08
  8
TITLE
 10
178.7072920514297
 20
34.712718402897721
 30
0.0
 11
180.9828272309901
 21
36.988253582461773
 31
0.0
  0
LINE
  5
2D09
  8
TITLE
 10
178.7072920514297
 20
34.625433530250902
 30
0.0
 11
181.07011210363771
 21
36.988253582461773
 31
0.0
  0
LINE
  5
2D0A
  8
TITLE
 10
178.7072920514297
 20
34.538148657607159
 30
0.0
 11
181.15739697628479
 21
36.988253582461773
 31
0.0
  0
LINE
  5
2D0B
  8
TITLE
 10
172.467552497817
 20
38.42345433098194
 30
0.0
 11
173.17186919796671
 21
39.12777103113114
 31
0.0
  0
LINE
  5
2D0C
  8
TITLE
 10
172.5548373704641
 20
38.42345433098194
 30
0.0
 11
173.2591540706139
 21
39.12777103113114
 31
0.0
  0
LINE
  5
2D0D
  8
TITLE
 10
172.29475386004361
 20
34.322836424122201
 30
0.0
 11
173.15670774170559
 21
35.184790305784759
 31
0.0
  0
LINE
  5
2D0E
  8
TITLE
 10
172.3507909155168
 20
34.291588606948039
 30
0.0
 11
173.25261030160979
 21
35.19340799303427
 31
0.0
  0
LINE
  5
2D0F
  8
TITLE
 10
172.4401466895483
 20
34.293659508329029
 30
0.0
 11
173.3492241826178
 21
35.202737001402397
 31
0.0
  0
LINE
  5
2D10
  8
TITLE
 10
172.5302638594365
 20
34.29649180557783
 30
0.0
 11
173.44656687467611
 21
35.212794820813201
 31
0.0
  0
LINE
  5
2D11
  8
TITLE
 10
172.4514693816254
 20
37.010813252449907
 30
0.0
 11
173.15979363709161
 21
37.719137507916351
 31
0.0
  0
LINE
  5
2D12
  8
TITLE
 10
172.49059017030109
 20
36.962649168479047
 30
0.0
 11
173.24707850973829
 21
37.719137507916351
 31
0.0
  0
LINE
  5
2D13
  8
TITLE
 10
172.29475386004361
 20
38.774364929091327
 30
0.0
 11
172.64815996208381
 21
39.12777103113114
 31
0.0
  0
LINE
  5
2D14
  8
TITLE
 10
172.29475386004361
 20
38.425225438502721
 30
0.0
 11
172.99729945267231
 21
39.12777103113114
 31
0.0
  0
LINE
  5
2D15
  8
TITLE
 10
172.38026762516981
 20
38.42345433098194
 30
0.0
 11
173.0845843253195
 21
39.12777103113114
 31
0.0
  0
LINE
  5
2D16
  8
TITLE
 10
172.29475386004361
 20
38.5997951837968
 30
0.0
 11
172.8227297073781
 21
39.12777103113114
 31
0.0
  0
LINE
  5
2D17
  8
TITLE
 10
172.29475386004361
 20
38.512510311149747
 30
0.0
 11
172.91001458002481
 21
39.12777103113114
 31
0.0
  0
LINE
  5
2D18
  8
TITLE
 10
172.29475386004361
 20
38.687080056444309
 30
0.0
 11
172.73544483473091
 21
39.12777103113114
 31
0.0
  0
LINE
  5
2D19
  8
TITLE
 10
172.29475386004361
 20
34.759260787354151
 30
0.0
 11
172.68730457385701
 21
35.151811501164261
 31
0.0
  0
LINE
  5
2D1A
  8
TITLE
 10
172.29475386004361
 20
34.671975914707239
 30
0.0
 11
172.77988720518059
 21
35.157109259844091
 31
0.0
  0
LINE
  5
2D1B
  8
TITLE
 10
172.29475386004361
 20
34.584691042060051
 30
0.0
 11
172.87310449274841
 21
35.16304167476153
 31
0.0
  0
LINE
  5
2D1C
  8
TITLE
 10
172.29475386004361
 20
34.497406169416521
 30
0.0
 11
172.9669704731636
 21
35.169622782536749
 31
0.0
  0
LINE
  5
2D1D
  8
TITLE
 10
172.29475386004361
 20
34.410121296769262
 30
0.0
 11
173.0614997920751
 21
35.17686722879386
 31
0.0
  0
LINE
  5
2D1E
  8
TITLE
 10
172.29475386004361
 20
34.846545659997787
 30
0.0
 11
172.59534313633139
 21
35.147134936285852
 31
0.0
  0
LINE
  5
2D1F
  8
TITLE
 10
172.4514693816254
 20
37.53452248832604
 30
0.0
 11
172.63608440120871
 21
37.719137507916351
 31
0.0
  0
LINE
  5
2D20
  8
TITLE
 10
172.4514693816254
 20
37.44723761567878
 30
0.0
 11
172.72336927385581
 21
37.719137507916351
 31
0.0
  0
LINE
  5
2D21
  8
TITLE
 10
172.4514693816254
 20
37.359952743031492
 30
0.0
 11
172.8106541465026
 21
37.719137507916351
 31
0.0
  0
LINE
  5
2D22
  8
TITLE
 10
172.4514693816254
 20
37.272667870387849
 30
0.0
 11
172.89793901914979
 21
37.719137507916351
 31
0.0
  0
LINE
  5
2D23
  8
TITLE
 10
172.4514693816254
 20
37.185382997741158
 30
0.0
 11
172.9852238917974
 21
37.719137507916351
 31
0.0
  0
LINE
  5
2D24
  8
TITLE
 10
172.4514693816254
 20
37.098098125093649
 30
0.0
 11
173.07250876444451
 21
37.719137507916351
 31
0.0
  0
LINE
  5
2D25
  8
TITLE
 10
172.57787504294851
 20
36.962649168479047
 30
0.0
 11
173.3343633823855
 21
37.719137507916351
 31
0.0
  0
LINE
  5
2D26
  8
TITLE
 10
168.6542932481868
 20
39.149008458971352
 30
0.0
 11
169.36057304057741
 21
39.855288251358161
 31
0.0
  0
LINE
  5
2D27
  8
TITLE
 10
168.7082057942402
 20
39.290205877672172
 30
0.0
 11
169.27328816792979
 21
39.855288251358161
 31
0.0
  0
LINE
  5
2D28
  8
TITLE
 10
169.75336302846321
 20
38.502380786315257
 30
0.0
 11
170.56305938401781
 21
39.31207714186985
 31
0.0
  0
LINE
  5
2D29
  8
TITLE
 10
169.19387162427651
 20
38.553883490655153
 30
0.0
 11
170.49527638497591
 21
39.855288251358161
 31
0.0
  0
LINE
  5
2D2A
  8
TITLE
 10
169.28115649692381
 20
38.553883490655153
 30
0.0
 11
170.56305938401781
 21
39.835786377745883
 31
0.0
  0
LINE
  5
2D2B
  8
TITLE
 10
169.3684413695708
 20
38.553883490655153
 30
0.0
 11
170.56305938401781
 21
39.748501505102013
 31
0.0
  0
LINE
  5
2D2C
  8
TITLE
 10
169.45572624221811
 20
38.553883490655153
 30
0.0
 11
170.56305938401781
 21
39.661216632454718
 31
0.0
  0
LINE
  5
2D2D
  8
TITLE
 10
169.5430111148651
 20
38.553883490655153
 30
0.0
 11
170.56305938401781
 21
39.57393175980792
 31
0.0
  0
LINE
  5
2D2E
  8
TITLE
 10
169.63029598750509
 20
38.553883490655153
 30
0.0
 11
170.56305938401781
 21
39.48664688716417
 31
0.0
  0
LINE
  5
2D2F
  8
TITLE
 10
169.71758086015271
 20
38.553883490655153
 30
0.0
 11
170.56305938401781
 21
39.399362014516903
 31
0.0
  0
LINE
  5
2D30
  8
TITLE
 10
169.75336302846321
 20
39.287944640132991
 30
0.0
 11
170.32070663968881
 21
39.855288251358161
 31
0.0
  0
LINE
  5
2D31
  8
TITLE
 10
169.75336302846321
 20
39.20065976748571
 30
0.0
 11
170.40799151233611
 21
39.855288251358161
 31
0.0
  0
LINE
  5
2D32
  8
TITLE
 10
164.60189006294681
 20
38.762569924883323
 30
0.0
 11
165.2540352467316
 21
39.414715108664723
 31
0.0
  0
LINE
  5
2D33
  8
TITLE
 10
164.68917493559411
 20
38.762569924883323
 30
0.0
 11
165.34132011937891
 21
39.414715108664723
 31
0.0
  0
LINE
  5
2D34
  8
TITLE
 10
164.77645980824079
 20
38.762569924883323
 30
0.0
 11
165.42860499201871
 21
39.414715108664723
 31
0.0
  0
LINE
  5
2D35
  8
TITLE
 10
164.86374468088781
 20
38.762569924883323
 30
0.0
 11
165.51588986466581
 21
39.414715108664723
 31
0.0
  0
LINE
  5
2D36
  8
TITLE
 10
166.880246378229
 20
38.946089296648211
 30
0.0
 11
167.7160621819707
 21
39.781905100389729
 31
0.0
  0
LINE
  5
2D37
  8
TITLE
 10
166.880246378229
 20
39.120659041938772
 30
0.0
 11
167.61487558764881
 21
39.855288251358161
 31
0.0
  0
LINE
  5
2D38
  8
TITLE
 10
166.880246378229
 20
39.03337416929196
 30
0.0
 11
167.7021604602887
 21
39.855288251358161
 31
0.0
  0
LINE
  5
2D39
  8
TITLE
 10
166.880246378229
 20
39.295228787233562
 30
0.0
 11
167.44030584235381
 21
39.855288251358161
 31
0.0
  0
LINE
  5
2D3A
  8
TITLE
 10
166.880246378229
 20
39.207943914586053
 30
0.0
 11
167.52759071500151
 21
39.855288251358161
 31
0.0
  0
LINE
  5
2D3B
  8
TITLE
 10
164.95102955353511
 20
38.762569924883323
 30
0.0
 11
165.60317473731311
 21
39.414715108664723
 31
0.0
  0
LINE
  5
2D3C
  8
TITLE
 10
165.03831442618261
 20
38.762569924883323
 30
0.0
 11
165.67874446463281
 21
39.402999963329762
 31
0.0
  0
LINE
  5
2D3D
  8
TITLE
 10
165.12559929882261
 20
38.762569924883323
 30
0.0
 11
165.67874446463281
 21
39.315715090685998
 31
0.0
  0
LINE
  5
2D3E
  8
TITLE
 10
166.21012421571581
 20
38.18868226149106
 30
0.0
 11
167.7160621819707
 21
39.694620227746213
 31
0.0
  0
LINE
  5
2D3F
  8
TITLE
 10
166.29740908836251
 20
38.18868226149106
 30
0.0
 11
167.7160621819707
 21
39.607335355098812
 31
0.0
  0
LINE
  5
2D40
  8
TITLE
 10
166.38469396100979
 20
38.188682261487429
 30
0.0
 11
167.7160621819707
 21
39.520050482451659
 31
0.0
  0
LINE
  5
2D41
  8
TITLE
 10
166.47197883365689
 20
38.188682261487429
 30
0.0
 11
167.7160621819707
 21
39.432765609804392
 31
0.0
  0
LINE
  5
2D42
  8
TITLE
 10
166.5592637062972
 20
38.188682261487429
 30
0.0
 11
167.7160621819707
 21
39.345480737157558
 31
0.0
  0
LINE
  5
2D43
  8
TITLE
 10
168.42128167881481
 20
38.828712016948771
 30
0.0
 11
169.43993198529901
 21
39.847362323440279
 31
0.0
  0
LINE
  5
2D44
  8
TITLE
 10
168.42128167881481
 20
38.741427144301483
 30
0.0
 11
169.43993198529901
 21
39.760077450793112
 31
0.0
  0
LINE
  5
2D45
  8
TITLE
 10
168.42128167881481
 20
38.479572526363199
 30
0.0
 11
169.43993198529901
 21
39.498222832851638
 31
0.0
  0
LINE
  5
2D46
  8
TITLE
 10
168.42128167881481
 20
38.39228765371638
 30
0.0
 11
169.43989151933329
 21
39.41089749423837
 31
0.0
  0
LINE
  5
2D47
  8
TITLE
 10
168.42128167881481
 20
38.305002781072751
 30
0.0
 11
169.43609377269601
 21
39.319814874953742
 31
0.0
  0
LINE
  5
2D48
  8
TITLE
 10
168.42128167881481
 20
38.654142271654209
 30
0.0
 11
169.43993198529901
 21
39.672792578145732
 31
0.0
  0
LINE
  5
2D49
  8
TITLE
 10
168.42128167881481
 20
38.566857399007191
 30
0.0
 11
169.43993198529901
 21
39.585507705499012
 31
0.0
  0
LINE
  5
2D4A
  8
TITLE
 10
168.42128167881481
 20
38.043148163131143
 30
0.0
 11
169.5059047926469
 21
39.127771276966641
 31
0.0
  0
LINE
  5
2D4B
  8
TITLE
 10
168.42128167881481
 20
38.217717908425932
 30
0.0
 11
169.42584509583901
 21
39.222281325453203
 31
0.0
  0
LINE
  5
2D4C
  8
TITLE
 10
168.42128167881481
 20
38.13043303577841
 30
0.0
 11
169.4186199199994
 21
39.127771276966641
 31
0.0
  0
LINE
  5
2D4D
  8
TITLE
 10
168.42231796777011
 20
37.171335725622257
 30
0.0
 11
169.02229151226081
 21
37.771309270119673
 31
0.0
  0
LINE
  5
2D4E
  8
TITLE
 10
168.42128167881481
 20
37.43215405460478
 30
0.0
 11
168.76043689432601
 21
37.771309270119673
 31
0.0
  0
LINE
  5
2D4F
  8
TITLE
 10
168.42128167881481
 20
37.344869181961258
 30
0.0
 11
168.84772176697331
 21
37.771309270119673
 31
0.0
  0
LINE
  5
2D50
  8
TITLE
 10
168.42128167881481
 20
37.257584309314211
 30
0.0
 11
168.93500663962041
 21
37.771309270119673
 31
0.0
  0
LINE
  5
2D51
  8
TITLE
 10
168.42128167881481
 20
37.519438927252061
 30
0.0
 11
168.6731520216789
 21
37.771309270119673
 31
0.0
  0
LINE
  5
2D52
  8
TITLE
 10
168.42128167881481
 20
37.694008672542722
 30
0.0
 11
168.4985822763847
 21
37.771309270119673
 31
0.0
  0
LINE
  5
2D53
  8
TITLE
 10
168.42128167881481
 20
37.606723799899541
 30
0.0
 11
168.58586714903171
 21
37.771309270119673
 31
0.0
  0
LINE
  5
2D54
  8
TITLE
 10
168.42128167881481
 20
34.551753257273958
 30
0.0
 11
169.7182866230055
 21
35.848758201464072
 31
0.0
  0
LINE
  5
2D55
  8
TITLE
 10
168.42128167881481
 20
35.424601983738171
 30
0.0
 11
170.76798896519631
 21
37.771309270119673
 31
0.0
  0
LINE
  5
2D56
  8
TITLE
 10
168.42128167881481
 20
34.98817762050237
 30
0.0
 11
171.20441332842481
 21
37.771309270119673
 31
0.0
  0
LINE
  5
2D57
  8
TITLE
 10
168.42128167881481
 20
34.813607875211801
 30
0.0
 11
171.3789830737191
 21
37.771309270119673
 31
0.0
  0
LINE
  5
2D58
  8
TITLE
 10
168.42128167881481
 20
34.726323002564762
 30
0.0
 11
171.4662679463662
 21
37.771309270119673
 31
0.0
  0
LINE
  5
2D59
  8
TITLE
 10
168.42128167881481
 20
34.639038129921239
 30
0.0
 11
171.55355281901339
 21
37.771309270119673
 31
0.0
  0
LINE
  5
2D5A
  8
TITLE
 10
168.42128167881481
 20
34.900892747859082
 30
0.0
 11
171.29169820107231
 21
37.771309270119673
 31
0.0
  0
LINE
  5
2D5B
  8
TITLE
 10
168.42128167881481
 20
35.162747365796911
 30
0.0
 11
171.02984358313051
 21
37.771309270119673
 31
0.0
  0
LINE
  5
2D5C
  8
TITLE
 10
168.42128167881481
 20
35.07546249314975
 30
0.0
 11
171.1171284557775
 21
37.771309270119673
 31
0.0
  0
LINE
  5
2D5D
  8
TITLE
 10
168.42128167881481
 20
35.337317111091231
 30
0.0
 11
170.85527383783611
 21
37.771309270119673
 31
0.0
  0
LINE
  5
2D5E
  8
TITLE
 10
168.42128167881481
 20
35.25003223844385
 30
0.0
 11
170.94255871048321
 21
37.771309270119673
 31
0.0
  0
LINE
  5
2D5F
  8
TITLE
 10
164.39619326200409
 20
37.771309270119673
 30
0.0
 11
164.97008104831539
 21
38.345197056431282
 31
0.0
  0
LINE
  5
2D60
  8
TITLE
 10
164.48347813464429
 20
37.771309270119673
 30
0.0
 11
165.05736592095579
 21
38.345197056431282
 31
0.0
  0
LINE
  5
2D61
  8
TITLE
 10
164.5707630072915
 20
37.771309270119673
 30
0.0
 11
165.14465079360281
 21
38.345197056431282
 31
0.0
  0
LINE
  5
2D62
  8
TITLE
 10
164.65804787993821
 20
37.771309270119673
 30
0.0
 11
165.23193566625011
 21
38.345197056431282
 31
0.0
  0
LINE
  5
2D63
  8
TITLE
 10
164.74533275258591
 20
37.771309270119673
 30
0.0
 11
165.31922053889679
 21
38.345197056431282
 31
0.0
  0
LINE
  5
2D64
  8
TITLE
 10
164.83261762523259
 20
37.771309270119673
 30
0.0
 11
165.406505411544
 21
38.345197056431282
 31
0.0
  0
LINE
  5
2D65
  8
TITLE
 10
164.42626532080959
 20
36.753962857166918
 30
0.0
 11
164.94798146783381
 21
37.27567900419411
 31
0.0
  0
LINE
  5
2D66
  8
TITLE
 10
164.51355019345721
 20
36.753962857166918
 30
0.0
 11
165.035266340481
 21
37.27567900419411
 31
0.0
  0
LINE
  5
2D67
  8
TITLE
 10
164.60083506610451
 20
36.753962857166918
 30
0.0
 11
165.12255121312819
 21
37.27567900419411
 31
0.0
  0
LINE
  5
2D68
  8
TITLE
 10
164.68811993875161
 20
36.753962857166918
 30
0.0
 11
165.20983608577521
 21
37.27567900419411
 31
0.0
  0
LINE
  5
2D69
  8
TITLE
 10
164.7754048113988
 20
36.753962857166918
 30
0.0
 11
165.29712095842251
 21
37.27567900419411
 31
0.0
  0
LINE
  5
2D6A
  8
TITLE
 10
164.86268968403871
 20
36.753962857166918
 30
0.0
 11
165.38440583106961
 21
37.27567900419411
 31
0.0
  0
LINE
  5
2D6B
  8
TITLE
 10
166.8211183242388
 20
38.18868226149106
 30
0.0
 11
167.7160621819707
 21
39.083626119219609
 31
0.0
  0
LINE
  5
2D6C
  8
TITLE
 10
167.7812519233498
 20
38.188682261487429
 30
0.0
 11
168.1862085131996
 21
38.593638851333687
 31
0.0
  0
LINE
  5
2D6D
  8
TITLE
 10
167.86853679599739
 20
38.188682261487429
 30
0.0
 11
168.1862085131996
 21
38.506353978686427
 31
0.0
  0
LINE
  5
2D6E
  8
TITLE
 10
167.9558216686446
 20
38.188682261487429
 30
0.0
 11
168.1862085131996
 21
38.419069106043011
 31
0.0
  0
LINE
  5
2D6F
  8
TITLE
 10
168.13039141393881
 20
38.18868226149106
 30
0.0
 11
168.1862085131996
 21
38.244499360749273
 31
0.0
  0
LINE
  5
2D70
  8
TITLE
 10
168.04310654129171
 20
38.188682261487429
 30
0.0
 11
168.1862085131996
 21
38.331784233395737
 31
0.0
  0
LINE
  5
2D71
  8
TITLE
 10
166.880246378229
 20
37.811385952246262
 30
0.0
 11
167.9357736294381
 21
38.866913203454828
 31
0.0
  0
LINE
  5
2D72
  8
TITLE
 10
166.880246378229
 20
37.724101079599109
 30
0.0
 11
168.0230585020858
 21
38.866913203454828
 31
0.0
  0
LINE
  5
2D73
  8
TITLE
 10
166.880246378229
 20
37.985955697536951
 30
0.0
 11
167.76120388414381
 21
38.866913203454828
 31
0.0
  0
LINE
  5
2D74
  8
TITLE
 10
166.880246378229
 20
37.898670824889791
 30
0.0
 11
167.84848875679091
 21
38.866913203454828
 31
0.0
  0
LINE
  5
2D75
  8
TITLE
 10
166.880246378229
 20
38.073240570183771
 30
0.0
 11
167.7160621819707
 21
38.909056373925281
 31
0.0
  0
LINE
  5
2D76
  8
TITLE
 10
166.880246378229
 20
38.160525442827172
 30
0.0
 11
167.7160621819707
 21
38.99634124657279
 31
0.0
  0
LINE
  5
2D77
  8
TITLE
 10
165.2128841714698
 20
38.762569924883323
 30
0.0
 11
165.67874446463281
 21
39.228430218039193
 31
0.0
  0
LINE
  5
2D78
  8
TITLE
 10
165.3001690441169
 20
38.762569924883323
 30
0.0
 11
165.67874446463281
 21
39.141145345395323
 31
0.0
  0
LINE
  5
2D79
  8
TITLE
 10
165.387453916764
 20
38.762569924883323
 30
0.0
 11
165.67874446463281
 21
39.053860472748291
 31
0.0
  0
LINE
  5
2D7A
  8
TITLE
 10
165.5620236620579
 20
38.762569924883323
 30
0.0
 11
165.67874446463281
 21
38.879290727453849
 31
0.0
  0
LINE
  5
2D7B
  8
TITLE
 10
165.64930853470551
 20
38.762569924883323
 30
0.0
 11
165.67874446463281
 21
38.792005854806902
 31
0.0
  0
LINE
  5
2D7C
  8
TITLE
 10
166.148907666708
 20
38.82574469365283
 30
0.0
 11
166.19007617650951
 21
38.866913203454828
 31
0.0
  0
LINE
  5
2D7D
  8
TITLE
 10
166.148907666708
 20
38.73845982100589
 30
0.0
 11
166.27736104915661
 21
38.866913203454828
 31
0.0
  0
LINE
  5
2D7E
  8
TITLE
 10
165.47473878941111
 20
38.762569924883323
 30
0.0
 11
165.67874446463281
 21
38.966575600101123
 31
0.0
  0
LINE
  5
2D7F
  8
TITLE
 10
165.00718737052691
 20
37.771309270119673
 30
0.0
 11
165.50099165564399
 21
38.265113555233128
 31
0.0
  0
LINE
  5
2D80
  8
TITLE
 10
165.09447224317441
 20
37.771309270119673
 30
0.0
 11
165.50099165564399
 21
38.177828682585748
 31
0.0
  0
LINE
  5
2D81
  8
TITLE
 10
164.9199024978802
 20
37.771309270119673
 30
0.0
 11
165.4937902841915
 21
38.345197056431282
 31
0.0
  0
LINE
  5
2D82
  8
TITLE
 10
165.18175711582111
 20
37.771309270119673
 30
0.0
 11
165.50099165564399
 21
38.090543809941892
 31
0.0
  0
LINE
  5
2D83
  8
TITLE
 10
165.26904198846881
 20
37.771309270119673
 30
0.0
 11
165.50099165564399
 21
38.003258937294611
 31
0.0
  0
LINE
  5
2D84
  8
TITLE
 10
165.3563268611087
 20
37.771309270119673
 30
0.0
 11
165.50099165564399
 21
37.915974064647799
 31
0.0
  0
LINE
  5
2D85
  8
TITLE
 10
165.4436117337558
 20
37.771309270119673
 30
0.0
 11
165.50099165564399
 21
37.828689192000532
 31
0.0
  0
LINE
  5
2D86
  8
TITLE
 10
166.148907666708
 20
38.476605203068061
 30
0.0
 11
166.53921566709809
 21
38.866913203454828
 31
0.0
  0
LINE
  5
2D87
  8
TITLE
 10
166.148907666708
 20
38.38932033042078
 30
0.0
 11
166.626500539738
 21
38.866913203454828
 31
0.0
  0
LINE
  5
2D88
  8
TITLE
 10
166.148907666708
 20
38.302035457777272
 30
0.0
 11
166.71378541238511
 21
38.866913203454828
 31
0.0
  0
LINE
  5
2D89
  8
TITLE
 10
166.148907666708
 20
38.56389007571147
 30
0.0
 11
166.45193079445099
 21
38.866913203454828
 31
0.0
  0
LINE
  5
2D8A
  8
TITLE
 10
166.148907666708
 20
38.651174948358523
 30
0.0
 11
166.3646459218034
 21
38.866913203454828
 31
0.0
  0
LINE
  5
2D8B
  8
TITLE
 10
166.64654857894431
 20
38.188682261487429
 30
0.0
 11
167.7160621819707
 21
39.258195864510171
 31
0.0
  0
LINE
  5
2D8C
  8
TITLE
 10
166.73383345159141
 20
38.188682261487429
 30
0.0
 11
167.7160621819707
 21
39.170910991863252
 31
0.0
  0
LINE
  5
2D8D
  8
TITLE
 10
166.148907666708
 20
38.214750585130112
 30
0.0
 11
166.80107028503241
 21
38.866913203454828
 31
0.0
  0
LINE
  5
2D8E
  8
TITLE
 10
167.75207853396111
 20
36.850235782398492
 30
0.0
 11
168.1862085131996
 21
37.28436576164097
 31
0.0
  0
LINE
  5
2D8F
  8
TITLE
 10
167.80073655151389
 20
36.811608927311212
 30
0.0
 11
168.1862085131996
 21
37.197080888993803
 31
0.0
  0
LINE
  5
2D90
  8
TITLE
 10
167.8503588245475
 20
36.77394632769392
 30
0.0
 11
168.1862085131996
 21
37.10979601634687
 31
0.0
  0
LINE
  5
2D91
  8
TITLE
 10
167.90095402853541
 20
36.73725665903509
 30
0.0
 11
168.1862085131996
 21
37.022511143699717
 31
0.0
  0
LINE
  5
2D92
  8
TITLE
 10
167.95253238190651
 20
36.701550139762837
 30
0.0
 11
168.1862085131996
 21
36.935226271052322
 31
0.0
  0
LINE
  5
2D93
  8
TITLE
 10
168.00510572374469
 20
36.666838608949767
 30
0.0
 11
168.1862085131996
 21
36.847941398405162
 31
0.0
  0
LINE
  5
2D94
  8
TITLE
 10
168.05868760605091
 20
36.633135618608648
 30
0.0
 11
168.1862085131996
 21
36.760656525758229
 31
0.0
  0
LINE
  5
2D95
  8
TITLE
 10
168.11329340231941
 20
36.600456542236891
 30
0.0
 11
168.1862085131996
 21
36.673371653110841
 31
0.0
  0
LINE
  5
2D96
  8
TITLE
 10
168.1689404345355
 20
36.568818701806187
 30
0.0
 11
168.1862085131996
 21
36.586086780467312
 31
0.0
  0
LINE
  5
2D97
  8
TITLE
 10
164.9499745566859
 20
36.753962857166918
 30
0.0
 11
165.4716907037168
 21
37.27567900419411
 31
0.0
  0
LINE
  5
2D98
  8
TITLE
 10
165.03725942933301
 20
36.753962857166918
 30
0.0
 11
165.50099165564399
 21
37.217695083474162
 31
0.0
  0
LINE
  5
2D99
  8
TITLE
 10
165.12454430198019
 20
36.753962857166918
 30
0.0
 11
165.50099165564399
 21
37.130410210830171
 31
0.0
  0
LINE
  5
2D9A
  8
TITLE
 10
165.21182917462781
 20
36.753962857166918
 30
0.0
 11
165.50099165564399
 21
37.043125338183231
 31
0.0
  0
LINE
  5
2D9B
  8
TITLE
 10
165.2991140472744
 20
36.753962857166918
 30
0.0
 11
165.50099165564399
 21
36.955840465536092
 31
0.0
  0
LINE
  5
2D9C
  8
TITLE
 10
165.38639891992159
 20
36.753962857166918
 30
0.0
 11
165.50099165564399
 21
36.868555592888796
 31
0.0
  0
LINE
  5
2D9D
  8
TITLE
 10
165.47368379256881
 20
36.753962857166918
 30
0.0
 11
165.50099165564399
 21
36.781270720241892
 31
0.0
  0
LINE
  5
2D9E
  8
TITLE
 10
166.148907666708
 20
36.643622877492007
 30
0.0
 11
166.24534904758761
 21
36.740064258368761
 31
0.0
  0
LINE
  5
2D9F
  8
TITLE
 10
166.64848984491979
 20
37.143205055700271
 30
0.0
 11
168.1862085131996
 21
38.680923723981202
 31
0.0
  0
LINE
  5
2DA0
  8
TITLE
 10
166.148907666708
 20
36.556338004845102
 30
0.0
 11
167.7160621819707
 21
38.123492520108229
 31
0.0
  0
LINE
  5
2DA1
  8
TITLE
 10
166.148907666708
 20
36.469053132201211
 30
0.0
 11
167.7160621819707
 21
38.036207647460849
 31
0.0
  0
LINE
  5
2DA2
  8
TITLE
 10
166.148907666708
 20
36.381768259553937
 30
0.0
 11
167.71742509289189
 21
37.950285685731508
 31
0.0
  0
LINE
  5
2DA3
  8
TITLE
 10
166.148907666708
 20
36.294483386907011
 30
0.0
 11
167.74361771013301
 21
37.88919343032557
 31
0.0
  0
LINE
  5
2DA4
  8
TITLE
 10
166.148907666708
 20
36.207198514259851
 30
0.0
 11
167.77395436095171
 21
37.832245208504212
 31
0.0
  0
LINE
  5
2DA5
  8
TITLE
 10
166.8712511458296
 20
37.627820974555902
 30
0.0
 11
168.11034337473251
 21
38.866913203454828
 31
0.0
  0
LINE
  5
2DA6
  8
TITLE
 10
166.8317516961751
 20
37.50103665225037
 30
0.0
 11
168.1862085131996
 21
38.855493469275288
 31
0.0
  0
LINE
  5
2DA7
  8
TITLE
 10
166.76888234873871
 20
37.350882432170813
 30
0.0
 11
168.1862085131996
 21
38.768208596628263
 31
0.0
  0
LINE
  5
2DA8
  8
TITLE
 10
164.4115936481698
 20
34.557169368366303
 30
0.0
 11
164.9422146894899
 21
35.087790409689191
 31
0.0
  0
LINE
  5
2DA9
  8
TITLE
 10
164.47055972195531
 20
34.528850569508002
 30
0.0
 11
165.00300379344611
 21
35.06129464099422
 31
0.0
  0
LINE
  5
2DAA
  8
TITLE
 10
164.5307945472309
 20
34.501800522135888
 30
0.0
 11
165.06680093899041
 21
35.0378069138958
 31
0.0
  0
LINE
  5
2DAB
  8
TITLE
 10
164.5923359918288
 20
34.476057094083089
 30
0.0
 11
165.1338636951977
 21
35.017584797455243
 31
0.0
  0
LINE
  5
2DAC
  8
TITLE
 10
164.65522661596859
 20
34.451662845583989
 30
0.0
 11
165.20452990256521
 21
35.000966132176359
 31
0.0
  0
LINE
  5
2DAD
  8
TITLE
 10
164.7195142780524
 20
34.428665635016159
 30
0.0
 11
165.27925029849979
 21
34.98840165546379
 31
0.0
  0
LINE
  5
2DAE
  8
TITLE
 10
164.78525286217331
 20
34.407119346489829
 30
0.0
 11
165.35864204203051
 21
34.980508526347187
 31
0.0
  0
LINE
  5
2DAF
  8
TITLE
 10
164.85250315731309
 20
34.387084768982511
 30
0.0
 11
165.44358207260331
 21
34.978163684272758
 31
0.0
  0
LINE
  5
2DB0
  8
TITLE
 10
166.880246378229
 20
35.280124645496457
 30
0.0
 11
167.7160621819707
 21
36.115940449241748
 31
0.0
  0
LINE
  5
2DB1
  8
TITLE
 10
166.880246378229
 20
35.192839772849297
 30
0.0
 11
167.7160621819707
 21
36.02865557659424
 31
0.0
  0
LINE
  5
2DB2
  8
TITLE
 10
166.880246378229
 20
34.84370028226418
 30
0.0
 11
167.7160621819707
 21
35.679516086005812
 31
0.0
  0
LINE
  5
2DB3
  8
TITLE
 10
166.880246378229
 20
34.756415409617027
 30
0.0
 11
167.7160621819707
 21
35.592231213358332
 31
0.0
  0
LINE
  5
2DB4
  8
TITLE
 10
166.880246378229
 20
34.669130536970101
 30
0.0
 11
167.7160621819707
 21
35.504946340711172
 31
0.0
  0
LINE
  5
2DB5
  8
TITLE
 10
166.880246378229
 20
34.58184566432282
 30
0.0
 11
167.7160621819707
 21
35.417661468067649
 31
0.0
  0
LINE
  5
2DB6
  8
TITLE
 10
166.880246378229
 20
34.494560791675653
 30
0.0
 11
167.7160621819707
 21
35.33037659542083
 31
0.0
  0
LINE
  5
2DB7
  8
TITLE
 10
166.880246378229
 20
34.407275919032152
 30
0.0
 11
167.7160621819707
 21
35.243091722773791
 31
0.0
  0
LINE
  5
2DB8
  8
TITLE
 10
166.880246378229
 20
34.319991046384871
 30
0.0
 11
167.7160621819707
 21
35.155806850130261
 31
0.0
  0
LINE
  5
2DB9
  8
TITLE
 10
166.93820456857611
 20
34.290664364088208
 30
0.0
 11
167.7160621819707
 21
35.068521977482867
 31
0.0
  0
LINE
  5
2DBA
  8
TITLE
 10
167.0254894412231
 20
34.290664364088208
 30
0.0
 11
167.7160621819707
 21
34.981237104835571
 31
0.0
  0
LINE
  5
2DBB
  8
TITLE
 10
167.11277431387029
 20
34.290664364088208
 30
0.0
 11
167.7160621819707
 21
34.893952232188319
 31
0.0
  0
LINE
  5
2DBC
  8
TITLE
 10
167.20005918651751
 20
34.290664364088208
 30
0.0
 11
167.7160621819707
 21
34.806667359541521
 31
0.0
  0
LINE
  5
2DBD
  8
TITLE
 10
167.2873440591647
 20
34.290664364088208
 30
0.0
 11
167.7160621819707
 21
34.719382486894013
 31
0.0
  0
LINE
  5
2DBE
  8
TITLE
 10
167.37462893181191
 20
34.290664364088208
 30
0.0
 11
167.7160621819707
 21
34.632097614246852
 31
0.0
  0
LINE
  5
2DBF
  8
TITLE
 10
167.4619138044589
 20
34.290664364088208
 30
0.0
 11
167.7160621819707
 21
34.544812741599891
 31
0.0
  0
LINE
  5
2DC0
  8
TITLE
 10
167.54919867710609
 20
34.290664364088208
 30
0.0
 11
167.7160621819707
 21
34.457527868956163
 31
0.0
  0
LINE
  5
2DC1
  8
TITLE
 10
167.63648354975339
 20
34.290664364088208
 30
0.0
 11
167.7160621819707
 21
34.37024299630945
 31
0.0
  0
LINE
  5
2DC2
  8
TITLE
 10
166.880246378229
 20
35.105554900205789
 30
0.0
 11
167.7160621819707
 21
35.9413707039472
 31
0.0
  0
LINE
  5
2DC3
  8
TITLE
 10
166.880246378229
 20
35.018270027558621
 30
0.0
 11
167.7160621819707
 21
35.854085831299912
 31
0.0
  0
LINE
  5
2DC4
  8
TITLE
 10
166.880246378229
 20
34.930985154911802
 30
0.0
 11
167.7160621819707
 21
35.766800958652638
 31
0.0
  0
LINE
  5
2DC5
  8
TITLE
 10
165.2940727498048
 20
35.78878796058585
 30
0.0
 11
165.67874446463281
 21
36.173459675413817
 31
0.0
  0
LINE
  5
2DC6
  8
TITLE
 10
165.3813576224519
 20
35.78878796058585
 30
0.0
 11
165.67874446463281
 21
36.08617480276655
 31
0.0
  0
LINE
  5
2DC7
  8
TITLE
 10
165.468642495099
 20
35.78878796058585
 30
0.0
 11
165.67874446463281
 21
35.998889930119162
 31
0.0
  0
LINE
  5
2DC8
  8
TITLE
 10
164.9213339269908
 20
34.368630666013232
 30
0.0
 11
165.53283111992269
 21
34.980127858948762
 31
0.0
  0
LINE
  5
2DC9
  8
TITLE
 10
164.99182322103511
 20
34.351835087417477
 30
0.0
 11
165.62011599256991
 21
34.980127858948762
 31
0.0
  0
LINE
  5
2DCA
  8
TITLE
 10
165.06405999876139
 20
34.336786992492421
 30
0.0
 11
165.67874446463281
 21
34.951471458360629
 31
0.0
  0
LINE
  5
2DCB
  8
TITLE
 10
165.13814615752321
 20
34.323588278610814
 30
0.0
 11
165.67874446463281
 21
34.864186585713242
 31
0.0
  0
LINE
  5
2DCC
  8
TITLE
 10
165.21419909690059
 20
34.312356345341747
 30
0.0
 11
165.67874446463281
 21
34.77690171307006
 31
0.0
  0
LINE
  5
2DCD
  8
TITLE
 10
165.2923550009595
 20
34.303227376756681
 30
0.0
 11
165.67874446463281
 21
34.689616840422651
 31
0.0
  0
LINE
  5
2DCE
  8
TITLE
 10
165.372773100496
 20
34.296360603642711
 30
0.0
 11
165.67874446463281
 21
34.602331967779151
 31
0.0
  0
LINE
  5
2DCF
  8
TITLE
 10
165.45564129791771
 20
34.291943928416799
 30
0.0
 11
165.67874446463281
 21
34.515047095132203
 31
0.0
  0
LINE
  5
2DD0
  8
TITLE
 10
165.5416466062359
 20
34.290664364088208
 30
0.0
 11
165.67874446463281
 21
34.427762222485292
 31
0.0
  0
LINE
  5
2DD1
  8
TITLE
 10
165.6289314788832
 20
34.290664364088208
 30
0.0
 11
165.67874446463281
 21
34.340477349837784
 31
0.0
  0
LINE
  5
2DD2
  8
TITLE
 10
165.5559273677467
 20
35.78878796058585
 30
0.0
 11
165.67874446463281
 21
35.911605057472222
 31
0.0
  0
LINE
  5
2DD3
  8
TITLE
 10
165.64321224039381
 20
35.78878796058585
 30
0.0
 11
165.67874446463281
 21
35.824320184824941
 31
0.0
  0
LINE
  5
2DD4
  8
TITLE
 10
164.42122402334039
 20
35.78878796058585
 30
0.0
 11
164.9168542892628
 21
36.284418226511548
 31
0.0
  0
LINE
  5
2DD5
  8
TITLE
 10
164.5085088959874
 20
35.78878796058585
 30
0.0
 11
165.00413916190971
 21
36.284418226511548
 31
0.0
  0
LINE
  5
2DD6
  8
TITLE
 10
164.59579376863479
 20
35.78878796058585
 30
0.0
 11
165.09142403455681
 21
36.284418226511548
 31
0.0
  0
LINE
  5
2DD7
  8
TITLE
 10
164.68307864128201
 20
35.78878796058585
 30
0.0
 11
165.17870890720391
 21
36.284418226511548
 31
0.0
  0
LINE
  5
2DD8
  8
TITLE
 10
164.77036351392911
 20
35.78878796058585
 30
0.0
 11
165.26599377985059
 21
36.284418226511548
 31
0.0
  0
LINE
  5
2DD9
  8
TITLE
 10
164.857648386569
 20
35.78878796058585
 30
0.0
 11
165.3532786524988
 21
36.284418226511548
 31
0.0
  0
LINE
  5
2DDA
  8
TITLE
 10
166.880246378229
 20
35.716549008728741
 30
0.0
 11
167.7160621819707
 21
36.552364812469797
 31
0.0
  0
LINE
  5
2DDB
  8
TITLE
 10
166.880246378229
 20
35.62926413608146
 30
0.0
 11
167.7160621819707
 21
36.465079939822758
 31
0.0
  0
LINE
  5
2DDC
  8
TITLE
 10
166.880246378229
 20
35.541979263434641
 30
0.0
 11
167.7160621819707
 21
36.377795067175597
 31
0.0
  0
LINE
  5
2DDD
  8
TITLE
 10
166.880246378229
 20
35.454694390787282
 30
0.0
 11
167.7160621819707
 21
36.290510194532203
 31
0.0
  0
LINE
  5
2DDE
  8
TITLE
 10
166.880246378229
 20
35.367409518143852
 30
0.0
 11
167.7160621819707
 21
36.203225321884801
 31
0.0
  0
LINE
  5
2DDF
  8
TITLE
 10
166.880246378229
 20
35.978403626670229
 30
0.0
 11
167.7160621819707
 21
36.814219430411171
 31
0.0
  0
LINE
  5
2DE0
  8
TITLE
 10
166.880246378229
 20
35.891118754023168
 30
0.0
 11
167.7160621819707
 21
36.726934557764253
 31
0.0
  0
LINE
  5
2DE1
  8
TITLE
 10
166.880246378229
 20
35.803833881376121
 30
0.0
 11
167.7160621819707
 21
36.639649685117092
 31
0.0
  0
LINE
  5
2DE2
  8
TITLE
 10
166.880246378229
 20
36.152973371960911
 30
0.0
 11
168.1862085131996
 21
37.45893550693188
 31
0.0
  0
LINE
  5
2DE3
  8
TITLE
 10
166.880246378229
 20
36.065688499317382
 30
0.0
 11
168.1862085131996
 21
37.371650634284478
 31
0.0
  0
LINE
  5
2DE4
  8
TITLE
 10
164.9449332592161
 20
35.78878796058585
 30
0.0
 11
165.4405635251459
 21
36.284418226511548
 31
0.0
  0
LINE
  5
2DE5
  8
TITLE
 10
165.0322181318638
 20
35.78878796058585
 30
0.0
 11
165.52784839778539
 21
36.284418226511548
 31
0.0
  0
LINE
  5
2DE6
  8
TITLE
 10
165.1195030045109
 20
35.78878796058585
 30
0.0
 11
165.61513327043241
 21
36.284418226511548
 31
0.0
  0
LINE
  5
2DE7
  8
TITLE
 10
165.20678787715769
 20
35.78878796058585
 30
0.0
 11
165.67874446463281
 21
36.260744548060742
 31
0.0
  0
LINE
  5
2DE8
  8
TITLE
 10
166.148907666708
 20
35.770774151027581
 30
0.0
 11
167.98040322839441
 21
37.602269712715142
 31
0.0
  0
LINE
  5
2DE9
  8
TITLE
 10
166.148907666708
 20
35.683489278380762
 30
0.0
 11
168.03230855200181
 21
37.566890163671218
 31
0.0
  0
LINE
  5
2DEA
  8
TITLE
 10
166.31078574890671
 20
35.758082487936221
 30
0.0
 11
168.08797630903379
 21
37.535273048055728
 31
0.0
  0
LINE
  5
2DEB
  8
TITLE
 10
166.55378948934501
 20
35.913801355720253
 30
0.0
 11
168.14767444277939
 21
37.507686309158309
 31
0.0
  0
LINE
  5
2DEC
  8
TITLE
 10
166.148907666708
 20
35.94534389631837
 30
0.0
 11
167.88727696339211
 21
37.6837131930032
 31
0.0
  0
LINE
  5
2DED
  8
TITLE
 10
166.148907666708
 20
35.858059023671217
 30
0.0
 11
167.93208994968239
 21
37.641241306653441
 31
0.0
  0
LINE
  5
2DEE
  8
TITLE
 10
166.148907666708
 20
36.119913641612797
 30
0.0
 11
167.8081289049376
 21
37.779134879839148
 31
0.0
  0
LINE
  5
2DEF
  8
TITLE
 10
166.148907666708
 20
36.032628768965772
 30
0.0
 11
167.84594176974579
 21
37.7296628720079
 31
0.0
  0
LINE
  5
2DF0
  8
TITLE
 10
168.50119411013739
 20
38.0357757218137
 30
0.0
 11
169.59318966529401
 21
39.127771276966641
 31
0.0
  0
LINE
  5
2DF1
  8
TITLE
 10
168.66841769994741
 20
38.115714438969569
 30
0.0
 11
169.68047453794071
 21
39.127771276966641
 31
0.0
  0
LINE
  5
2DF2
  8
TITLE
 10
168.96920274991439
 20
36.23437767277926
 30
0.0
 11
170.56305938401781
 21
37.82823430687904
 31
0.0
  0
LINE
  5
2DF3
  8
TITLE
 10
168.5096028404171
 20
37.171335725622257
 30
0.0
 11
169.10957638490751
 21
37.771309270119673
 31
0.0
  0
LINE
  5
2DF4
  8
TITLE
 10
168.5968877130644
 20
37.171335725622257
 30
0.0
 11
169.19686125755459
 21
37.771309270119673
 31
0.0
  0
LINE
  5
2DF5
  8
TITLE
 10
168.6841725857042
 20
37.171335725622257
 30
0.0
 11
169.2841461302018
 21
37.771309270119673
 31
0.0
  0
LINE
  5
2DF6
  8
TITLE
 10
168.77145745835151
 20
37.171335725622257
 30
0.0
 11
169.37143100284891
 21
37.771309270119673
 31
0.0
  0
LINE
  5
2DF7
  8
TITLE
 10
168.8587423309985
 20
37.171335725622257
 30
0.0
 11
169.4587158754961
 21
37.771309270119673
 31
0.0
  0
LINE
  5
2DF8
  8
TITLE
 10
168.9460272036458
 20
37.171335725622257
 30
0.0
 11
169.54600074814331
 21
37.771309270119673
 31
0.0
  0
LINE
  5
2DF9
  8
TITLE
 10
172.29475386004361
 20
38.948934674385441
 30
0.0
 11
172.47359021679671
 21
39.12777103113114
 31
0.0
  0
LINE
  5
2DFA
  8
TITLE
 10
172.29475386004361
 20
38.861649801738281
 30
0.0
 11
172.56087508943651
 21
39.12777103113114
 31
0.0
  0
LINE
  5
2DFB
  8
TITLE
 10
170.9395690772057
 20
38.553883490655153
 30
0.0
 11
171.51345686351661
 21
39.127771276966641
 31
0.0
  0
LINE
  5
2DFC
  8
TITLE
 10
170.8522842045586
 20
38.553883490655153
 30
0.0
 11
171.42617199086951
 21
39.127771276966641
 31
0.0
  0
LINE
  5
2DFD
  8
TITLE
 10
171.2887085677938
 20
38.553883490655153
 30
0.0
 11
171.84290230430341
 21
39.108077227168891
 31
0.0
  0
LINE
  5
2DFE
  8
TITLE
 10
171.02685394985241
 20
38.553883490655153
 30
0.0
 11
171.60074173616371
 21
39.127771276966641
 31
0.0
  0
LINE
  5
2DFF
  8
TITLE
 10
171.11413882249951
 20
38.553883490655153
 30
0.0
 11
171.68802660881099
 21
39.127771276966641
 31
0.0
  0
LINE
  5
2E00
  8
TITLE
 10
171.2014236951467
 20
38.553883490655153
 30
0.0
 11
171.775311481458
 21
39.127771276966641
 31
0.0
  0
LINE
  5
2E01
  8
TITLE
 10
171.72513293102239
 20
38.553883490655153
 30
0.0
 11
171.84290230430341
 21
38.671652863940132
 31
0.0
  0
LINE
  5
2E02
  8
TITLE
 10
171.8124178036694
 20
38.553883490655153
 30
0.0
 11
171.84290230430341
 21
38.584367991292858
 31
0.0
  0
LINE
  5
2E03
  8
TITLE
 10
171.55056318572809
 20
38.553883490655153
 30
0.0
 11
171.84290230430341
 21
38.846222609234239
 31
0.0
  0
LINE
  5
2E04
  8
TITLE
 10
171.63784805837531
 20
38.553883490655153
 30
0.0
 11
171.84290230430341
 21
38.758937736586972
 31
0.0
  0
LINE
  5
2E05
  8
TITLE
 10
171.37599344044111
 20
38.553883490655153
 30
0.0
 11
171.84290230430341
 21
39.020792354525383
 31
0.0
  0
LINE
  5
2E06
  8
TITLE
 10
171.46327831308091
 20
38.553883490655153
 30
0.0
 11
171.84290230430341
 21
38.933507481878102
 31
0.0
  0
LINE
  5
2E07
  8
TITLE
 10
172.29475386004361
 20
39.123504419676451
 30
0.0
 11
172.2990204715023
 21
39.12777103113114
 31
0.0
  0
LINE
  5
2E08
  8
TITLE
 10
172.29475386004361
 20
39.036219547033049
 30
0.0
 11
172.38630534414941
 21
39.12777103113114
 31
0.0
  0
LINE
  5
2E09
  8
TITLE
 10
171.30271876510491
 20
37.171335725622257
 30
0.0
 11
171.84290230430341
 21
37.711519264828439
 31
0.0
  0
LINE
  5
2E0A
  8
TITLE
 10
171.39000363774491
 20
37.171335725622257
 30
0.0
 11
171.84290230430341
 21
37.624234392181613
 31
0.0
  0
LINE
  5
2E0B
  8
TITLE
 10
171.4772885103921
 20
37.171335725622257
 30
0.0
 11
171.84290230430341
 21
37.536949519534232
 31
0.0
  0
LINE
  5
2E0C
  8
TITLE
 10
171.56457338303909
 20
37.171335725622257
 30
0.0
 11
171.84290230430341
 21
37.449664646886959
 31
0.0
  0
LINE
  5
2E0D
  8
TITLE
 10
171.65185825568631
 20
37.171335725622257
 30
0.0
 11
171.84290230430341
 21
37.362379774240132
 31
0.0
  0
LINE
  5
2E0E
  8
TITLE
 10
171.82642800098071
 20
37.171335725622257
 30
0.0
 11
171.84290230430341
 21
37.187810028949343
 31
0.0
  0
LINE
  5
2E0F
  8
TITLE
 10
171.7391431283335
 20
37.171335725622257
 30
0.0
 11
171.84290230430341
 21
37.275094901592851
 31
0.0
  0
LINE
  5
2E10
  8
TITLE
 10
172.4514693816254
 20
37.70909223362024
 30
0.0
 11
172.46151465592129
 21
37.719137507916351
 31
0.0
  0
LINE
  5
2E11
  8
TITLE
 10
172.4514693816254
 20
37.6218073609732
 30
0.0
 11
172.54879952856891
 21
37.719137507916351
 31
0.0
  0
LINE
  5
2E12
  8
TITLE
 10
171.21543389245741
 20
37.171335725622257
 30
0.0
 11
171.81540743694751
 21
37.771309270119673
 31
0.0
  0
LINE
  5
2E13
  8
TITLE
 10
171.0408641471634
 20
37.171335725622257
 30
0.0
 11
171.64083769166061
 21
37.771309270119673
 31
0.0
  0
LINE
  5
2E14
  8
TITLE
 10
171.12814901981011
 20
37.171335725622257
 30
0.0
 11
171.7281225643078
 21
37.771309270119673
 31
0.0
  0
LINE
  5
2E15
  8
TITLE
 10
169.75336302846321
 20
38.065956423079328
 30
0.0
 11
170.81517788234649
 21
39.127771276966641
 31
0.0
  0
LINE
  5
2E16
  8
TITLE
 10
169.75336302846321
 20
38.41509591366821
 30
0.0
 11
170.56305938401781
 21
39.224792269222689
 31
0.0
  0
LINE
  5
2E17
  8
TITLE
 10
169.75336302846321
 20
38.327811041021278
 30
0.0
 11
170.56305938401781
 21
39.137507396575757
 31
0.0
  0
LINE
  5
2E18
  8
TITLE
 10
169.75336302846321
 20
38.240526168374117
 30
0.0
 11
170.64060813705279
 21
39.127771276966641
 31
0.0
  0
LINE
  5
2E19
  8
TITLE
 10
169.75336302846321
 20
38.153241295726929
 30
0.0
 11
170.7278930096999
 21
39.127771276966641
 31
0.0
  0
LINE
  5
2E1A
  8
TITLE
 10
169.2078818215877
 20
37.171335725622257
 30
0.0
 11
170.56305938401781
 21
38.526513288052662
 31
0.0
  0
LINE
  5
2E1B
  8
TITLE
 10
169.23370010085091
 20
36.935299386951101
 30
0.0
 11
170.56305938401781
 21
38.264658670111103
 31
0.0
  0
LINE
  5
2E1C
  8
TITLE
 10
169.20145970692511
 20
36.815774120378251
 30
0.0
 11
170.56305938401781
 21
38.177373797464149
 31
0.0
  0
LINE
  5
2E1D
  8
TITLE
 10
169.28071145862711
 20
37.15688049002221
 30
0.0
 11
170.56305938401781
 21
38.439228415405523
 31
0.0
  0
LINE
  5
2E1E
  8
TITLE
 10
169.25978908588871
 20
37.048673244629761
 30
0.0
 11
170.56305938401781
 21
38.351943542758242
 31
0.0
  0
LINE
  5
2E1F
  8
TITLE
 10
169.1616872806448
 20
36.688716821451067
 30
0.0
 11
170.56305938401781
 21
38.090088924816868
 31
0.0
  0
LINE
  5
2E20
  8
TITLE
 10
169.11233770584971
 20
36.55208237400165
 30
0.0
 11
170.56305938401781
 21
38.002804052169829
 31
0.0
  0
LINE
  5
2E21
  8
TITLE
 10
169.05013835564199
 20
36.402598151153931
 30
0.0
 11
170.56305938401781
 21
37.915519179526527
 31
0.0
  0
LINE
  5
2E22
  8
TITLE
 10
169.03331207629341
 20
37.171335725622257
 30
0.0
 11
169.6332856207905
 21
37.771309270119673
 31
0.0
  0
LINE
  5
2E23
  8
TITLE
 10
169.12059694894
 20
37.171335725622257
 30
0.0
 11
169.72057049343761
 21
37.771309270119673
 31
0.0
  0
LINE
  5
2E24
  8
TITLE
 10
169.75336302846321
 20
37.978671550435941
 30
0.0
 11
170.90246275499379
 21
39.127771276966641
 31
0.0
  0
LINE
  5
2E25
  8
TITLE
 10
169.75336302846321
 20
37.891386677788759
 30
0.0
 11
170.9897476276409
 21
39.127771276966641
 31
0.0
  0
LINE
  5
2E26
  8
TITLE
 10
169.75336302846321
 20
37.804101805145251
 30
0.0
 11
171.07703250028081
 21
39.127771276966641
 31
0.0
  0
LINE
  5
2E27
  8
TITLE
 10
170.76499933191141
 20
38.553883490655153
 30
0.0
 11
171.3388871182228
 21
39.127771276966641
 31
0.0
  0
LINE
  5
2E28
  8
TITLE
 10
170.59042958661701
 20
38.553883490655153
 30
0.0
 11
171.16431737292791
 21
39.127771276966641
 31
0.0
  0
LINE
  5
2E29
  8
TITLE
 10
170.6777144592638
 20
38.553883490655153
 30
0.0
 11
171.25160224557561
 21
39.127771276966641
 31
0.0
  0
LINE
  5
2E2A
  8
TITLE
 10
168.5623416274274
 20
34.605528333243342
 30
0.0
 11
169.60698555393441
 21
35.650172259746213
 31
0.0
  0
LINE
  5
2E2B
  8
TITLE
 10
168.83996139452651
 20
34.795863227694902
 30
0.0
 11
169.41665065948229
 21
35.372552492647053
 31
0.0
  0
LINE
  5
2E2C
  8
TITLE
 10
170.862611349741
 20
35.421955220565891
 30
0.0
 11
171.4656565218047
 21
36.025000392629067
 31
0.0
  0
LINE
  5
2E2D
  8
TITLE
 10
170.9000852463958
 20
35.372144244569782
 30
0.0
 11
171.4993828035725
 21
35.971441801750061
 31
0.0
  0
LINE
  5
2E2E
  8
TITLE
 10
170.9384419205806
 20
35.323216046111277
 30
0.0
 11
171.53400542069991
 21
35.918779546230212
 31
0.0
  0
LINE
  5
2E2F
  8
TITLE
 10
170.97767502278231
 20
35.275164275665922
 30
0.0
 11
171.56951355658151
 21
35.867002809471721
 31
0.0
  0
LINE
  5
2E30
  8
TITLE
 10
171.23125812494979
 20
35.005038141950067
 30
0.0
 11
171.80069827838579
 21
35.574478295389213
 31
0.0
  0
LINE
  5
2E31
  8
TITLE
 10
171.27653760769451
 20
34.963032752054453
 30
0.0
 11
171.8421973870104
 21
35.528692531370211
 31
0.0
  0
LINE
  5
2E32
  8
TITLE
 10
171.4175689820114
 20
34.842209508430741
 30
0.0
 11
171.84290230430341
 21
35.267542830726022
 31
0.0
  0
LINE
  5
2E33
  8
TITLE
 10
171.3226804473683
 20
34.921890719081169
 30
0.0
 11
171.84290230430341
 21
35.442112576020463
 31
0.0
  0
LINE
  5
2E34
  8
TITLE
 10
171.3696895804872
 20
34.881614979553412
 30
0.0
 11
171.84290230430341
 21
35.354827703373189
 31
0.0
  0
LINE
  5
2E35
  8
TITLE
 10
171.01777930280269
 20
35.22798368304246
 30
0.0
 11
171.6058976053564
 21
35.816101985592468
 31
0.0
  0
LINE
  5
2E36
  8
TITLE
 10
171.0587505780758
 20
35.181670085664678
 30
0.0
 11
171.64314911252211
 21
35.766068620114652
 31
0.0
  0
LINE
  5
2E37
  8
TITLE
 10
171.1005857086447
 20
35.136220343586849
 30
0.0
 11
171.6812607238839
 21
35.716895358825802
 31
0.0
  0
LINE
  5
2E38
  8
TITLE
 10
171.14328257862141
 20
35.091632340923752
 30
0.0
 11
171.72022614195541
 21
35.668575904249892
 31
0.0
  0
LINE
  5
2E39
  8
TITLE
 10
171.1868400837534
 20
35.047904973407739
 30
0.0
 11
171.76004008932929
 21
35.621104978976838
 31
0.0
  0
LINE
  5
2E3A
  8
TITLE
 10
171.46632368907191
 20
34.803679342843679
 30
0.0
 11
171.84290230430341
 21
35.18025795808272
 31
0.0
  0
LINE
  5
2E3B
  8
TITLE
 10
171.51595983130881
 20
34.766030612433269
 30
0.0
 11
171.84290230430341
 21
35.092973085435339
 31
0.0
  0
LINE
  5
2E3C
  8
TITLE
 10
171.56648466835381
 20
34.729270576834438
 30
0.0
 11
171.84290230430341
 21
35.0056882127883
 31
0.0
  0
LINE
  5
2E3D
  8
TITLE
 10
171.6702353943478
 20
34.65845155753447
 30
0.0
 11
171.84290230430341
 21
34.831118467494093
 31
0.0
  0
LINE
  5
2E3E
  8
TITLE
 10
171.7234819009968
 20
34.624413191532987
 30
0.0
 11
171.84290230430341
 21
34.743833594846812
 31
0.0
  0
LINE
  5
2E3F
  8
TITLE
 10
171.8327788769505
 20
34.55914042219581
 30
0.0
 11
171.84290230430341
 21
34.569263849552371
 31
0.0
  0
LINE
  5
2E40
  8
TITLE
 10
171.77765847314851
 20
34.591304891044501
 30
0.0
 11
171.84290230430341
 21
34.656548722199517
 31
0.0
  0
LINE
  5
2E41
  8
TITLE
 10
171.61790663494361
 20
34.693407670773929
 30
0.0
 11
171.84290230430341
 21
34.91840334014114
 31
0.0
  0
LINE
  5
2E42
  8
TITLE
 10
172.29475386004361
 20
35.108400277939268
 30
0.0
 11
172.32305931261311
 21
35.136705730509341
 31
0.0
  0
LINE
  5
2E43
  8
TITLE
 10
172.29475386004361
 20
35.021115405292221
 30
0.0
 11
172.413232672352
 21
35.13959421760056
 31
0.0
  0
LINE
  5
2E44
  8
TITLE
 10
172.29475386004361
 20
34.93383053264494
 30
0.0
 11
172.5039899720459
 21
35.143066644650851
 31
0.0
  0
LINE
  5
2E45
  8
TITLE
 10
169.75336302846321
 20
34.836416135163731
 30
0.0
 11
170.56305938401781
 21
35.646112490718103
 31
0.0
  0
LINE
  5
2E46
  8
TITLE
 10
169.75336302846321
 20
34.749131262516471
 30
0.0
 11
170.56305938401781
 21
35.558827618070829
 31
0.0
  0
LINE
  5
2E47
  8
TITLE
 10
169.75336302846321
 20
34.66184638986919
 30
0.0
 11
170.56305938401781
 21
35.471542745423662
 31
0.0
  0
LINE
  5
2E48
  8
TITLE
 10
169.75336302846321
 20
34.574561517222143
 30
0.0
 11
170.56305938401781
 21
35.38425787277653
 31
0.0
  0
LINE
  5
2E49
  8
TITLE
 10
169.75336302846321
 20
34.48727664457499
 30
0.0
 11
170.56305938401781
 21
35.296973000129228
 31
0.0
  0
LINE
  5
2E4A
  8
TITLE
 10
169.75336302846321
 20
34.399991771931681
 30
0.0
 11
170.56305938401781
 21
35.209688127485599
 31
0.0
  0
LINE
  5
2E4B
  8
TITLE
 10
169.75336302846321
 20
34.312706899284301
 30
0.0
 11
170.56305938401781
 21
35.12240325483878
 31
0.0
  0
LINE
  5
2E4C
  8
TITLE
 10
169.818605365911
 20
34.290664364088208
 30
0.0
 11
170.56305938401781
 21
35.035118382191499
 31
0.0
  0
LINE
  5
2E4D
  8
TITLE
 10
169.90589023855759
 20
34.290664364088208
 30
0.0
 11
170.56305938401781
 21
34.94783350954809
 31
0.0
  0
LINE
  5
2E4E
  8
TITLE
 10
169.75336302846321
 20
34.923701007810998
 30
0.0
 11
170.56305938401781
 21
35.73339736336515
 31
0.0
  0
LINE
  5
2E4F
  8
TITLE
 10
169.99317511120481
 20
34.290664364088208
 30
0.0
 11
170.56305938401781
 21
34.860548636901157
 31
0.0
  0
LINE
  5
2E50
  8
TITLE
 10
170.08045998385191
 20
34.290664364088208
 30
0.0
 11
170.56305938401781
 21
34.773263764253791
 31
0.0
  0
LINE
  5
2E51
  8
TITLE
 10
170.16774485649921
 20
34.290664364088208
 30
0.0
 11
170.56305938401781
 21
34.685978891606972
 31
0.0
  0
LINE
  5
2E52
  8
TITLE
 10
170.25502972914671
 20
34.290664364088208
 30
0.0
 11
170.56305938401781
 21
34.598694018959691
 31
0.0
  0
LINE
  5
2E53
  8
TITLE
 10
170.34231460179379
 20
34.290664364088208
 30
0.0
 11
170.56305938401781
 21
34.511409146311841
 31
0.0
  0
LINE
  5
2E54
  8
TITLE
 10
170.42959947444061
 20
34.290664364088208
 30
0.0
 11
170.56305938401781
 21
34.424124273664901
 31
0.0
  0
LINE
  5
2E55
  8
TITLE
 10
170.51688434708041
 20
34.290664364088208
 30
0.0
 11
170.56305938401781
 21
34.336839401017862
 31
0.0
  0
LINE
  5
2E56
  8
TITLE
 10
169.75336302846321
 20
35.098270753101467
 30
0.0
 11
170.56305938401781
 21
35.907967108659797
 31
0.0
  0
LINE
  5
2E57
  8
TITLE
 10
169.75336302846321
 20
35.010985880458051
 30
0.0
 11
170.56305938401781
 21
35.82068223601221
 31
0.0
  0
LINE
  5
2E58
  8
TITLE
 10
170.79034302516391
 20
35.524256641282697
 30
0.0
 11
171.40094270567701
 21
36.134856321796171
 31
0.0
  0
LINE
  5
2E59
  8
TITLE
 10
170.82602771841081
 20
35.472656461883147
 30
0.0
 11
171.43283867123131
 21
36.079467414699252
 31
0.0
  0
LINE
  5
2E5A
  8
TITLE
 10
168.66624012647111
 20
35.756845304045441
 30
0.0
 11
170.68070409254901
 21
37.771309270119673
 31
0.0
  0
LINE
  5
2E5B
  8
TITLE
 10
168.85657310276881
 20
36.034463152986277
 30
0.0
 11
170.5934192199019
 21
37.771309270119673
 31
0.0
  0
LINE
  5
2E5C
  8
TITLE
 10
169.75336302846321
 20
35.883834606922292
 30
0.0
 11
171.03432978502079
 21
37.164801363480251
 31
0.0
  0
LINE
  5
2E5D
  8
TITLE
 10
169.75336302846321
 20
35.796549734275111
 30
0.0
 11
171.04796205820901
 21
37.091148764020758
 31
0.0
  0
LINE
  5
2E5E
  8
TITLE
 10
169.75336302846321
 20
35.709264861627958
 30
0.0
 11
171.0630551711009
 21
37.018957004265758
 31
0.0
  0
LINE
  5
2E5F
  8
TITLE
 10
169.75336302846321
 20
35.62197998898079
 30
0.0
 11
171.0795448520434
 21
36.94816181256089
 31
0.0
  0
LINE
  5
2E60
  8
TITLE
 10
169.75336302846321
 20
35.534695116333509
 30
0.0
 11
171.09737342765891
 21
36.878705515537042
 31
0.0
  0
LINE
  5
2E61
  8
TITLE
 10
169.75336302846321
 20
35.44741024368647
 30
0.0
 11
171.11648897836659
 21
36.810536193593393
 31
0.0
  0
LINE
  5
2E62
  8
TITLE
 10
169.75336302846321
 20
35.360125371039203
 30
0.0
 11
171.13684463262871
 21
36.743606975211719
 31
0.0
  0
LINE
  5
2E63
  8
TITLE
 10
169.75336302846321
 20
35.272840498395787
 30
0.0
 11
171.158397973359
 21
36.677875443295193
 31
0.0
  0
LINE
  5
2E64
  8
TITLE
 10
170.6568119217585
 20
35.73986502845878
 30
0.0
 11
171.28289973173511
 21
36.365952838435639
 31
0.0
  0
LINE
  5
2E65
  8
TITLE
 10
170.6887883011895
 20
35.684556535249939
 30
0.0
 11
171.31094301496421
 21
36.306711249017532
 31
0.0
  0
LINE
  5
2E66
  8
TITLE
 10
170.72171140923999
 20
35.630194770646192
 30
0.0
 11
171.33997758928979
 21
36.248460950695751
 31
0.0
  0
LINE
  5
2E67
  8
TITLE
 10
170.75556718291679
 20
35.576765671683113
 30
0.0
 11
171.3699835271926
 21
36.191182015958688
 31
0.0
  0
LINE
  5
2E68
  8
TITLE
 10
169.75336302846321
 20
35.185555625748641
 30
0.0
 11
171.1811105354904
 21
36.613303132779812
 31
0.0
  0
LINE
  5
2E69
  8
TITLE
 10
170.56672796720741
 20
35.91163569184959
 30
0.0
 11
171.20494737851641
 21
36.549855103162031
 31
0.0
  0
LINE
  5
2E6A
  8
TITLE
 10
170.59576354154379
 20
35.853386393538472
 30
0.0
 11
171.22987672092631
 21
36.487499572921251
 31
0.0
  0
LINE
  5
2E6B
  8
TITLE
 10
170.625797899247
 20
35.796135878594427
 30
0.0
 11
171.25586962614381
 21
36.426207605491641
 31
0.0
  0
LINE
  5
2E6C
  8
TITLE
 10
164.44450936371501
 20
39.827177442700638
 30
0.0
 11
164.4726201723729
 21
39.855288251358161
 31
0.0
  0
LINE
  5
2E6D
  8
TITLE
 10
166.880246378229
 20
39.557083405174701
 30
0.0
 11
167.1784512244129
 21
39.855288251358161
 31
0.0
  0
LINE
  5
2E6E
  8
TITLE
 10
166.880246378229
 20
39.469798532527541
 30
0.0
 11
167.26573609706011
 21
39.855288251358161
 31
0.0
  0
LINE
  5
2E6F
  8
TITLE
 10
166.880246378229
 20
39.38251365988026
 30
0.0
 11
167.3530209697073
 21
39.855288251358161
 31
0.0
  0
LINE
  5
2E70
  8
TITLE
 10
166.880246378229
 20
39.644368277821847
 30
0.0
 11
167.09116635176571
 21
39.855288251358161
 31
0.0
  0
LINE
  5
2E71
  8
TITLE
 10
166.880246378229
 20
39.818938023112757
 30
0.0
 11
166.91659660647139
 21
39.855288251358161
 31
0.0
  0
LINE
  5
2E72
  8
TITLE
 10
166.880246378229
 20
39.731653150465718
 30
0.0
 11
167.0038814791186
 21
39.855288251358161
 31
0.0
  0
LINE
  5
2E73
  8
TITLE
 10
168.73471248846209
 20
39.578567189831681
 30
0.0
 11
169.01143354998879
 21
39.855288251358161
 31
0.0
  0
LINE
  5
2E74
  8
TITLE
 10
168.73471248846209
 20
39.491282317184741
 30
0.0
 11
169.0987184226359
 21
39.855288251358161
 31
0.0
  0
LINE
  5
2E75
  8
TITLE
 10
168.730410541114
 20
39.3996954971891
 30
0.0
 11
169.186003295283
 21
39.855288251358161
 31
0.0
  0
LINE
  5
2E76
  8
TITLE
 10
168.73471248846209
 20
39.665852062478862
 30
0.0
 11
168.92414867734161
 21
39.855288251358161
 31
0.0
  0
LINE
  5
2E77
  8
TITLE
 10
168.73471248846209
 20
39.840421807769651
 30
0.0
 11
168.74957893204731
 21
39.855288251358161
 31
0.0
  0
LINE
  5
2E78
  8
TITLE
 10
168.73471248846209
 20
39.753136935122811
 30
0.0
 11
168.83686380469439
 21
39.855288251358161
 31
0.0
  0
LINE
  5
2E79
  8
TITLE
 10
169.75336302846321
 20
39.637084130721277
 30
0.0
 11
169.97156714910031
 21
39.855288251358161
 31
0.0
  0
LINE
  5
2E7A
  8
TITLE
 10
169.75336302846321
 20
39.54979925807401
 30
0.0
 11
170.0588520217473
 21
39.855288251358161
 31
0.0
  0
LINE
  5
2E7B
  8
TITLE
 10
169.75336302846321
 20
39.462514385426971
 30
0.0
 11
170.14613689439449
 21
39.855288251358161
 31
0.0
  0
LINE
  5
2E7C
  8
TITLE
 10
169.75336302846321
 20
39.375229512779811
 30
0.0
 11
170.23342176704131
 21
39.855288251358161
 31
0.0
  0
LINE
  5
2E7D
  8
TITLE
 10
169.75336302846321
 20
39.811653876011967
 30
0.0
 11
169.7969974038059
 21
39.855288251358161
 31
0.0
  0
LINE
  5
2E7E
  8
TITLE
 10
169.75336302846321
 20
39.724369003365162
 30
0.0
 11
169.88428227645301
 21
39.855288251358161
 31
0.0
  0
LINE
  5
2E7F
  8
TITLE
 10
178.62195175007159
 20
37.856918389459331
 30
0.0
 11
180.17143789622639
 21
39.406404535614101
 31
0.0
  0
LINE
  5
2E80
  8
TITLE
 10
178.7343118213098
 20
37.881993588050122
 30
0.0
 11
180.70760648461399
 21
39.855288251358161
 31
0.0
  0
LINE
  5
2E81
  8
TITLE
 10
175.0860986772098
 20
38.42345433098194
 30
0.0
 11
176.51793259758671
 21
39.855288251358161
 31
0.0
  0
LINE
  5
2E82
  8
TITLE
 10
175.17338354985711
 20
38.42345433098194
 30
0.0
 11
176.5521900557718
 21
39.80226083689967
 31
0.0
  0
LINE
  5
2E83
  8
TITLE
 10
175.26066842250421
 20
38.42345433098194
 30
0.0
 11
176.5521900557718
 21
39.714975964252851
 31
0.0
  0
LINE
  5
2E84
  8
TITLE
 10
175.3479532951514
 20
38.42345433098194
 30
0.0
 11
176.5521900557718
 21
39.627691091609108
 31
0.0
  0
LINE
  5
2E85
  8
TITLE
 10
175.43523816779171
 20
38.42345433098194
 30
0.0
 11
176.5521900557718
 21
39.540406218961941
 31
0.0
  0
LINE
  5
2E86
  8
TITLE
 10
175.52252304043839
 20
38.42345433098194
 30
0.0
 11
176.5521900557718
 21
39.453121346314788
 31
0.0
  0
LINE
  5
2E87
  8
TITLE
 10
175.609807913086
 20
38.42345433098194
 30
0.0
 11
176.5521900557718
 21
39.365836473667507
 31
0.0
  0
LINE
  5
2E88
  8
TITLE
 10
175.7163744855396
 20
39.141015011958167
 30
0.0
 11
176.43064772493949
 21
39.855288251358161
 31
0.0
  0
LINE
  5
2E89
  8
TITLE
 10
175.7163744855396
 20
39.228299884605562
 30
0.0
 11
176.3433628522925
 21
39.855288251358161
 31
0.0
  0
LINE
  5
2E8A
  8
TITLE
 10
176.569941512197
 20
38.42345433098194
 30
0.0
 11
177.27425821234681
 21
39.12777103113114
 31
0.0
  0
LINE
  5
2E8B
  8
TITLE
 10
176.65722638484431
 20
38.42345433098194
 30
0.0
 11
177.36154308499391
 21
39.12777103113114
 31
0.0
  0
LINE
  5
2E8C
  8
TITLE
 10
175.7163744855396
 20
37.831741922261912
 30
0.0
 11
177.012403594413
 21
39.12777103113114
 31
0.0
  0
LINE
  5
2E8D
  8
TITLE
 10
175.7163744855396
 20
37.744457049618283
 30
0.0
 11
177.0996884670526
 21
39.12777103113114
 31
0.0
  0
LINE
  5
2E8E
  8
TITLE
 10
175.7163744855396
 20
38.093596540199641
 30
0.0
 11
176.75054897647061
 21
39.12777103113114
 31
0.0
  0
LINE
  5
2E8F
  8
TITLE
 10
175.7163744855396
 20
38.006311667556133
 30
0.0
 11
176.8378338491184
 21
39.12777103113114
 31
0.0
  0
LINE
  5
2E90
  8
TITLE
 10
175.7163744855396
 20
37.919026794908852
 30
0.0
 11
176.9251187217655
 21
39.12777103113114
 31
0.0
  0
LINE
  5
2E91
  8
TITLE
 10
175.71748810799539
 20
37.65828579942319
 30
0.0
 11
177.18697333969959
 21
39.12777103113114
 31
0.0
  0
LINE
  5
2E92
  8
TITLE
 10
176.4410397807705
 20
35.501436674867357
 30
0.0
 11
177.00200967509181
 21
36.062406569188731
 31
0.0
  0
LINE
  5
2E93
  8
TITLE
 10
176.47781156242991
 20
35.450923583876033
 30
0.0
 11
177.03825805769691
 21
36.011370079147227
 31
0.0
  0
LINE
  5
2E94
  8
TITLE
 10
176.5153009055802
 20
35.401128054383321
 30
0.0
 11
177.07559288524399
 21
35.961420034046782
 31
0.0
  0
LINE
  5
2E95
  8
TITLE
 10
176.5535029498246
 20
35.352045225980177
 30
0.0
 11
177.11400278758671
 21
35.9125450637423
 31
0.0
  0
LINE
  5
2E96
  8
TITLE
 10
176.59241343422801
 20
35.30367083774388
 30
0.0
 11
177.1534784526774
 21
35.864735856185561
 31
0.0
  0
LINE
  5
2E97
  8
TITLE
 10
176.63202868031681
 20
35.256001211177797
 30
0.0
 11
177.1940125419714
 21
35.817985072835967
 31
0.0
  0
LINE
  5
2E98
  8
TITLE
 10
176.36967146210731
 20
35.604638101494849
 30
0.0
 11
176.93282867236189
 21
36.16779531175348
 31
0.0
  0
LINE
  5
2E99
  8
TITLE
 10
176.4049910402052
 20
35.552672806949893
 30
0.0
 11
176.96686127123681
 21
36.114543037981193
 31
0.0
  0
LINE
  5
2E9A
  8
TITLE
 10
176.6723455774939
 20
35.209033235707452
 30
0.0
 11
177.2355996248811
 21
35.772287283102173
 31
0.0
  0
LINE
  5
2E9B
  8
TITLE
 10
176.1734972755398
 20
35.932173150807103
 30
0.0
 11
176.7532860596265
 21
36.511961934897151
 31
0.0
  0
LINE
  5
2E9C
  8
TITLE
 10
176.20427370751031
 20
35.875664710130323
 30
0.0
 11
176.780139364945
 21
36.451530367565162
 31
0.0
  0
LINE
  5
2E9D
  8
TITLE
 10
176.2358311975153
 20
35.819937327488333
 30
0.0
 11
176.80826264368341
 21
36.392368773656237
 31
0.0
  0
LINE
  5
2E9E
  8
TITLE
 10
176.2681591056984
 20
35.76498036302803
 30
0.0
 11
176.83762182390109
 21
36.334443081230667
 31
0.0
  0
LINE
  5
2E9F
  8
TITLE
 10
176.3012476450188
 20
35.710784029703959
 30
0.0
 11
176.86818661665339
 21
36.27772300133585
 31
0.0
  0
LINE
  5
2EA0
  8
TITLE
 10
176.33508783528711
 20
35.657339347325653
 30
0.0
 11
176.89993015214239
 21
36.222181664181207
 31
0.0
  0
LINE
  5
2EA1
  8
TITLE
 10
176.11433472331541
 20
36.047580343876902
 30
0.0
 11
176.70354724378271
 21
36.63679286434467
 31
0.0
  0
LINE
  5
2EA2
  8
TITLE
 10
176.1435134456168
 20
35.989474193531251
 30
0.0
 11
176.72774101430309
 21
36.573701762217631
 31
0.0
  0
LINE
  5
2EA3
  8
TITLE
 10
176.08597463990179
 20
36.106505133110197
 30
0.0
 11
176.6807531050562
 21
36.701283598265128
 31
0.0
  0
LINE
  5
2EA4
  8
TITLE
 10
172.6421222431112
 20
38.42345433098194
 30
0.0
 11
173.34643894326041
 21
39.12777103113114
 31
0.0
  0
LINE
  5
2EA5
  8
TITLE
 10
172.7294071157512
 20
38.42345433098194
 30
0.0
 11
173.4337238159078
 21
39.12777103113114
 31
0.0
  0
LINE
  5
2EA6
  8
TITLE
 10
172.8166919883983
 20
38.42345433098194
 30
0.0
 11
173.52100868854811
 21
39.12777103113114
 31
0.0
  0
LINE
  5
2EA7
  8
TITLE
 10
172.90397686104541
 20
38.42345433098194
 30
0.0
 11
173.6082935611951
 21
39.12777103113114
 31
0.0
  0
LINE
  5
2EA8
  8
TITLE
 10
172.99126173369251
 20
38.42345433098194
 30
0.0
 11
173.6955784338424
 21
39.12777103113114
 31
0.0
  0
LINE
  5
2EA9
  8
TITLE
 10
173.07854660633981
 20
38.42345433098194
 30
0.0
 11
173.7828633064895
 21
39.12777103113114
 31
0.0
  0
LINE
  5
2EAA
  8
TITLE
 10
172.66515991559569
 20
36.962649168479047
 30
0.0
 11
173.42164825503269
 21
37.719137507916351
 31
0.0
  0
LINE
  5
2EAB
  8
TITLE
 10
172.7524447882428
 20
36.962649168479047
 30
0.0
 11
173.508933127673
 21
37.719137507916351
 31
0.0
  0
LINE
  5
2EAC
  8
TITLE
 10
172.83972966088999
 20
36.962649168479047
 30
0.0
 11
173.59621800031971
 21
37.719137507916351
 31
0.0
  0
LINE
  5
2EAD
  8
TITLE
 10
172.92701453352981
 20
36.962649168479047
 30
0.0
 11
173.68350287296741
 21
37.719137507916351
 31
0.0
  0
LINE
  5
2EAE
  8
TITLE
 10
173.01429940617709
 20
36.962649168479047
 30
0.0
 11
173.7707877456146
 21
37.719137507916351
 31
0.0
  0
LINE
  5
2EAF
  8
TITLE
 10
173.10158427882411
 20
36.962649168479047
 30
0.0
 11
173.85807261826159
 21
37.719137507916351
 31
0.0
  0
LINE
  5
2EB0
  8
TITLE
 10
175.69709278573319
 20
38.42345433098194
 30
0.0
 11
176.5521900557718
 21
39.278551601020801
 31
0.0
  0
LINE
  5
2EB1
  8
TITLE
 10
175.7163744855396
 20
38.355451158140909
 30
0.0
 11
176.5521900557718
 21
39.191266728373201
 31
0.0
  0
LINE
  5
2EB2
  8
TITLE
 10
175.7163744855396
 20
38.268166285493848
 30
0.0
 11
176.5759792311768
 21
39.12777103113114
 31
0.0
  0
LINE
  5
2EB3
  8
TITLE
 10
175.7163744855396
 20
38.180881412846823
 30
0.0
 11
176.66326410382391
 21
39.12777103113114
 31
0.0
  0
LINE
  5
2EB4
  8
TITLE
 10
174.9988138045631
 20
38.42345433098194
 30
0.0
 11
175.7031305047125
 21
39.12777103113114
 31
0.0
  0
LINE
  5
2EB5
  8
TITLE
 10
173.5149709695755
 20
38.42345433098194
 30
0.0
 11
174.21928766972491
 21
39.12777103113114
 31
0.0
  0
LINE
  5
2EB6
  8
TITLE
 10
173.60225584221541
 20
38.42345433098194
 30
0.0
 11
174.30657254237241
 21
39.12777103113114
 31
0.0
  0
LINE
  5
2EB7
  8
TITLE
 10
173.6895407148626
 20
38.42345433098194
 30
0.0
 11
174.39385741501241
 21
39.12777103113114
 31
0.0
  0
LINE
  5
2EB8
  8
TITLE
 10
173.77682558750971
 20
38.42345433098194
 30
0.0
 11
174.48114228765999
 21
39.12777103113114
 31
0.0
  0
LINE
  5
2EB9
  8
TITLE
 10
173.86411046015701
 20
38.42345433098194
 30
0.0
 11
174.56842716030661
 21
39.12777103113114
 31
0.0
  0
LINE
  5
2EBA
  8
TITLE
 10
173.95139533280411
 20
38.42345433098194
 30
0.0
 11
174.65571203295389
 21
39.12777103113114
 31
0.0
  0
LINE
  5
2EBB
  8
TITLE
 10
174.0386802054513
 20
38.42345433098194
 30
0.0
 11
174.7429969056011
 21
39.12777103113114
 31
0.0
  0
LINE
  5
2EBC
  8
TITLE
 10
174.1259650780984
 20
38.42345433098194
 30
0.0
 11
174.83028177824809
 21
39.12777103113114
 31
0.0
  0
LINE
  5
2EBD
  8
TITLE
 10
173.34040122428121
 20
38.42345433098194
 30
0.0
 11
174.0447179244311
 21
39.12777103113114
 31
0.0
  0
LINE
  5
2EBE
  8
TITLE
 10
173.4276860969284
 20
38.42345433098194
 30
0.0
 11
174.13200279707809
 21
39.12777103113114
 31
0.0
  0
LINE
  5
2EBF
  8
TITLE
 10
173.165831478987
 20
38.42345433098194
 30
0.0
 11
173.87014817913649
 21
39.12777103113114
 31
0.0
  0
LINE
  5
2EC0
  8
TITLE
 10
173.25311635163411
 20
38.42345433098194
 30
0.0
 11
173.95743305178391
 21
39.12777103113114
 31
0.0
  0
LINE
  5
2EC1
  8
TITLE
 10
174.21324995074551
 20
38.42345433098194
 30
0.0
 11
174.91756665089531
 21
39.12777103113114
 31
0.0
  0
LINE
  5
2EC2
  8
TITLE
 10
174.30053482339281
 20
38.42345433098194
 30
0.0
 11
175.00485152354261
 21
39.12777103113114
 31
0.0
  0
LINE
  5
2EC3
  8
TITLE
 10
174.38781969603991
 20
38.42345433098194
 30
0.0
 11
175.09213639618949
 21
39.12777103113114
 31
0.0
  0
LINE
  5
2EC4
  8
TITLE
 10
174.4751045686798
 20
38.42345433098194
 30
0.0
 11
175.1794212688369
 21
39.12777103113114
 31
0.0
  0
LINE
  5
2EC5
  8
TITLE
 10
174.56238944132701
 20
38.42345433098194
 30
0.0
 11
175.26670614148401
 21
39.12777103113114
 31
0.0
  0
LINE
  5
2EC6
  8
TITLE
 10
174.649674313974
 20
38.42345433098194
 30
0.0
 11
175.35399101412389
 21
39.12777103113114
 31
0.0
  0
LINE
  5
2EC7
  8
TITLE
 10
174.73695918662131
 20
38.42345433098194
 30
0.0
 11
175.44127588677111
 21
39.12777103113114
 31
0.0
  0
LINE
  5
2EC8
  8
TITLE
 10
174.82424405926841
 20
38.42345433098194
 30
0.0
 11
175.5285607594181
 21
39.12777103113114
 31
0.0
  0
LINE
  5
2EC9
  8
TITLE
 10
174.91152893191551
 20
38.42345433098194
 30
0.0
 11
175.6158456320658
 21
39.12777103113114
 31
0.0
  0
LINE
  5
2ECA
  8
TITLE
 10
175.80039169334071
 20
36.95562553094851
 30
0.0
 11
176.5512700011549
 21
37.706503838769322
 31
0.0
  0
LINE
  5
2ECB
  8
TITLE
 10
175.8162312859784
 20
36.884180250945292
 30
0.0
 11
176.54644819940981
 21
37.61439716437701
 31
0.0
  0
LINE
  5
2ECC
  8
TITLE
 10
175.83320787739009
 20
36.813871969706611
 30
0.0
 11
176.544929300891
 21
37.525593393203849
 31
0.0
  0
LINE
  5
2ECD
  8
TITLE
 10
175.85128325036791
 20
36.74466247004068
 30
0.0
 11
176.54637638169001
 21
37.439755601363117
 31
0.0
  0
LINE
  5
2ECE
  8
TITLE
 10
175.87042235499641
 20
36.676516702022468
 30
0.0
 11
176.55051492869401
 21
37.356609275716551
 31
0.0
  0
LINE
  5
2ECF
  8
TITLE
 10
175.28370609498859
 20
36.962649168479047
 30
0.0
 11
175.42906265706051
 21
37.108005730550651
 31
0.0
  0
LINE
  5
2ED0
  8
TITLE
 10
175.89059298556359
 20
36.609402459942302
 30
0.0
 11
176.55711787864311
 21
37.275927353022212
 31
0.0
  0
LINE
  5
2ED1
  8
TITLE
 10
175.91176550047459
 20
36.543290102213277
 30
0.0
 11
176.56599500459191
 21
37.197519606330722
 31
0.0
  0
LINE
  5
2ED2
  8
TITLE
 10
175.93391257849041
 20
36.47815230757498
 30
0.0
 11
176.57698519728771
 21
37.121224926371852
 31
0.0
  0
LINE
  5
2ED3
  8
TITLE
 10
175.95700900562619
 20
36.413963862063497
 30
0.0
 11
176.5899507304789
 21
37.046905586915599
 31
0.0
  0
LINE
  5
2ED4
  8
TITLE
 10
175.98103148839181
 20
36.350701472185719
 30
0.0
 11
176.60477292025959
 21
36.974442904049397
 31
0.0
  0
LINE
  5
2ED5
  8
TITLE
 10
176.0059584894293
 20
36.288343600572148
 30
0.0
 11
176.62134878534971
 21
36.90373389649244
 31
0.0
  0
LINE
  5
2ED6
  8
TITLE
 10
176.0317700824771
 20
36.226870320979863
 30
0.0
 11
176.6395884403218
 21
36.834688678824932
 31
0.0
  0
LINE
  5
2ED7
  8
TITLE
 10
175.37099096763569
 20
36.962649168479047
 30
0.0
 11
175.42906265706051
 21
37.020720857903257
 31
0.0
  0
LINE
  5
2ED8
  8
TITLE
 10
175.02185147704711
 20
36.962649168479047
 30
0.0
 11
175.42906265706051
 21
37.369860348492132
 31
0.0
  0
LINE
  5
2ED9
  8
TITLE
 10
175.1091363496943
 20
36.962649168479047
 30
0.0
 11
175.42906265706051
 21
37.28257547584473
 31
0.0
  0
LINE
  5
2EDA
  8
TITLE
 10
175.196421222342
 20
36.962649168479047
 30
0.0
 11
175.42906265706051
 21
37.19529060319779
 31
0.0
  0
LINE
  5
2EDB
  8
TITLE
 10
173.27615402411851
 20
36.962649168479047
 30
0.0
 11
174.03264236355599
 21
37.719137507916351
 31
0.0
  0
LINE
  5
2EDC
  8
TITLE
 10
173.36343889676559
 20
36.962649168479047
 30
0.0
 11
174.11992723620301
 21
37.719137507916351
 31
0.0
  0
LINE
  5
2EDD
  8
TITLE
 10
173.4507237694128
 20
36.962649168479047
 30
0.0
 11
174.2072121088498
 21
37.719137507916351
 31
0.0
  0
LINE
  5
2EDE
  8
TITLE
 10
173.53800864205991
 20
36.962649168479047
 30
0.0
 11
174.2944969814975
 21
37.719137507916351
 31
0.0
  0
LINE
  5
2EDF
  8
TITLE
 10
173.60071599501401
 20
36.938071648785922
 30
0.0
 11
174.38178185414409
 21
37.719137507916351
 31
0.0
  0
LINE
  5
2EE0
  8
TITLE
 10
173.60071599501401
 20
36.850786776142392
 30
0.0
 11
174.4690667267844
 21
37.719137507916351
 31
0.0
  0
LINE
  5
2EE1
  8
TITLE
 10
173.60071599501401
 20
36.763501903495239
 30
0.0
 11
174.55635159943171
 21
37.719137507916351
 31
0.0
  0
LINE
  5
2EE2
  8
TITLE
 10
173.60071599501401
 20
36.676217030848299
 30
0.0
 11
174.6436364720789
 21
37.719137507916351
 31
0.0
  0
LINE
  5
2EE3
  8
TITLE
 10
173.18886915147081
 20
36.962649168479047
 30
0.0
 11
173.94535749090841
 21
37.719137507916351
 31
0.0
  0
LINE
  5
2EE4
  8
TITLE
 10
173.60071599501401
 20
36.588932158204422
 30
0.0
 11
174.730921344726
 21
37.719137507916351
 31
0.0
  0
LINE
  5
2EE5
  8
TITLE
 10
173.60071599501401
 20
36.501647285557169
 30
0.0
 11
174.81820621737259
 21
37.719137507916351
 31
0.0
  0
LINE
  5
2EE6
  8
TITLE
 10
173.60071599501401
 20
36.414362412909881
 30
0.0
 11
174.9054910900204
 21
37.719137507916351
 31
0.0
  0
LINE
  5
2EE7
  8
TITLE
 10
174.4108573685242
 20
36.962649168479047
 30
0.0
 11
175.16734570796129
 21
37.719137507916351
 31
0.0
  0
LINE
  5
2EE8
  8
TITLE
 10
173.60071599501401
 20
36.239792667615902
 30
0.0
 11
175.0800608353141
 21
37.719137507916351
 31
0.0
  0
LINE
  5
2EE9
  8
TITLE
 10
173.60071599501401
 20
36.32707754026319
 30
0.0
 11
174.99277596266751
 21
37.719137507916351
 31
0.0
  0
LINE
  5
2EEA
  8
TITLE
 10
174.49814224117151
 20
36.962649168479047
 30
0.0
 11
175.25463058060899
 21
37.719137507916351
 31
0.0
  0
LINE
  5
2EEB
  8
TITLE
 10
174.5854271138187
 20
36.962649168479047
 30
0.0
 11
175.3419154532489
 21
37.719137507916351
 31
0.0
  0
LINE
  5
2EEC
  8
TITLE
 10
174.67271198646509
 20
36.962649168479047
 30
0.0
 11
175.42906265706051
 21
37.718999839073142
 31
0.0
  0
LINE
  5
2EED
  8
TITLE
 10
174.75999685910571
 20
36.962649168479047
 30
0.0
 11
175.42906265706051
 21
37.63171496642974
 31
0.0
  0
LINE
  5
2EEE
  8
TITLE
 10
174.8472817317529
 20
36.962649168479047
 30
0.0
 11
175.42906265706051
 21
37.544430093782921
 31
0.0
  0
LINE
  5
2EEF
  8
TITLE
 10
174.9345666044
 20
36.962649168479047
 30
0.0
 11
175.42906265706051
 21
37.457145221135413
 31
0.0
  0
LINE
  5
2EF0
  8
TITLE
 10
175.7318792822939
 20
37.410822355783921
 30
0.0
 11
176.5521900557718
 21
38.23113312926202
 31
0.0
  0
LINE
  5
2EF1
  8
TITLE
 10
175.73986084330861
 20
37.331519044151612
 30
0.0
 11
176.5521900557718
 21
38.143848256614767
 31
0.0
  0
LINE
  5
2EF2
  8
TITLE
 10
175.72060340775161
 20
37.574116226535921
 30
0.0
 11
176.5521900557718
 21
38.405702874556148
 31
0.0
  0
LINE
  5
2EF3
  8
TITLE
 10
175.72543203368051
 20
37.49165997981811
 30
0.0
 11
176.5521900557718
 21
38.31841800190908
 31
0.0
  0
LINE
  5
2EF4
  8
TITLE
 10
175.78573085827881
 20
37.028249568540787
 30
0.0
 11
176.5521900557718
 21
37.794708766033288
 31
0.0
  0
LINE
  5
2EF5
  8
TITLE
 10
175.74930129885641
 20
37.253674627056171
 30
0.0
 11
176.5521900557718
 21
38.056563383970783
 31
0.0
  0
LINE
  5
2EF6
  8
TITLE
 10
175.7601328934274
 20
37.177221348979849
 30
0.0
 11
176.5521900557718
 21
37.969278511323743
 31
0.0
  0
LINE
  5
2EF7
  8
TITLE
 10
175.77229451706481
 20
37.102098099970021
 30
0.0
 11
176.5521900557718
 21
37.881993638676811
 31
0.0
  0
LINE
  5
2EF8
  8
TITLE
 10
172.62116284594401
 20
34.300105919434237
 30
0.0
 11
173.54465669864331
 21
35.223599772133753
 31
0.0
  0
LINE
  5
2EF9
  8
TITLE
 10
172.7128651691709
 20
34.30452337001735
 30
0.0
 11
174.35817392121399
 21
35.949832122056691
 31
0.0
  0
LINE
  5
2EFA
  8
TITLE
 10
172.80539353300171
 20
34.309766861197531
 30
0.0
 11
174.35817392121399
 21
35.86254724940931
 31
0.0
  0
LINE
  5
2EFB
  8
TITLE
 10
172.8987719179963
 20
34.315860373552042
 30
0.0
 11
174.35817392121399
 21
35.775262376762029
 31
0.0
  0
LINE
  5
2EFC
  8
TITLE
 10
172.9930256840492
 20
34.322829266958117
 30
0.0
 11
174.35817392121399
 21
35.687977504115103
 31
0.0
  0
LINE
  5
2EFD
  8
TITLE
 10
173.08818168389271
 20
34.330700394146682
 30
0.0
 11
174.35817392121399
 21
35.60069263147124
 31
0.0
  0
LINE
  5
2EFE
  8
TITLE
 10
175.24365830818101
 20
34.740479565507151
 30
0.0
 11
175.7163744855396
 21
35.213195742868827
 31
0.0
  0
LINE
  5
2EFF
  8
TITLE
 10
175.3690118717366
 20
34.778548256414972
 30
0.0
 11
175.7163744855396
 21
35.125910870221453
 31
0.0
  0
LINE
  5
2F00
  8
TITLE
 10
175.49681557712751
 20
34.819067089162658
 30
0.0
 11
175.7163744855396
 21
35.03862599757781
 31
0.0
  0
LINE
  5
2F01
  8
TITLE
 10
175.6272506006689
 20
34.862217240053027
 30
0.0
 11
175.7163744855396
 21
34.951341124930757
 31
0.0
  0
LINE
  5
2F02
  8
TITLE
 10
174.9996779682304
 20
34.671068970850442
 30
0.0
 11
175.7163744855396
 21
35.38776548815953
 31
0.0
  0
LINE
  5
2F03
  8
TITLE
 10
175.12059456887241
 20
34.704700698852868
 30
0.0
 11
175.7163744855396
 21
35.300480615512228
 31
0.0
  0
LINE
  5
2F04
  8
TITLE
 10
173.60071599501401
 20
35.366943941151469
 30
0.0
 11
174.35817392121399
 21
36.12440186735067
 31
0.0
  0
LINE
  5
2F05
  8
TITLE
 10
173.60071599501401
 20
35.279659068504188
 30
0.0
 11
174.35817392121399
 21
36.03711699470341
 31
0.0
  0
LINE
  5
2F06
  8
TITLE
 10
173.28131602967761
 20
34.349264994645061
 30
0.0
 11
174.35817392121399
 21
35.426122886180892
 31
0.0
  0
LINE
  5
2F07
  8
TITLE
 10
173.37935675094769
 20
34.360020843260571
 30
0.0
 11
174.3587945770258
 21
35.3394586693463
 31
0.0
  0
LINE
  5
2F08
  8
TITLE
 10
173.47842478709251
 20
34.371804006765487
 30
0.0
 11
174.4646026384064
 21
35.357981858079143
 31
0.0
  0
LINE
  5
2F09
  8
TITLE
 10
173.57855665712569
 20
34.384651004147813
 30
0.0
 11
174.5714021776102
 21
35.377496524635831
 31
0.0
  0
LINE
  5
2F0A
  8
TITLE
 10
173.67979138452739
 20
34.398600858906192
 30
0.0
 11
174.6792258417463
 21
35.39803531612506
 31
0.0
  0
LINE
  5
2F0B
  8
TITLE
 10
173.78217074520521
 20
34.41369534693694
 30
0.0
 11
174.78810829274681
 21
35.419632894478461
 31
0.0
  0
LINE
  5
2F0C
  8
TITLE
 10
173.8857395479281
 20
34.429979277012073
 30
0.0
 11
174.89808638659341
 21
35.442326115677929
 31
0.0
  0
LINE
  5
2F0D
  8
TITLE
 10
173.18426838901661
 20
34.339502226623722
 30
0.0
 11
174.35817392121399
 21
35.513407758824421
 31
0.0
  0
LINE
  5
2F0E
  8
TITLE
 10
174.0966418348348
 20
34.466311818631517
 30
0.0
 11
175.1214891236221
 21
35.491159107419321
 31
0.0
  0
LINE
  5
2F0F
  8
TITLE
 10
174.2040831984545
 20
34.486468309601271
 30
0.0
 11
175.23500037744671
 21
35.517385488596339
 31
0.0
  0
LINE
  5
2F10
  8
TITLE
 10
173.990545952898
 20
34.4475008093425
 30
0.0
 11
175.009199373716
 21
35.46615423015713
 31
0.0
  0
LINE
  5
2F11
  8
TITLE
 10
174.31293065595901
 20
34.508030894457988
 30
0.0
 11
175.34978103284081
 21
35.544881271343677
 31
0.0
  0
LINE
  5
2F12
  8
TITLE
 10
174.42324997823971
 20
34.531065344095282
 30
0.0
 11
175.4658824663729
 21
35.573697832228042
 31
0.0
  0
LINE
  5
2F13
  8
TITLE
 10
174.5351127341973
 20
34.555643227405533
 30
0.0
 11
175.58335989966679
 21
35.60389039287508
 31
0.0
  0
LINE
  5
2F14
  8
TITLE
 10
174.64859703605481
 20
34.58184265662009
 30
0.0
 11
175.7022728168298
 21
35.63551843739139
 31
0.0
  0
LINE
  5
2F15
  8
TITLE
 10
174.76378841308079
 20
34.609749160994951
 30
0.0
 11
175.7163744855396
 21
35.56233523345383
 31
0.0
  0
LINE
  5
2F16
  8
TITLE
 10
174.8807808417514
 20
34.639456717018561
 30
0.0
 11
175.7163744855396
 21
35.475050360806563
 31
0.0
  0
LINE
  5
2F17
  8
TITLE
 10
176.0584478241104
 20
36.16626318996282
 30
0.0
 11
176.65941303471681
 21
36.767228400569017
 31
0.0
  0
LINE
  5
2F18
  8
TITLE
 10
173.60071599501401
 20
35.803368304383639
 30
0.0
 11
174.35817392121399
 21
36.560826230582961
 31
0.0
  0
LINE
  5
2F19
  8
TITLE
 10
173.60071599501401
 20
35.716083431740088
 30
0.0
 11
174.35817392121399
 21
36.47354135793568
 31
0.0
  0
LINE
  5
2F1A
  8
TITLE
 10
173.60071599501401
 20
35.628798559092843
 30
0.0
 11
174.35817392121399
 21
36.386256485288747
 31
0.0
  0
LINE
  5
2F1B
  8
TITLE
 10
173.60071599501401
 20
35.54151368644591
 30
0.0
 11
174.35817392121399
 21
36.298971612645232
 31
0.0
  0
LINE
  5
2F1C
  8
TITLE
 10
173.60071599501401
 20
35.454228813798508
 30
0.0
 11
174.35817392121399
 21
36.211686739998171
 31
0.0
  0
LINE
  5
2F1D
  8
TITLE
 10
173.60071599501401
 20
35.977938049677611
 30
0.0
 11
174.35817392121399
 21
36.73539597587375
 31
0.0
  0
LINE
  5
2F1E
  8
TITLE
 10
173.60071599501401
 20
35.890653177030792
 30
0.0
 11
174.35817392121399
 21
36.648111103226469
 31
0.0
  0
LINE
  5
2F1F
  8
TITLE
 10
173.60071599501401
 20
36.152507794968741
 30
0.0
 11
174.35817392121399
 21
36.90996572116817
 31
0.0
  0
LINE
  5
2F20
  8
TITLE
 10
173.60071599501401
 20
36.065222922321482
 30
0.0
 11
174.35817392121399
 21
36.822680848520903
 31
0.0
  0
LINE
  5
2F21
  8
TITLE
 10
176.74451125749181
 20
38.42345433098194
 30
0.0
 11
177.4488279576411
 21
39.12777103113114
 31
0.0
  0
LINE
  5
2F22
  8
TITLE
 10
176.831796130139
 20
38.42345433098194
 30
0.0
 11
177.5361128302884
 21
39.12777103113114
 31
0.0
  0
LINE
  5
2F23
  8
TITLE
 10
176.91908100278559
 20
38.42345433098194
 30
0.0
 11
177.62339770293551
 21
39.12777103113114
 31
0.0
  0
LINE
  5
2F24
  8
TITLE
 10
177.00636587543281
 20
38.42345433098194
 30
0.0
 11
177.71068257558261
 21
39.12777103113114
 31
0.0
  0
LINE
  5
2F25
  8
TITLE
 10
177.09365074808051
 20
38.42345433098194
 30
0.0
 11
177.7979674482298
 21
39.12777103113114
 31
0.0
  0
LINE
  5
2F26
  8
TITLE
 10
177.18093562072701
 20
38.42345433098194
 30
0.0
 11
177.85815195723299
 21
39.100670667491372
 31
0.0
  0
LINE
  5
2F27
  8
TITLE
 10
179.30763632220351
 20
37.757039107777352
 30
0.0
 11
179.7640706689503
 21
38.213473454524433
 31
0.0
  0
LINE
  5
2F28
  8
TITLE
 10
179.05698927666381
 20
36.28440384518489
 30
0.0
 11
179.76083901393699
 21
36.988253582461773
 31
0.0
  0
LINE
  5
2F29
  8
TITLE
 10
179.144274149311
 20
36.28440384518489
 30
0.0
 11
179.8481238865844
 21
36.988253582461773
 31
0.0
  0
LINE
  5
2F2A
  8
TITLE
 10
179.23155902195811
 20
36.28440384518489
 30
0.0
 11
179.93540875923139
 21
36.988253582461773
 31
0.0
  0
LINE
  5
2F2B
  8
TITLE
 10
179.3188438946051
 20
36.28440384518489
 30
0.0
 11
180.0226936318785
 21
36.988253582461773
 31
0.0
  0
LINE
  5
2F2C
  8
TITLE
 10
179.40612876725251
 20
36.28440384518489
 30
0.0
 11
180.10997850452571
 21
36.988253582461773
 31
0.0
  0
LINE
  5
2F2D
  8
TITLE
 10
179.4934136398997
 20
36.28440384518489
 30
0.0
 11
180.1972633771729
 21
36.988253582461773
 31
0.0
  0
LINE
  5
2F2E
  8
TITLE
 10
179.5806985125468
 20
36.28440384518489
 30
0.0
 11
180.28454824982001
 21
36.988253582461773
 31
0.0
  0
LINE
  5
2F2F
  8
TITLE
 10
179.59417520985909
 20
36.210595669849909
 30
0.0
 11
180.37183312246711
 21
36.988253582461773
 31
0.0
  0
LINE
  5
2F30
  8
TITLE
 10
179.30763632220351
 20
37.669754235130192
 30
0.0
 11
179.8513555415968
 21
38.213473454524433
 31
0.0
  0
LINE
  5
2F31
  8
TITLE
 10
179.30763632220351
 20
37.582469362483131
 30
0.0
 11
179.9386404142445
 21
38.213473454524433
 31
0.0
  0
LINE
  5
2F32
  8
TITLE
 10
179.30763632220351
 20
37.495184489835893
 30
0.0
 11
180.02592528689181
 21
38.213473454524433
 31
0.0
  0
LINE
  5
2F33
  8
TITLE
 10
179.33115489589531
 20
37.431418190884401
 30
0.0
 11
180.11321015953851
 21
38.213473454524433
 31
0.0
  0
LINE
  5
2F34
  8
TITLE
 10
179.41843976854261
 20
37.431418190884401
 30
0.0
 11
180.2004950321861
 21
38.213473454524433
 31
0.0
  0
LINE
  5
2F35
  8
TITLE
 10
179.50572464118949
 20
37.431418190884401
 30
0.0
 11
180.2877799048328
 21
38.213473454524433
 31
0.0
  0
LINE
  5
2F36
  8
TITLE
 10
179.5930095138369
 20
37.431418190884401
 30
0.0
 11
180.37506477747991
 21
38.213473454524433
 31
0.0
  0
LINE
  5
2F37
  8
TITLE
 10
179.68029438648401
 20
37.431418190884401
 30
0.0
 11
180.46234965012741
 21
38.213473454524433
 31
0.0
  0
LINE
  5
2F38
  8
TITLE
 10
179.7675792591312
 20
37.431418190884401
 30
0.0
 11
180.54963452276681
 21
38.213473454524433
 31
0.0
  0
LINE
  5
2F39
  8
TITLE
 10
179.8548641317777
 20
37.431418190884401
 30
0.0
 11
180.63691939541411
 21
38.213473454524433
 31
0.0
  0
LINE
  5
2F3A
  8
TITLE
 10
179.9421490044254
 20
37.431418190884401
 30
0.0
 11
180.72420426806181
 21
38.213473454524433
 31
0.0
  0
LINE
  5
2F3B
  8
TITLE
 10
177.61735998395579
 20
38.42345433098194
 30
0.0
 11
177.85815195723299
 21
38.664246304259208
 31
0.0
  0
LINE
  5
2F3C
  8
TITLE
 10
177.70464485660281
 20
38.42345433098194
 30
0.0
 11
177.85815195723299
 21
38.576961431611828
 31
0.0
  0
LINE
  5
2F3D
  8
TITLE
 10
177.79192972925011
 20
38.42345433098194
 30
0.0
 11
177.85815195723299
 21
38.489676558964788
 31
0.0
  0
LINE
  5
2F3E
  8
TITLE
 10
178.42017100028241
 20
38.615271238781929
 30
0.0
 11
178.5058177253531
 21
38.700917963855773
 31
0.0
  0
LINE
  5
2F3F
  8
TITLE
 10
178.42017100028241
 20
38.527986366134868
 30
0.0
 11
178.6134336205873
 21
38.721248986442902
 31
0.0
  0
LINE
  5
2F40
  8
TITLE
 10
178.42017100028241
 20
38.440701493491567
 30
0.0
 11
178.72504972328699
 21
38.745580216496251
 31
0.0
  0
LINE
  5
2F41
  8
TITLE
 10
178.42017100028241
 20
38.353416620844101
 30
0.0
 11
178.8412384816192
 21
38.774484102180722
 31
0.0
  0
LINE
  5
2F42
  8
TITLE
 10
177.44279023866139
 20
38.42345433098194
 30
0.0
 11
177.85815195723299
 21
38.838816049552968
 31
0.0
  0
LINE
  5
2F43
  8
TITLE
 10
177.53007511130861
 20
38.42345433098194
 30
0.0
 11
177.85815195723299
 21
38.751531176906148
 31
0.0
  0
LINE
  5
2F44
  8
TITLE
 10
178.42017100028241
 20
38.266131748196798
 30
0.0
 11
178.9627386019018
 21
38.808699349816472
 31
0.0
  0
LINE
  5
2F45
  8
TITLE
 10
177.26822049336761
 20
38.42345433098194
 30
0.0
 11
177.85815195723299
 21
39.013385794843771
 31
0.0
  0
LINE
  5
2F46
  8
TITLE
 10
177.35550536601471
 20
38.42345433098194
 30
0.0
 11
177.85815195723299
 21
38.926100922200362
 31
0.0
  0
LINE
  5
2F47
  8
TITLE
 10
178.42017100028241
 20
36.433149422620758
 30
0.0
 11
178.97527516012039
 21
36.988253582461773
 31
0.0
  0
LINE
  5
2F48
  8
TITLE
 10
178.42017100028241
 20
36.695004040559049
 30
0.0
 11
178.7134205421857
 21
36.988253582461773
 31
0.0
  0
LINE
  5
2F49
  8
TITLE
 10
178.42017100028241
 20
36.607719167915093
 30
0.0
 11
178.80070541483281
 21
36.988253582461773
 31
0.0
  0
LINE
  5
2F4A
  8
TITLE
 10
178.42017100028241
 20
36.520434295268039
 30
0.0
 11
178.8879902874728
 21
36.988253582461773
 31
0.0
  0
LINE
  5
2F4B
  8
TITLE
 10
178.42017100028241
 20
36.956858658496792
 30
0.0
 11
178.45156592424411
 21
36.988253582461773
 31
0.0
  0
LINE
  5
2F4C
  8
TITLE
 10
178.42017100028241
 20
36.869573785849532
 30
0.0
 11
178.53885079689081
 21
36.988253582461773
 31
0.0
  0
LINE
  5
2F4D
  8
TITLE
 10
178.42017100028241
 20
36.782288913206102
 30
0.0
 11
178.6261356695386
 21
36.988253582461773
 31
0.0
  0
LINE
  5
2F4E
  8
TITLE
 10
178.42017100028241
 20
37.916992257608051
 30
0.0
 11
179.52877310758771
 21
39.02559436491709
 31
0.0
  0
LINE
  5
2F4F
  8
TITLE
 10
178.42017100028241
 20
37.829707384960791
 30
0.0
 11
179.7044384100885
 21
39.113974794770101
 31
0.0
  0
LINE
  5
2F50
  8
TITLE
 10
178.51270112563259
 20
37.834952637663811
 30
0.0
 11
179.90866117937901
 21
39.230912691410254
 31
0.0
  0
LINE
  5
2F51
  8
TITLE
 10
178.88241953136941
 20
36.28440384518489
 30
0.0
 11
179.58626926865
 21
36.988253582461773
 31
0.0
  0
LINE
  5
2F52
  8
TITLE
 10
178.96970440401711
 20
36.28440384518489
 30
0.0
 11
179.67355414129719
 21
36.988253582461773
 31
0.0
  0
LINE
  5
2F53
  8
TITLE
 10
178.79513465872941
 20
36.28440384518489
 30
0.0
 11
179.49898439600281
 21
36.988253582461773
 31
0.0
  0
LINE
  5
2F54
  8
TITLE
 10
178.42017100028241
 20
36.345864549973953
 30
0.0
 11
179.0625600327671
 21
36.988253582461773
 31
0.0
  0
LINE
  5
2F55
  8
TITLE
 10
178.44599516814091
 20
36.28440384518489
 30
0.0
 11
179.14984490541411
 21
36.988253582461773
 31
0.0
  0
LINE
  5
2F56
  8
TITLE
 10
178.53328004078799
 20
36.28440384518489
 30
0.0
 11
179.23712977806181
 21
36.988253582461773
 31
0.0
  0
LINE
  5
2F57
  8
TITLE
 10
178.62056491343529
 20
36.28440384518489
 30
0.0
 11
179.3244146507086
 21
36.988253582461773
 31
0.0
  0
LINE
  5
2F58
  8
TITLE
 10
178.70784978608251
 20
36.28440384518489
 30
0.0
 11
179.41169952335571
 21
36.988253582461773
 31
0.0
  0
LINE
  5
2F59
  8
TITLE
 10
178.42017100028241
 20
38.178846875549652
 30
0.0
 11
179.09053220582379
 21
38.849208081094382
 31
0.0
  0
LINE
  5
2F5A
  8
TITLE
 10
178.42017100028241
 20
38.091562002902812
 30
0.0
 11
179.22597544339439
 21
38.897366446014857
 31
0.0
  0
LINE
  5
2F5B
  8
TITLE
 10
178.42017100028241
 20
38.0042771302559
 30
0.0
 11
179.3710363945859
 21
38.95514252455893
 31
0.0
  0
LINE
  5
2F5C
  8
TITLE
 10
176.713361570909
 20
35.16276435648296
 30
0.0
 11
177.2782361309045
 21
35.727638916471392
 31
0.0
  0
LINE
  5
2F5D
  8
TITLE
 10
176.75507465156599
 20
35.1171925644935
 30
0.0
 11
177.32192031843971
 21
35.684038231366792
 31
0.0
  0
LINE
  5
2F5E
  8
TITLE
 10
176.79748334857911
 20
35.072316388858781
 30
0.0
 11
177.3666522597118
 21
35.641485299991693
 31
0.0
  0
LINE
  5
2F5F
  8
TITLE
 10
176.8405867235405
 20
35.028134891173181
 30
0.0
 11
177.4124338413398
 21
35.599982008968809
 31
0.0
  0
LINE
  5
2F60
  8
TITLE
 10
176.8843843669637
 20
34.984647661949552
 30
0.0
 11
177.45926878076111
 21
35.559532075746901
 31
0.0
  0
LINE
  5
2F61
  8
TITLE
 10
176.92887639672051
 20
34.94185481905923
 30
0.0
 11
177.50716265869681
 21
35.520141081034922
 31
0.0
  0
LINE
  5
2F62
  8
TITLE
 10
177.0665279164599
 20
34.817651720860681
 30
0.0
 11
177.65728283968971
 21
35.408406644090171
 31
0.0
  0
LINE
  5
2F63
  8
TITLE
 10
177.11380927535251
 20
34.777648207110012
 30
0.0
 11
177.7095076513281
 21
35.373346583081791
 31
0.0
  0
LINE
  5
2F64
  8
TITLE
 10
177.16179360682131
 20
34.738347665930853
 30
0.0
 11
177.76284963274611
 21
35.339403691852212
 31
0.0
  0
LINE
  5
2F65
  8
TITLE
 10
177.21048427373981
 20
34.699753460202231
 30
0.0
 11
177.81732726026789
 21
35.30659644672663
 31
0.0
  0
LINE
  5
2F66
  8
TITLE
 10
176.97406345847341
 20
34.899757008168429
 30
0.0
 11
177.55612296837299
 21
35.481816518064193
 31
0.0
  0
LINE
  5
2F67
  8
TITLE
 10
177.0199467281613
 20
34.858355405212237
 30
0.0
 11
177.6061591825468
 21
35.444567859590848
 31
0.0
  0
LINE
  5
2F68
  8
TITLE
 10
179.07080186643719
 20
34.290664364088208
 30
0.0
 11
180.2896936921579
 21
35.509556189809132
 31
0.0
  0
LINE
  5
2F69
  8
TITLE
 10
179.15808673908481
 20
34.290664364088208
 30
0.0
 11
180.2007323702631
 21
35.33330999527049
 31
0.0
  0
LINE
  5
2F6A
  8
TITLE
 10
179.24537161173151
 20
34.290664364088208
 30
0.0
 11
180.03758041283501
 21
35.082873165192382
 31
0.0
  0
LINE
  5
2F6B
  8
TITLE
 10
179.33265648437859
 20
34.290664364088208
 30
0.0
 11
180.0490391168085
 21
35.007046996521801
 31
0.0
  0
LINE
  5
2F6C
  8
TITLE
 10
179.41994135702581
 20
34.290664364088208
 30
0.0
 11
180.1363239894558
 21
35.007046996521801
 31
0.0
  0
LINE
  5
2F6D
  8
TITLE
 10
179.50722622967251
 20
34.290664364088208
 30
0.0
 11
180.22360886210339
 21
35.007046996521801
 31
0.0
  0
LINE
  5
2F6E
  8
TITLE
 10
179.59451110231291
 20
34.290664364088208
 30
0.0
 11
180.3108937347499
 21
35.007046996521801
 31
0.0
  0
LINE
  5
2F6F
  8
TITLE
 10
179.6817959749601
 20
34.290664364088208
 30
0.0
 11
180.39817860739731
 21
35.007046996521801
 31
0.0
  0
LINE
  5
2F70
  8
TITLE
 10
179.76908084760711
 20
34.290664364088208
 30
0.0
 11
180.48546348004439
 21
35.007046996521801
 31
0.0
  0
LINE
  5
2F71
  8
TITLE
 10
179.8563657202543
 20
34.290664364088208
 30
0.0
 11
180.5727483526843
 21
35.007046996521801
 31
0.0
  0
LINE
  5
2F72
  8
TITLE
 10
179.943650592902
 20
34.290664364088208
 30
0.0
 11
180.6600332253314
 21
35.007046996521801
 31
0.0
  0
LINE
  5
2F73
  8
TITLE
 10
180.03093546554871
 20
34.290664364088208
 30
0.0
 11
180.74731809797839
 21
35.007046996521801
 31
0.0
  0
LINE
  5
2F74
  8
TITLE
 10
177.2598852130871
 20
34.66186952689872
 30
0.0
 11
177.85815195723299
 21
35.260136271048736
 31
0.0
  0
LINE
  5
2F75
  8
TITLE
 10
177.31000095156281
 20
34.624700392730801
 30
0.0
 11
177.85815195723299
 21
35.172851398401349
 31
0.0
  0
LINE
  5
2F76
  8
TITLE
 10
177.36083662384041
 20
34.588251192358364
 30
0.0
 11
177.85815195723299
 21
35.08556652575384
 31
0.0
  0
LINE
  5
2F77
  8
TITLE
 10
177.4123979934956
 20
34.552527689373171
 30
0.0
 11
177.85815195723299
 21
34.998281653107128
 31
0.0
  0
LINE
  5
2F78
  8
TITLE
 10
178.7072920514297
 20
34.887288148192042
 30
0.0
 11
178.9244753400975
 21
35.104471436859612
 31
0.0
  0
LINE
  5
2F79
  8
TITLE
 10
177.6813393473048
 20
34.385044679946759
 30
0.0
 11
177.85815195723299
 21
34.561857289874958
 31
0.0
  0
LINE
  5
2F7A
  8
TITLE
 10
177.7374145998119
 20
34.353835059810081
 30
0.0
 11
177.85815195723299
 21
34.474572417227698
 31
0.0
  0
LINE
  5
2F7B
  8
TITLE
 10
177.7942759570472
 20
34.323411544398141
 30
0.0
 11
177.85815195723299
 21
34.38728754458441
 31
0.0
  0
LINE
  5
2F7C
  8
TITLE
 10
177.85193538549311
 20
34.293786100193302
 30
0.0
 11
177.85815195723299
 21
34.300002671937008
 31
0.0
  0
LINE
  5
2F7D
  8
TITLE
 10
177.4646914769919
 20
34.51753630021868
 30
0.0
 11
177.85815195723299
 21
34.910996780459861
 31
0.0
  0
LINE
  5
2F7E
  8
TITLE
 10
177.5177241707369
 20
34.483284121316728
 30
0.0
 11
177.85815195723299
 21
34.823711907812822
 31
0.0
  0
LINE
  5
2F7F
  8
TITLE
 10
177.5715038817593
 20
34.449778959692011
 30
0.0
 11
177.85815195723299
 21
34.736427035165534
 31
0.0
  0
LINE
  5
2F80
  8
TITLE
 10
177.62603916207991
 20
34.417029367365217
 30
0.0
 11
177.85815195723299
 21
34.649142162521791
 31
0.0
  0
LINE
  5
2F81
  8
TITLE
 10
178.7072920514297
 20
34.974573020839202
 30
0.0
 11
178.7586009908604
 21
35.02588196027375
 31
0.0
  0
LINE
  5
2F82
  8
TITLE
 10
178.7072920514297
 20
34.36357891231647
 30
0.0
 11
180.4674022030253
 21
36.123689063912032
 31
0.0
  0
LINE
  5
2F83
  8
TITLE
 10
178.72166237584861
 20
34.290664364088208
 30
0.0
 11
180.45021234783181
 21
36.019214336071741
 31
0.0
  0
LINE
  5
2F84
  8
TITLE
 10
178.80894724849571
 20
34.290664364088208
 30
0.0
 11
180.42631676081041
 21
35.908033876402783
 31
0.0
  0
LINE
  5
2F85
  8
TITLE
 10
178.89623212114279
 20
34.290664364088208
 30
0.0
 11
180.39392155695711
 21
35.788353799902431
 31
0.0
  0
LINE
  5
2F86
  8
TITLE
 10
178.98351699379
 20
34.290664364088208
 30
0.0
 11
180.3501351100588
 21
35.657282480356677
 31
0.0
  0
LINE
  5
2F87
  8
TITLE
 10
179.54787736159579
 20
35.902443203652403
 30
0.0
 11
180.6336877404085
 21
36.988253582461773
 31
0.0
  0
LINE
  5
2F88
  8
TITLE
 10
179.50456043923481
 20
35.771841408644278
 30
0.0
 11
180.7209726130485
 21
36.988253582461773
 31
0.0
  0
LINE
  5
2F89
  8
TITLE
 10
179.58800011549101
 20
36.117135702838709
 30
0.0
 11
180.45911799511441
 21
36.988253582461773
 31
0.0
  0
LINE
  5
2F8A
  8
TITLE
 10
179.57360172820739
 20
36.015452442911169
 30
0.0
 11
180.5464028677614
 21
36.988253582461773
 31
0.0
  0
LINE
  5
2F8B
  8
TITLE
 10
178.7072920514297
 20
34.450863784960241
 30
0.0
 11
180.47909126485209
 21
36.222662998378809
 31
0.0
  0
LINE
  5
2F8C
  8
TITLE
 10
175.7163744855396
 20
39.402869629899683
 30
0.0
 11
176.16879310699761
 21
39.855288251358161
 31
0.0
  0
LINE
  5
2F8D
  8
TITLE
 10
175.7163744855396
 20
39.315584757252388
 30
0.0
 11
176.2560779796454
 21
39.855288251358161
 31
0.0
  0
LINE
  5
2F8E
  8
TITLE
 10
175.7163744855396
 20
39.664724247837732
 30
0.0
 11
175.9069384890563
 21
39.855288251358161
 31
0.0
  0
LINE
  5
2F8F
  8
TITLE
 10
175.7163744855396
 20
39.577439375193762
 30
0.0
 11
175.9942233617038
 21
39.855288251358161
 31
0.0
  0
LINE
  5
2F90
  8
TITLE
 10
175.7163744855396
 20
39.490154502546829
 30
0.0
 11
176.08150823435091
 21
39.855288251358161
 31
0.0
  0
LINE
  5
2F91
  8
TITLE
 10
175.7163744855396
 20
39.839293993131932
 30
0.0
 11
175.7323687437692
 21
39.855288251358161
 31
0.0
  0
LINE
  5
2F92
  8
TITLE
 10
175.7163744855396
 20
39.752009120484772
 30
0.0
 11
175.81965361641679
 21
39.855288251358161
 31
0.0
  0
LINE
  5
2F93
  8
TITLE
 10
176.97009795764541
 20
39.609174630247828
 30
0.0
 11
177.2162115787568
 21
39.855288251358161
 31
0.0
  0
LINE
  5
2F94
  8
TITLE
 10
176.97009795764541
 20
39.52188975760032
 30
0.0
 11
177.30349645140359
 21
39.855288251358161
 31
0.0
  0
LINE
  5
2F95
  8
TITLE
 10
176.97009795764541
 20
39.434604884953153
 30
0.0
 11
177.39078132405061
 21
39.855288251358161
 31
0.0
  0
LINE
  5
2F96
  8
TITLE
 10
177.03749293108081
 20
39.41471498574878
 30
0.0
 11
177.47806619669831
 21
39.855288251358161
 31
0.0
  0
LINE
  5
2F97
  8
TITLE
 10
177.12477780372851
 20
39.41471498574878
 30
0.0
 11
177.5653510693449
 21
39.855288251358161
 31
0.0
  0
LINE
  5
2F98
  8
TITLE
 10
177.21206267637581
 20
39.41471498574878
 30
0.0
 11
177.6526359419922
 21
39.855288251358161
 31
0.0
  0
LINE
  5
2F99
  8
TITLE
 10
176.97009795764541
 20
39.783744375538262
 30
0.0
 11
177.04164183346211
 21
39.855288251358161
 31
0.0
  0
LINE
  5
2F9A
  8
TITLE
 10
176.97009795764541
 20
39.696459502891123
 30
0.0
 11
177.12892670610961
 21
39.855288251358161
 31
0.0
  0
LINE
  5
2F9B
  8
TITLE
 10
177.29934754902291
 20
39.41471498574878
 30
0.0
 11
177.73992081463979
 21
39.855288251358161
 31
0.0
  0
LINE
  5
2F9C
  8
TITLE
 10
177.3866324216695
 20
39.41471498574878
 30
0.0
 11
177.82720568727959
 21
39.855288251358161
 31
0.0
  0
LINE
  5
2F9D
  8
TITLE
 10
177.47391729431681
 20
39.41471498574878
 30
0.0
 11
177.85815195723299
 21
39.798949648664689
 31
0.0
  0
LINE
  5
2F9E
  8
TITLE
 10
177.56120216696391
 20
39.41471498574878
 30
0.0
 11
177.85815195723299
 21
39.711664776017521
 31
0.0
  0
LINE
  5
2F9F
  8
TITLE
 10
177.6484870396115
 20
39.41471498574878
 30
0.0
 11
177.85815195723299
 21
39.624379903370823
 31
0.0
  0
LINE
  5
2FA0
  8
TITLE
 10
177.73577191225871
 20
39.41471498574878
 30
0.0
 11
177.85815195723299
 21
39.537095030723208
 31
0.0
  0
LINE
  5
2FA1
  8
TITLE
 10
177.82305678490539
 20
39.41471498574878
 30
0.0
 11
177.85815195723299
 21
39.449810158075941
 31
0.0
  0
LINE
  5
2FA2
  8
TITLE
 10
188.6721378575524
 20
34.290664364088208
 30
0.0
 11
189.52437755531901
 21
35.14290406185853
 31
0.0
  0
LINE
  5
2FA3
  8
TITLE
 10
188.7594227301924
 20
34.290664364088208
 30
0.0
 11
189.61166242796639
 21
35.14290406185853
 31
0.0
  0
LINE
  5
2FA4
  8
TITLE
 10
188.84670760284001
 20
34.290664364088208
 30
0.0
 11
189.69894730061361
 21
35.14290406185853
 31
0.0
  0
LINE
  5
2FA5
  8
TITLE
 10
188.9339924754866
 20
34.290664364088208
 30
0.0
 11
189.7862321732535
 21
35.14290406185853
 31
0.0
  0
LINE
  5
2FA6
  8
TITLE
 10
188.2508451536186
 20
37.273481693371757
 30
0.0
 11
189.554292226413
 21
38.576928766166247
 31
0.0
  0
LINE
  5
2FA7
  8
TITLE
 10
188.2508451536186
 20
37.186196820724817
 30
0.0
 11
189.6415770990597
 21
38.576928766166247
 31
0.0
  0
LINE
  5
2FA8
  8
TITLE
 10
188.2508451536186
 20
37.098911948077671
 30
0.0
 11
189.72886197170681
 21
38.576928766166247
 31
0.0
  0
LINE
  5
2FA9
  8
TITLE
 10
188.2508451536186
 20
37.011627075430731
 30
0.0
 11
189.81614684435391
 21
38.576928766166247
 31
0.0
  0
LINE
  5
2FAA
  8
TITLE
 10
188.2508451536186
 20
36.92434220278335
 30
0.0
 11
189.90343171699431
 21
38.576928766166247
 31
0.0
  0
LINE
  5
2FAB
  8
TITLE
 10
188.2508451536186
 20
39.019179146300772
 30
0.0
 11
189.0869542586764
 21
39.855288251358161
 31
0.0
  0
LINE
  5
2FAC
  8
TITLE
 10
188.2508451536186
 20
38.931894273653832
 30
0.0
 11
189.12927505564031
 21
39.810324175678829
 31
0.0
  0
LINE
  5
2FAD
  8
TITLE
 10
188.2508451536186
 20
38.844609401006778
 30
0.0
 11
189.12927505564031
 21
39.723039303031662
 31
0.0
  0
LINE
  5
2FAE
  8
TITLE
 10
188.2508451536186
 20
38.757324528359511
 30
0.0
 11
189.12927505564031
 21
39.635754430387813
 31
0.0
  0
LINE
  5
2FAF
  8
TITLE
 10
187.48006431159311
 20
37.724689068395371
 30
0.0
 11
189.12927505564031
 21
39.373899812446332
 31
0.0
  0
LINE
  5
2FB0
  8
TITLE
 10
187.5673491842401
 20
37.724689068395371
 30
0.0
 11
189.12927505564031
 21
39.286614939799492
 31
0.0
  0
LINE
  5
2FB1
  8
TITLE
 10
187.65463405688701
 20
37.724689068395371
 30
0.0
 11
189.12927505564031
 21
39.199330067152218
 31
0.0
  0
LINE
  5
2FB2
  8
TITLE
 10
187.74191892953451
 20
37.724689068395371
 30
0.0
 11
189.12927505564031
 21
39.112045194505171
 31
0.0
  0
LINE
  5
2FB3
  8
TITLE
 10
187.8292038021813
 20
37.724689068395371
 30
0.0
 11
189.12927505564031
 21
39.024760321858359
 31
0.0
  0
LINE
  5
2FB4
  8
TITLE
 10
188.2508451536186
 20
38.67003965571223
 30
0.0
 11
189.12927505564031
 21
39.548469557740759
 31
0.0
  0
LINE
  5
2FB5
  8
TITLE
 10
188.2508451536186
 20
38.582754783065191
 30
0.0
 11
189.12927505564031
 21
39.461184685093613
 31
0.0
  0
LINE
  5
2FB6
  8
TITLE
 10
188.17834329276289
 20
37.724689068395371
 30
0.0
 11
189.12927505564031
 21
38.675620831276319
 31
0.0
  0
LINE
  5
2FB7
  8
TITLE
 10
188.0037735474688
 20
37.724689068395371
 30
0.0
 11
189.12927505564031
 21
38.850190576567329
 31
0.0
  0
LINE
  5
2FB8
  8
TITLE
 10
188.09105842011601
 20
37.724689068395371
 30
0.0
 11
189.12927505564031
 21
38.762905703919941
 31
0.0
  0
LINE
  5
2FB9
  8
TITLE
 10
187.9164886748211
 20
37.724689068395371
 30
0.0
 11
189.12927505564031
 21
38.937475449214162
 31
0.0
  0
LINE
  5
2FBA
  8
TITLE
 10
188.2508451536186
 20
39.10646401894769
 30
0.0
 11
188.9996693860293
 21
39.855288251358161
 31
0.0
  0
LINE
  5
2FBB
  8
TITLE
 10
188.2508451536186
 20
35.702353985734142
 30
0.0
 11
189.12927505564031
 21
36.580783887759019
 31
0.0
  0
LINE
  5
2FBC
  8
TITLE
 10
188.2508451536186
 20
35.615069113086847
 30
0.0
 11
189.12927505564031
 21
36.493499015111752
 31
0.0
  0
LINE
  5
2FBD
  8
TITLE
 10
188.2508451536186
 20
35.527784240439928
 30
0.0
 11
189.12927505564031
 21
36.406214142464812
 31
0.0
  0
LINE
  5
2FBE
  8
TITLE
 10
188.2508451536186
 20
35.440499367796171
 30
0.0
 11
189.12927505564031
 21
36.318929269817652
 31
0.0
  0
LINE
  5
2FBF
  8
TITLE
 10
188.2508451536186
 20
35.353214495149352
 30
0.0
 11
189.12927505564031
 21
36.231644397174144
 31
0.0
  0
LINE
  5
2FC0
  8
TITLE
 10
188.2508451536186
 20
35.265929622501851
 30
0.0
 11
189.12927505564031
 21
36.144359524527303
 31
0.0
  0
LINE
  5
2FC1
  8
TITLE
 10
188.2508451536186
 20
35.178644749854691
 30
0.0
 11
189.12927505564031
 21
36.057074651879788
 31
0.0
  0
LINE
  5
2FC2
  8
TITLE
 10
188.2508451536186
 20
35.96420860367175
 30
0.0
 11
189.12927505564031
 21
36.84263850570062
 31
0.0
  0
LINE
  5
2FC3
  8
TITLE
 10
188.2508451536186
 20
35.876923731024696
 30
0.0
 11
189.12927505564031
 21
36.75535363305346
 31
0.0
  0
LINE
  5
2FC4
  8
TITLE
 10
188.2508451536186
 20
35.78963885837765
 30
0.0
 11
189.12927505564031
 21
36.668068760406513
 31
0.0
  0
LINE
  5
2FC5
  8
TITLE
 10
187.4501496404996
 20
34.290664364088208
 30
0.0
 11
189.12927505564031
 21
35.96978977923618
 31
0.0
  0
LINE
  5
2FC6
  8
TITLE
 10
187.53743451314671
 20
34.290664364088208
 30
0.0
 11
189.12927505564031
 21
35.88250490658924
 31
0.0
  0
LINE
  5
2FC7
  8
TITLE
 10
187.6247193857939
 20
34.290664364088208
 30
0.0
 11
189.12927505564031
 21
35.795220033941852
 31
0.0
  0
LINE
  5
2FC8
  8
TITLE
 10
187.7120042584408
 20
34.290664364088208
 30
0.0
 11
189.12927505564031
 21
35.70793516129504
 31
0.0
  0
LINE
  5
2FC9
  8
TITLE
 10
187.7992891310808
 20
34.290664364088208
 30
0.0
 11
189.12927505564031
 21
35.620650288647781
 31
0.0
  0
LINE
  5
2FCA
  8
TITLE
 10
187.88657400372799
 20
34.290664364088208
 30
0.0
 11
189.12927505564031
 21
35.533365416000478
 31
0.0
  0
LINE
  5
2FCB
  8
TITLE
 10
187.97385887637509
 20
34.290664364088208
 30
0.0
 11
189.12927505564031
 21
35.446080543353119
 31
0.0
  0
LINE
  5
2FCC
  8
TITLE
 10
188.06114374902239
 20
34.290664364088208
 30
0.0
 11
189.12927505564031
 21
35.358795670706179
 31
0.0
  0
LINE
  5
2FCD
  8
TITLE
 10
188.14842862166901
 20
34.290664364088208
 30
0.0
 11
189.12927505564031
 21
35.271510798062771
 31
0.0
  0
LINE
  5
2FCE
  8
TITLE
 10
188.23571349431671
 20
34.290664364088208
 30
0.0
 11
189.12927505564031
 21
35.18422592541571
 31
0.0
  0
LINE
  5
2FCF
  8
TITLE
 10
188.3229983669637
 20
34.290664364088208
 30
0.0
 11
189.17523806473079
 21
35.14290406185853
 31
0.0
  0
LINE
  5
2FD0
  8
TITLE
 10
188.410283239611
 20
34.290664364088208
 30
0.0
 11
189.2625229373779
 21
35.14290406185853
 31
0.0
  0
LINE
  5
2FD1
  8
TITLE
 10
188.49756811225811
 20
34.290664364088208
 30
0.0
 11
189.34980781002511
 21
35.14290406185853
 31
0.0
  0
LINE
  5
2FD2
  8
TITLE
 10
188.58485298490541
 20
34.290664364088208
 30
0.0
 11
189.4370926826717
 21
35.14290406185853
 31
0.0
  0
LINE
  5
2FD3
  8
TITLE
 10
188.2508451536186
 20
36.83705733013619
 30
0.0
 11
189.12927505564031
 21
37.715487232164932
 31
0.0
  0
LINE
  5
2FD4
  8
TITLE
 10
188.2508451536186
 20
36.749772457489257
 30
0.0
 11
189.12927505564031
 21
37.628202359517893
 31
0.0
  0
LINE
  5
2FD5
  8
TITLE
 10
188.2508451536186
 20
36.662487584842083
 30
0.0
 11
189.12927505564031
 21
37.540917486870853
 31
0.0
  0
LINE
  5
2FD6
  8
TITLE
 10
188.2508451536186
 20
36.57520271219812
 30
0.0
 11
189.12927505564031
 21
37.453632614223231
 31
0.0
  0
LINE
  5
2FD7
  8
TITLE
 10
188.2508451536186
 20
36.48791783955118
 30
0.0
 11
189.12927505564031
 21
37.366347741576291
 31
0.0
  0
LINE
  5
2FD8
  8
TITLE
 10
188.2508451536186
 20
36.400632966907892
 30
0.0
 11
189.12927505564031
 21
37.279062868929032
 31
0.0
  0
LINE
  5
2FD9
  8
TITLE
 10
188.2508451536186
 20
36.31334809426049
 30
0.0
 11
189.12927505564031
 21
37.191777996282198
 31
0.0
  0
LINE
  5
2FDA
  8
TITLE
 10
188.2508451536186
 20
36.226063221613217
 30
0.0
 11
189.12927505564031
 21
37.104493123638463
 31
0.0
  0
LINE
  5
2FDB
  8
TITLE
 10
188.2508451536186
 20
36.138778348966291
 30
0.0
 11
189.12927505564031
 21
37.017208250991288
 31
0.0
  0
LINE
  5
2FDC
  8
TITLE
 10
188.2508451536186
 20
36.05149347631901
 30
0.0
 11
189.12927505564031
 21
36.92992337834778
 31
0.0
  0
LINE
  5
2FDD
  8
TITLE
 10
188.2508451536186
 20
37.70990605660073
 30
0.0
 11
189.12927505564031
 21
38.588335958629273
 31
0.0
  0
LINE
  5
2FDE
  8
TITLE
 10
188.2508451536186
 20
37.622621183953818
 30
0.0
 11
189.2051527358239
 21
38.576928766166247
 31
0.0
  0
LINE
  5
2FDF
  8
TITLE
 10
188.2508451536186
 20
37.535336311309827
 30
0.0
 11
189.2924376084714
 21
38.576928766166247
 31
0.0
  0
LINE
  5
2FE0
  8
TITLE
 10
188.2508451536186
 20
37.448051438662887
 30
0.0
 11
189.37972248111799
 21
38.576928766166247
 31
0.0
  0
LINE
  5
2FE1
  8
TITLE
 10
188.2508451536186
 20
37.360766566015513
 30
0.0
 11
189.46700735376541
 21
38.576928766166247
 31
0.0
  0
LINE
  5
2FE2
  8
TITLE
 10
184.93086735857361
 20
38.317747530649171
 30
0.0
 11
186.415177265544
 21
39.802057437618707
 31
0.0
  0
LINE
  5
2FE3
  8
TITLE
 10
185.01815223122131
 20
38.317747530649171
 30
0.0
 11
186.415177265544
 21
39.71477256497144
 31
0.0
  0
LINE
  5
2FE4
  8
TITLE
 10
185.10543710386111
 20
38.317747530649171
 30
0.0
 11
186.415177265544
 21
39.627487692324728
 31
0.0
  0
LINE
  5
2FE5
  8
TITLE
 10
185.19272197650841
 20
38.317747530649171
 30
0.0
 11
186.415177265544
 21
39.540202819677241
 31
0.0
  0
LINE
  5
2FE6
  8
TITLE
 10
185.28000684915551
 20
38.317747530649171
 30
0.0
 11
186.415177265544
 21
39.452917947030308
 31
0.0
  0
LINE
  5
2FE7
  8
TITLE
 10
185.3672917218027
 20
38.317747530649171
 30
0.0
 11
186.415177265544
 21
39.365633074383027
 31
0.0
  0
LINE
  5
2FE8
  8
TITLE
 10
188.2508451536186
 20
39.281033764238828
 30
0.0
 11
188.82509964073441
 21
39.855288251358161
 31
0.0
  0
LINE
  5
2FE9
  8
TITLE
 10
188.2508451536186
 20
39.19374889159166
 30
0.0
 11
188.9123845133816
 21
39.855288251358161
 31
0.0
  0
LINE
  5
2FEA
  8
TITLE
 10
185.5799160470655
 20
39.141365964434719
 30
0.0
 11
186.2938383339885
 21
39.855288251358161
 31
0.0
  0
LINE
  5
2FEB
  8
TITLE
 10
185.5799160470655
 20
39.054081091787211
 30
0.0
 11
186.38112320663581
 21
39.855288251358161
 31
0.0
  0
LINE
  5
2FEC
  8
TITLE
 10
185.5799160470655
 20
39.228650837078249
 30
0.0
 11
186.206553461342
 21
39.855288251358161
 31
0.0
  0
LINE
  5
2FED
  8
TITLE
 10
181.29070441303111
 20
39.12911309007881
 30
0.0
 11
181.86563779457521
 21
39.704046471619449
 31
0.0
  0
LINE
  5
2FEE
  8
TITLE
 10
181.20017624428769
 20
39.213154666626679
 30
0.0
 11
181.7762062203978
 21
39.789184642736217
 31
0.0
  0
LINE
  5
2FEF
  8
TITLE
 10
181.2451882639173
 20
39.170881813608489
 30
0.0
 11
181.82058569697651
 21
39.746279246667882
 31
0.0
  0
LINE
  5
2FF0
  8
TITLE
 10
181.43028615850409
 20
39.006840217613771
 30
0.0
 11
182.00484228958101
 21
39.581396348687122
 31
0.0
  0
LINE
  5
2FF1
  8
TITLE
 10
181.4778283758404
 20
38.967097562296082
 30
0.0
 11
182.0525997903718
 21
39.541868976827111
 31
0.0
  0
LINE
  5
2FF2
  8
TITLE
 10
181.5258805350808
 20
38.927864848896192
 30
0.0
 11
182.1010398397928
 21
39.503024153601011
 31
0.0
  0
LINE
  5
2FF3
  8
TITLE
 10
181.57444443055681
 20
38.889143871721771
 30
0.0
 11
182.15016593448291
 21
39.464865375644408
 31
0.0
  0
LINE
  5
2FF4
  8
TITLE
 10
181.62352207475749
 20
38.850936643278928
 30
0.0
 11
182.19998210041089
 21
39.427396668932147
 31
0.0
  0
LINE
  5
2FF5
  8
TITLE
 10
181.67311570255779
 20
38.813245398431931
 30
0.0
 11
182.2504929079814
 21
39.39062260385581
 31
0.0
  0
LINE
  5
2FF6
  8
TITLE
 10
181.72322777587391
 20
38.776072599101099
 30
0.0
 11
182.3017034893978
 21
39.35454831262426
 31
0.0
  0
LINE
  5
2FF7
  8
TITLE
 10
181.77386098891881
 20
38.739420939498132
 30
0.0
 11
182.35361955848381
 21
39.31917950906346
 31
0.0
  0
LINE
  5
2FF8
  8
TITLE
 10
181.33672544146879
 20
39.087849245869492
 30
0.0
 11
181.9113635182764
 21
39.662487322676952
 31
0.0
  0
LINE
  5
2FF9
  8
TITLE
 10
181.38325230324961
 20
39.04709123500264
 30
0.0
 11
181.95776435715399
 21
39.621603288911032
 31
0.0
  0
LINE
  5
2FFA
  8
TITLE
 10
184.75629761327991
 20
38.317747530649171
 30
0.0
 11
185.41653272299251
 21
38.977982640358611
 31
0.0
  0
LINE
  5
2FFB
  8
TITLE
 10
184.8435824859265
 20
38.317747530649171
 30
0.0
 11
185.50381759563231
 21
38.977982640358611
 31
0.0
  0
LINE
  5
2FFC
  8
TITLE
 10
184.66901274063261
 20
38.317747530649171
 30
0.0
 11
185.32924785034581
 21
38.977982640358611
 31
0.0
  0
LINE
  5
2FFD
  8
TITLE
 10
184.53583911532431
 20
38.446428523282172
 30
0.0
 11
185.0673932324043
 21
38.977982640358611
 31
0.0
  0
LINE
  5
2FFE
  8
TITLE
 10
184.53583911532431
 20
38.359143650635133
 30
0.0
 11
185.154678105051
 21
38.977982640358611
 31
0.0
  0
LINE
  5
2FFF
  8
TITLE
 10
184.58172786798551
 20
38.317747530649171
 30
0.0
 11
185.24196297769851
 21
38.977982640358611
 31
0.0
  0
LINE
  5
3000
  8
TITLE
 10
184.53583911532431
 20
38.620998268573189
 30
0.0
 11
184.89282348711001
 21
38.977982640358611
 31
0.0
  0
LINE
  5
3001
  8
TITLE
 10
184.53583911532431
 20
38.533713395926021
 30
0.0
 11
184.9801083597572
 21
38.977982640358611
 31
0.0
  0
LINE
  5
3002
  8
TITLE
 10
184.53583911532431
 20
35.827882343885548
 30
0.0
 11
187.23669575390099
 21
38.528738982458549
 31
0.0
  0
LINE
  5
3003
  8
TITLE
 10
184.70650526894039
 20
35.736693879563852
 30
0.0
 11
187.18987184564591
 21
38.220060456265728
 31
0.0
  0
LINE
  5
3004
  8
TITLE
 10
184.8185934087432
 20
35.761497146719641
 30
0.0
 11
187.16506857848981
 21
38.107972316465961
 31
0.0
  0
LINE
  5
3005
  8
TITLE
 10
184.53583911532431
 20
35.74059747124214
 30
0.0
 11
187.2250632541635
 21
38.42982161007442
 31
0.0
  0
LINE
  5
3006
  8
TITLE
 10
184.59945646041251
 20
35.716929943683112
 30
0.0
 11
187.20963578152569
 21
38.32710926478979
 31
0.0
  0
LINE
  5
3007
  8
TITLE
 10
184.53583911532431
 20
35.915167216532708
 30
0.0
 11
185.36061468119979
 21
36.73994278240491
 31
0.0
  0
LINE
  5
3008
  8
TITLE
 10
184.53583911532431
 20
36.089736961823512
 30
0.0
 11
184.97922932032981
 21
36.533127166828763
 31
0.0
  0
LINE
  5
3009
  8
TITLE
 10
184.53583911532431
 20
36.002452089179783
 30
0.0
 11
185.14253615227241
 21
36.60914912612418
 31
0.0
  0
LINE
  5
300A
  8
TITLE
 10
180.80268672959289
 20
36.28440384518489
 30
0.0
 11
181.506536466873
 21
36.988253582461773
 31
0.0
  0
LINE
  5
300B
  8
TITLE
 10
180.88997160224011
 20
36.28440384518489
 30
0.0
 11
181.5938213395134
 21
36.988253582461773
 31
0.0
  0
LINE
  5
300C
  8
TITLE
 10
180.97725647488679
 20
36.28440384518489
 30
0.0
 11
181.6811062121599
 21
36.988253582461773
 31
0.0
  0
LINE
  5
300D
  8
TITLE
 10
181.06454134753341
 20
36.28440384518489
 30
0.0
 11
181.7683910848074
 21
36.988253582461773
 31
0.0
  0
LINE
  5
300E
  8
TITLE
 10
181.15182622018119
 20
36.28440384518489
 30
0.0
 11
181.85567595745439
 21
36.988253582461773
 31
0.0
  0
LINE
  5
300F
  8
TITLE
 10
181.23911109282881
 20
36.28440384518489
 30
0.0
 11
181.9429608301015
 21
36.988253582461773
 31
0.0
  0
LINE
  5
3010
  8
TITLE
 10
180.8149977308897
 20
37.431418190884401
 30
0.0
 11
181.59705299452611
 21
38.213473454524433
 31
0.0
  0
LINE
  5
3011
  8
TITLE
 10
180.902282603537
 20
37.431418190884401
 30
0.0
 11
181.6843378671733
 21
38.213473454524433
 31
0.0
  0
LINE
  5
3012
  8
TITLE
 10
180.98956747618411
 20
37.431418190884401
 30
0.0
 11
181.7716227398198
 21
38.213473454524433
 31
0.0
  0
LINE
  5
3013
  8
TITLE
 10
181.0768523488313
 20
37.431418190884401
 30
0.0
 11
181.8589076124675
 21
38.213473454524433
 31
0.0
  0
LINE
  5
3014
  8
TITLE
 10
181.16413722147121
 20
37.431418190884401
 30
0.0
 11
181.9461924851143
 21
38.213473454524433
 31
0.0
  0
LINE
  5
3015
  8
TITLE
 10
181.2514220941184
 20
37.431418190884401
 30
0.0
 11
182.03347735776191
 21
38.213473454524433
 31
0.0
  0
LINE
  5
3016
  8
TITLE
 10
184.53583911532431
 20
38.97013775915832
 30
0.0
 11
184.5436839965285
 21
38.977982640358611
 31
0.0
  0
LINE
  5
3017
  8
TITLE
 10
184.53583911532431
 20
38.882852886510811
 30
0.0
 11
184.6309688691685
 21
38.977982640358611
 31
0.0
  0
LINE
  5
3018
  8
TITLE
 10
184.53583911532431
 20
38.795568013863893
 30
0.0
 11
184.71825374181569
 21
38.977982640358611
 31
0.0
  0
LINE
  5
3019
  8
TITLE
 10
183.15732368283571
 20
38.02804668990472
 30
0.0
 11
183.84005054913661
 21
38.710773556205702
 31
0.0
  0
LINE
  5
301A
  8
TITLE
 10
183.22273474111611
 20
38.006172875538809
 30
0.0
 11
183.91406439253009
 21
38.697502526952462
 31
0.0
  0
LINE
  5
301B
  8
TITLE
 10
183.28885476830871
 20
37.985008030084131
 30
0.0
 11
183.9798796460162
 21
38.676032907791743
 31
0.0
  0
LINE
  5
301C
  8
TITLE
 10
183.35569811517081
 20
37.964566504295362
 30
0.0
 11
183.9798796460162
 21
38.588748035144249
 31
0.0
  0
LINE
  5
301D
  8
TITLE
 10
183.63062360672549
 20
37.890352505265227
 30
0.0
 11
183.9798796460162
 21
38.239608544559466
 31
0.0
  0
LINE
  5
301E
  8
TITLE
 10
183.70133171111999
 20
37.873775737012231
 30
0.0
 11
183.9798796460162
 21
38.152323671915717
 31
0.0
  0
LINE
  5
301F
  8
TITLE
 10
183.42328000347601
 20
37.944863519952811
 30
0.0
 11
183.9798796460162
 21
38.501463162497082
 31
0.0
  0
LINE
  5
3020
  8
TITLE
 10
183.49161659070839
 20
37.925915234538152
 30
0.0
 11
183.9798796460162
 21
38.41417828985378
 31
0.0
  0
LINE
  5
3021
  8
TITLE
 10
183.5607250415064
 20
37.907738812692742
 30
0.0
 11
183.9798796460162
 21
38.32689341720674
 31
0.0
  0
LINE
  5
3022
  8
TITLE
 10
183.77287005082181
 20
37.858029204074342
 30
0.0
 11
183.9798796460162
 21
38.065038799268557
 31
0.0
  0
LINE
  5
3023
  8
TITLE
 10
183.84526070198041
 20
37.843134982585852
 30
0.0
 11
183.9798796460162
 21
37.977753926621411
 31
0.0
  0
LINE
  5
3024
  8
TITLE
 10
183.9185272420923
 20
37.829116650050423
 30
0.0
 11
183.9798796460162
 21
37.890469053974577
 31
0.0
  0
LINE
  5
3025
  8
TITLE
 10
184.53583911532431
 20
38.708283141220008
 30
0.0
 11
184.80553861446239
 21
38.977982640358611
 31
0.0
  0
LINE
  5
3026
  8
TITLE
 10
182.14316343267851
 20
38.497729274735093
 30
0.0
 11
182.73739955812971
 21
39.091965400186481
 31
0.0
  0
LINE
  5
3027
  8
TITLE
 10
182.1980928200563
 20
38.465373789466192
 30
0.0
 11
182.79524385877991
 21
39.062524828189211
 31
0.0
  0
LINE
  5
3028
  8
TITLE
 10
182.25357921022481
 20
38.433575306990733
 30
0.0
 11
182.85387601333241
 21
39.033872110094649
 31
0.0
  0
LINE
  5
3029
  8
TITLE
 10
181.92891801792109
 20
38.632623350563222
 30
0.0
 11
182.51366704545609
 21
39.217372378097828
 31
0.0
  0
LINE
  5
302A
  8
TITLE
 10
181.98166759199771
 20
38.598088051996228
 30
0.0
 11
182.56847468222571
 21
39.184895142216881
 31
0.0
  0
LINE
  5
302B
  8
TITLE
 10
182.0349554842291
 20
38.564091071579817
 30
0.0
 11
182.6240259897674
 21
39.153161577118439
 31
0.0
  0
LINE
  5
302C
  8
TITLE
 10
182.0887859254297
 20
38.530636640134048
 30
0.0
 11
182.680330751285
 21
39.122181465988781
 31
0.0
  0
LINE
  5
302D
  8
TITLE
 10
181.8250182739329
 20
38.703293351865781
 30
0.0
 11
182.40624743311719
 21
39.284522511049893
 31
0.0
  0
LINE
  5
302E
  8
TITLE
 10
181.8767028075884
 20
38.667693012874111
 30
0.0
 11
182.45959406049209
 21
39.250584265777661
 31
0.0
  0
LINE
  5
302F
  8
TITLE
 10
182.36624510939851
 20
38.371671460866992
 30
0.0
 11
182.9735582541206
 21
38.978984605592217
 31
0.0
  0
LINE
  5
3030
  8
TITLE
 10
182.42343652560291
 20
38.34157800442734
 30
0.0
 11
183.03463820121141
 21
38.95277968004018
 31
0.0
  0
LINE
  5
3031
  8
TITLE
 10
182.48120878989661
 20
38.312065396074331
 30
0.0
 11
183.09656588409501
 21
38.927422490268881
 31
0.0
  0
LINE
  5
3032
  8
TITLE
 10
182.30962804709119
 20
38.402339271206863
 30
0.0
 11
182.9133093542554
 21
39.006020578374432
 31
0.0
  0
LINE
  5
3033
  8
TITLE
 10
183.09260805502981
 20
38.050615934739533
 30
0.0
 11
183.7672288749504
 21
38.725236754659917
 31
0.0
  0
LINE
  5
3034
  8
TITLE
 10
182.5985237740706
 20
38.254810634949862
 30
0.0
 11
183.22303779240551
 21
38.879324653292322
 31
0.0
  0
LINE
  5
3035
  8
TITLE
 10
182.6580814751018
 20
38.227083463337188
 30
0.0
 11
183.287622307856
 21
38.856624296095909
 31
0.0
  0
LINE
  5
3036
  8
TITLE
 10
182.5395687796057
 20
38.283140513136118
 30
0.0
 11
183.15935928626081
 21
38.90293101979114
 31
0.0
  0
LINE
  5
3037
  8
TITLE
 10
183.68308752692701
 20
36.28440384518489
 30
0.0
 11
183.9798796460162
 21
36.58119596427764
 31
0.0
  0
LINE
  5
3038
  8
TITLE
 10
183.1593782910513
 20
36.28440384518489
 30
0.0
 11
183.86322802832439
 21
36.988253582461773
 31
0.0
  0
LINE
  5
3039
  8
TITLE
 10
183.24666316369891
 20
36.28440384518489
 30
0.0
 11
183.950512900972
 21
36.988253582461773
 31
0.0
  0
LINE
  5
303A
  8
TITLE
 10
183.3339480363461
 20
36.28440384518489
 30
0.0
 11
183.9798796460162
 21
36.93033545486287
 31
0.0
  0
LINE
  5
303B
  8
TITLE
 10
183.4212329089855
 20
36.28440384518489
 30
0.0
 11
183.9798796460162
 21
36.84305058221571
 31
0.0
  0
LINE
  5
303C
  8
TITLE
 10
183.50851778163261
 20
36.28440384518489
 30
0.0
 11
183.9798796460162
 21
36.755765709568657
 31
0.0
  0
LINE
  5
303D
  8
TITLE
 10
183.59580265428031
 20
36.28440384518489
 30
0.0
 11
183.9798796460162
 21
36.668480836921269
 31
0.0
  0
LINE
  5
303E
  8
TITLE
 10
183.7703723995744
 20
36.28440384518489
 30
0.0
 11
183.9798796460162
 21
36.493911091630693
 31
0.0
  0
LINE
  5
303F
  8
TITLE
 10
183.8576572722213
 20
36.28440384518489
 30
0.0
 11
183.9798796460162
 21
36.406626218983433
 31
0.0
  0
LINE
  5
3040
  8
TITLE
 10
184.53583911532431
 20
36.177021834470771
 30
0.0
 11
184.8401198459068
 21
36.481302565057028
 31
0.0
  0
LINE
  5
3041
  8
TITLE
 10
184.53583911532431
 20
36.351591579764978
 30
0.0
 11
184.60175585154821
 21
36.417508315989132
 31
0.0
  0
LINE
  5
3042
  8
TITLE
 10
184.53583911532431
 20
36.264306707117854
 30
0.0
 11
184.7157710607689
 21
36.444238652562362
 31
0.0
  0
LINE
  5
3043
  8
TITLE
 10
183.9449421448688
 20
36.28440384518489
 30
0.0
 11
183.9798796460162
 21
36.319341346340131
 31
0.0
  0
LINE
  5
3044
  8
TITLE
 10
181.85010520135151
 20
36.28440384518489
 30
0.0
 11
182.5539549386248
 21
36.988253582461773
 31
0.0
  0
LINE
  5
3045
  8
TITLE
 10
181.9373900739983
 20
36.28440384518489
 30
0.0
 11
182.6412398112719
 21
36.988253582461773
 31
0.0
  0
LINE
  5
3046
  8
TITLE
 10
182.0246749466458
 20
36.28440384518489
 30
0.0
 11
182.72852468391861
 21
36.988253582461773
 31
0.0
  0
LINE
  5
3047
  8
TITLE
 10
182.11195981929251
 20
36.28440384518489
 30
0.0
 11
182.81580955656591
 21
36.988253582461773
 31
0.0
  0
LINE
  5
3048
  8
TITLE
 10
182.28652956458691
 20
36.28440384518489
 30
0.0
 11
182.99037930186009
 21
36.988253582461773
 31
0.0
  0
LINE
  5
3049
  8
TITLE
 10
182.3738144372341
 20
36.28440384518489
 30
0.0
 11
183.07766417450731
 21
36.988253582461773
 31
0.0
  0
LINE
  5
304A
  8
TITLE
 10
182.19924469193981
 20
36.28440384518489
 30
0.0
 11
182.90309442921301
 21
36.988253582461773
 31
0.0
  0
LINE
  5
304B
  8
TITLE
 10
181.32639596547551
 20
36.28440384518489
 30
0.0
 11
182.0302457027484
 21
36.988253582461773
 31
0.0
  0
LINE
  5
304C
  8
TITLE
 10
181.41368083812259
 20
36.28440384518489
 30
0.0
 11
182.1175305753959
 21
36.988253582461773
 31
0.0
  0
LINE
  5
304D
  8
TITLE
 10
181.5009657107698
 20
36.28440384518489
 30
0.0
 11
182.20481544804301
 21
36.988253582461773
 31
0.0
  0
LINE
  5
304E
  8
TITLE
 10
181.58825058340949
 20
36.28440384518489
 30
0.0
 11
182.29210032069039
 21
36.988253582461773
 31
0.0
  0
LINE
  5
304F
  8
TITLE
 10
181.67553545605671
 20
36.28440384518489
 30
0.0
 11
182.37938519333781
 21
36.988253582461773
 31
0.0
  0
LINE
  5
3050
  8
TITLE
 10
181.7628203287039
 20
36.28440384518489
 30
0.0
 11
182.46667006598449
 21
36.988253582461773
 31
0.0
  0
LINE
  5
3051
  8
TITLE
 10
182.90983467440719
 20
37.431418190884401
 30
0.0
 11
183.0924145576052
 21
37.613998074085892
 31
0.0
  0
LINE
  5
3052
  8
TITLE
 10
182.82254980175941
 20
37.431418190884401
 30
0.0
 11
183.0924145576052
 21
37.701282946733151
 31
0.0
  0
LINE
  5
3053
  8
TITLE
 10
182.99711954704739
 20
37.431418190884401
 30
0.0
 11
183.0924145576052
 21
37.52671320143871
 31
0.0
  0
LINE
  5
3054
  8
TITLE
 10
183.0844044196941
 20
37.431418190884401
 30
0.0
 11
183.0924145576052
 21
37.439428328791671
 31
0.0
  0
LINE
  5
3055
  8
TITLE
 10
182.46109930988121
 20
36.28440384518489
 30
0.0
 11
183.16494904715441
 21
36.988253582461773
 31
0.0
  0
LINE
  5
3056
  8
TITLE
 10
182.8975236731097
 20
36.28440384518489
 30
0.0
 11
183.60137341038279
 21
36.988253582461773
 31
0.0
  0
LINE
  5
3057
  8
TITLE
 10
182.98480854575701
 20
36.28440384518489
 30
0.0
 11
183.68865828303069
 21
36.988253582461773
 31
0.0
  0
LINE
  5
3058
  8
TITLE
 10
183.07209341840411
 20
36.28440384518489
 30
0.0
 11
183.7759431556774
 21
36.988253582461773
 31
0.0
  0
LINE
  5
3059
  8
TITLE
 10
182.54838418252149
 20
36.28440384518489
 30
0.0
 11
183.25223391980171
 21
36.988253582461773
 31
0.0
  0
LINE
  5
305A
  8
TITLE
 10
182.63566905516879
 20
36.28440384518489
 30
0.0
 11
183.33951879244881
 21
36.988253582461773
 31
0.0
  0
LINE
  5
305B
  8
TITLE
 10
182.72295392781581
 20
36.28440384518489
 30
0.0
 11
183.4268036650891
 21
36.988253582461773
 31
0.0
  0
LINE
  5
305C
  8
TITLE
 10
182.81023880046311
 20
36.28440384518489
 30
0.0
 11
183.51408853773631
 21
36.988253582461773
 31
0.0
  0
LINE
  5
305D
  8
TITLE
 10
181.3387069667655
 20
37.431418190884401
 30
0.0
 11
182.12076223040941
 21
38.213473454524433
 31
0.0
  0
LINE
  5
305E
  8
TITLE
 10
181.425991839413
 20
37.431418190884401
 30
0.0
 11
182.2080471030558
 21
38.213473454524433
 31
0.0
  0
LINE
  5
305F
  8
TITLE
 10
181.51327671205991
 20
37.431418190884401
 30
0.0
 11
182.29533197569609
 21
38.213473454524433
 31
0.0
  0
LINE
  5
3060
  8
TITLE
 10
181.6005615847069
 20
37.431418190884401
 30
0.0
 11
182.38261684834319
 21
38.213473454524433
 31
0.0
  0
LINE
  5
3061
  8
TITLE
 10
181.68784645735411
 20
37.431418190884401
 30
0.0
 11
182.46990172099041
 21
38.213473454524433
 31
0.0
  0
LINE
  5
3062
  8
TITLE
 10
181.7751313300013
 20
37.431418190884401
 30
0.0
 11
182.55718659363751
 21
38.213473454524433
 31
0.0
  0
LINE
  5
3063
  8
TITLE
 10
181.8624162026484
 20
37.431418190884401
 30
0.0
 11
182.64447146628481
 21
38.213473454524433
 31
0.0
  0
LINE
  5
3064
  8
TITLE
 10
182.47341031117131
 20
37.431418190884401
 30
0.0
 11
183.0924145576052
 21
38.050422437314168
 31
0.0
  0
LINE
  5
3065
  8
TITLE
 10
182.56069518381901
 20
37.431418190884401
 30
0.0
 11
183.0924145576052
 21
37.96313756467076
 31
0.0
  0
LINE
  5
3066
  8
TITLE
 10
182.64798005646571
 20
37.431418190884401
 30
0.0
 11
183.0924145576052
 21
37.875852692023948
 31
0.0
  0
LINE
  5
3067
  8
TITLE
 10
182.73526492911279
 20
37.431418190884401
 30
0.0
 11
183.0924145576052
 21
37.788567819380091
 31
0.0
  0
LINE
  5
3068
  8
TITLE
 10
181.94970107529571
 20
37.431418190884401
 30
0.0
 11
183.35313539321939
 21
38.834852508812212
 31
0.0
  0
LINE
  5
3069
  8
TITLE
 10
182.03698594794281
 20
37.431418190884401
 30
0.0
 11
183.41960141655591
 21
38.81403365950483
 31
0.0
  0
LINE
  5
306A
  8
TITLE
 10
182.12427082058261
 20
37.431418190884401
 30
0.0
 11
183.48704672587141
 21
38.794194096169917
 31
0.0
  0
LINE
  5
306B
  8
TITLE
 10
182.21155569322991
 20
37.431418190884401
 30
0.0
 11
183.55549984517981
 21
38.775362342830448
 31
0.0
  0
LINE
  5
306C
  8
TITLE
 10
182.2988405658769
 20
37.431418190884401
 30
0.0
 11
183.62499169826009
 21
38.757569323267248
 31
0.0
  0
LINE
  5
306D
  8
TITLE
 10
182.38612543852409
 20
37.431418190884401
 30
0.0
 11
183.69555586481411
 21
38.740848617178351
 31
0.0
  0
LINE
  5
306E
  8
TITLE
 10
181.25292368260159
 20
34.290664364088208
 30
0.0
 11
182.9338411811554
 21
35.971581862649479
 31
0.0
  0
LINE
  5
306F
  8
TITLE
 10
181.1656388099544
 20
34.290664364088208
 30
0.0
 11
182.8465563085087
 21
35.971581862649479
 31
0.0
  0
LINE
  5
3070
  8
TITLE
 10
180.8164993193659
 20
34.290664364088208
 30
0.0
 11
181.5328819517957
 21
35.007046996521801
 31
0.0
  0
LINE
  5
3071
  8
TITLE
 10
180.90378419201301
 20
34.290664364088208
 30
0.0
 11
181.62422892783101
 21
35.0111090999062
 31
0.0
  0
LINE
  5
3072
  8
TITLE
 10
180.99106906466011
 20
34.290664364088208
 30
0.0
 11
181.7314813860805
 21
35.031076685508431
 31
0.0
  0
LINE
  5
3073
  8
TITLE
 10
181.0783539373073
 20
34.290664364088208
 30
0.0
 11
181.86956489406791
 21
35.081875320848198
 31
0.0
  0
LINE
  5
3074
  8
TITLE
 10
183.1731908808174
 20
34.290664364088208
 30
0.0
 11
183.6805173432416
 21
34.797990826511978
 31
0.0
  0
LINE
  5
3075
  8
TITLE
 10
183.2604757534645
 20
34.290664364088208
 30
0.0
 11
183.7129087705155
 21
34.74309738113913
 31
0.0
  0
LINE
  5
3076
  8
TITLE
 10
183.34776062611161
 20
34.290664364088208
 30
0.0
 11
183.74530019779741
 21
34.688203935773231
 31
0.0
  0
LINE
  5
3077
  8
TITLE
 10
183.4350454987588
 20
34.290664364088208
 30
0.0
 11
183.7776916250713
 21
34.633310490400497
 31
0.0
  0
LINE
  5
3078
  8
TITLE
 10
183.52233037140601
 20
34.290664364088208
 30
0.0
 11
183.81008305235289
 21
34.57841704503106
 31
0.0
  0
LINE
  5
3079
  8
TITLE
 10
183.6096152440534
 20
34.290664364088208
 30
0.0
 11
183.8424744796269
 21
34.523523599661871
 31
0.0
  0
LINE
  5
307A
  8
TITLE
 10
183.69690011670079
 20
34.290664364088208
 30
0.0
 11
183.8748659069015
 21
34.468630154292683
 31
0.0
  0
LINE
  5
307B
  8
TITLE
 10
183.78418498934741
 20
34.290664364088208
 30
0.0
 11
183.9072573341825
 21
34.413736708923132
 31
0.0
  0
LINE
  5
307C
  8
TITLE
 10
183.87146986199511
 20
34.290664364088208
 30
0.0
 11
183.93964876145711
 21
34.358843263554029
 31
0.0
  0
LINE
  5
307D
  8
TITLE
 10
183.9587547346417
 20
34.290664364088208
 30
0.0
 11
183.97204018873151
 21
34.303949818184591
 31
0.0
  0
LINE
  5
307E
  8
TITLE
 10
181.34020855524881
 20
34.290664364088208
 30
0.0
 11
183.00029737042399
 21
35.950753179270919
 31
0.0
  0
LINE
  5
307F
  8
TITLE
 10
181.42749342788861
 20
34.290664364088208
 30
0.0
 11
183.032688797698
 21
35.89585973389773
 31
0.0
  0
LINE
  5
3080
  8
TITLE
 10
181.51477830053591
 20
34.290664364088208
 30
0.0
 11
183.06508022498011
 21
35.840966288532051
 31
0.0
  0
LINE
  5
3081
  8
TITLE
 10
181.60206317318301
 20
34.290664364088208
 30
0.0
 11
183.09747165225409
 21
35.786072843159218
 31
0.0
  0
LINE
  5
3082
  8
TITLE
 10
181.68934804583009
 20
34.290664364088208
 30
0.0
 11
183.1298630795358
 21
35.731179397790122
 31
0.0
  0
LINE
  5
3083
  8
TITLE
 10
182.2478221248825
 20
35.721987169608369
 30
0.0
 11
182.4974168179273
 21
35.971581862649479
 31
0.0
  0
LINE
  5
3084
  8
TITLE
 10
182.2802135521637
 20
35.667093724239173
 30
0.0
 11
182.58470169057409
 21
35.971581862649479
 31
0.0
  0
LINE
  5
3085
  8
TITLE
 10
182.27556520902121
 20
35.575160508452782
 30
0.0
 11
182.67198656322111
 21
35.971581862649479
 31
0.0
  0
LINE
  5
3086
  8
TITLE
 10
182.22476657368861
 20
35.43707700046933
 30
0.0
 11
182.75927143586881
 21
35.971581862649479
 31
0.0
  0
LINE
  5
3087
  8
TITLE
 10
182.1182564157784
 20
35.941560951085322
 30
0.0
 11
182.14827732733809
 21
35.971581862649479
 31
0.0
  0
LINE
  5
3088
  8
TITLE
 10
182.15064784305281
 20
35.886667505716332
 30
0.0
 11
182.2355621999854
 21
35.971581862649479
 31
0.0
  0
LINE
  5
3089
  8
TITLE
 10
182.18303927033409
 20
35.831774060346888
 30
0.0
 11
182.32284707263301
 21
35.971581862649479
 31
0.0
  0
LINE
  5
308A
  8
TITLE
 10
182.2154306976081
 20
35.776880614977458
 30
0.0
 11
182.4101319452802
 21
35.971581862649479
 31
0.0
  0
LINE
  5
308B
  8
TITLE
 10
181.7868426202306
 20
34.30087406584164
 30
0.0
 11
183.1622545068098
 21
35.676285952420798
 31
0.0
  0
LINE
  5
308C
  8
TITLE
 10
181.8989347320844
 20
34.325681305047851
 30
0.0
 11
183.19464593408409
 21
35.621392507051283
 31
0.0
  0
LINE
  5
308D
  8
TITLE
 10
182.02376031460409
 20
34.363222014924297
 30
0.0
 11
183.227037361366
 21
35.56649906168218
 31
0.0
  0
LINE
  5
308E
  8
TITLE
 10
182.16881928277451
 20
34.420996110446701
 30
0.0
 11
183.25942878863981
 21
35.511605616312742
 31
0.0
  0
LINE
  5
308F
  8
TITLE
 10
182.35633628156239
 20
34.521228236591909
 30
0.0
 11
183.29182021591441
 21
35.456712170943213
 31
0.0
  0
LINE
  5
3090
  8
TITLE
 10
182.86325924315071
 20
34.679011707588309
 30
0.0
 11
183.42138592502559
 21
35.237138389466402
 31
0.0
  0
LINE
  5
3091
  8
TITLE
 10
182.8956506704252
 20
34.62411826221863
 30
0.0
 11
183.45377735230011
 21
35.18224494409332
 31
0.0
  0
LINE
  5
3092
  8
TITLE
 10
182.9280420976994
 20
34.569224816849768
 30
0.0
 11
183.48616877958131
 21
35.127351498727769
 31
0.0
  0
LINE
  5
3093
  8
TITLE
 10
182.96043352498091
 20
34.514331371480218
 30
0.0
 11
183.51856020685591
 21
35.072458053354801
 31
0.0
  0
LINE
  5
3094
  8
TITLE
 10
182.9928249522554
 20
34.459437926110922
 30
0.0
 11
183.55095163413711
 21
35.01756460798925
 31
0.0
  0
LINE
  5
3095
  8
TITLE
 10
183.0252163795366
 20
34.404544480741833
 30
0.0
 11
183.58334306141151
 21
34.962671162616509
 31
0.0
  0
LINE
  5
3096
  8
TITLE
 10
182.7660849613211
 20
34.843692043696237
 30
0.0
 11
183.3242116431955
 21
35.401818725574557
 31
0.0
  0
LINE
  5
3097
  8
TITLE
 10
182.7984763885955
 20
34.788798598330231
 30
0.0
 11
183.35660307046999
 21
35.346925280204793
 31
0.0
  0
LINE
  5
3098
  8
TITLE
 10
182.83086781586951
 20
34.733905152957831
 30
0.0
 11
183.38899449775181
 21
35.292031834835491
 31
0.0
  0
LINE
  5
3099
  8
TITLE
 10
183.05760780681089
 20
34.34965103537229
 30
0.0
 11
183.6157344886854
 21
34.907777717250369
 31
0.0
  0
LINE
  5
309A
  8
TITLE
 10
183.0899992340853
 20
34.29475759000308
 30
0.0
 11
183.6481259159668
 21
34.852884271877421
 31
0.0
  0
LINE
  5
309B
  8
TITLE
 10
187.42261117260381
 20
37.929090547344352
 30
0.0
 11
188.07044939141841
 21
38.576928766166247
 31
0.0
  0
LINE
  5
309C
  8
TITLE
 10
187.42261117260381
 20
37.841805674700822
 30
0.0
 11
188.1577342640652
 21
38.576928766166247
 31
0.0
  0
LINE
  5
309D
  8
TITLE
 10
187.42261117260381
 20
37.754520802053428
 30
0.0
 11
188.2450191367129
 21
38.576928766166247
 31
0.0
  0
LINE
  5
309E
  8
TITLE
 10
187.42261117260381
 20
38.016375419991292
 30
0.0
 11
187.98316451877801
 21
38.576928766166247
 31
0.0
  0
LINE
  5
309F
  8
TITLE
 10
187.42261117260381
 20
38.278230037933092
 30
0.0
 11
187.7213099008367
 21
38.576928766166247
 31
0.0
  0
LINE
  5
30A0
  8
TITLE
 10
187.42261117260381
 20
38.190945165285711
 30
0.0
 11
187.8085947734838
 21
38.576928766166247
 31
0.0
  0
LINE
  5
30A1
  8
TITLE
 10
187.42261117260381
 20
38.10366029263843
 30
0.0
 11
187.89587964613111
 21
38.576928766166247
 31
0.0
  0
LINE
  5
30A2
  8
TITLE
 10
187.42261117260381
 20
38.452799783226851
 30
0.0
 11
187.54674015554241
 21
38.576928766166247
 31
0.0
  0
LINE
  5
30A3
  8
TITLE
 10
187.42261117260381
 20
38.365514910579797
 30
0.0
 11
187.63402502818991
 21
38.576928766166247
 31
0.0
  0
LINE
  5
30A4
  8
TITLE
 10
187.42261117260381
 20
38.540084655874111
 30
0.0
 11
187.45945528289559
 21
38.576928766166247
 31
0.0
  0
LINE
  5
30A5
  8
TITLE
 10
185.4545765944498
 20
38.317747530649171
 30
0.0
 11
186.415177265544
 21
39.278348201735852
 31
0.0
  0
LINE
  5
30A6
  8
TITLE
 10
185.54186146709699
 20
38.317747530649171
 30
0.0
 11
186.415177265544
 21
39.19106332908882
 31
0.0
  0
LINE
  5
30A7
  8
TITLE
 10
185.6291463397441
 20
38.317747530649171
 30
0.0
 11
186.415177265544
 21
39.10377845644507
 31
0.0
  0
LINE
  5
30A8
  8
TITLE
 10
186.22070860472331
 20
38.036461069163792
 30
0.0
 11
187.16223017592159
 21
38.977982640358611
 31
0.0
  0
LINE
  5
30A9
  8
TITLE
 10
186.19397826814961
 20
37.922445859943309
 30
0.0
 11
187.24951504856881
 21
38.977982640358611
 31
0.0
  0
LINE
  5
30AA
  8
TITLE
 10
185.7164312123914
 20
38.317747530649171
 30
0.0
 11
186.415177265544
 21
39.016493583797782
 31
0.0
  0
LINE
  5
30AB
  8
TITLE
 10
185.80371608503839
 20
38.317747530649171
 30
0.0
 11
186.46395119474431
 21
38.977982640358611
 31
0.0
  0
LINE
  5
30AC
  8
TITLE
 10
185.89100095768569
 20
38.317747530649171
 30
0.0
 11
186.5512360673915
 21
38.977982640358611
 31
0.0
  0
LINE
  5
30AD
  8
TITLE
 10
185.97828583032549
 20
38.317747530649171
 30
0.0
 11
186.6385209400384
 21
38.977982640358611
 31
0.0
  0
LINE
  5
30AE
  8
TITLE
 10
186.06557070297271
 20
38.317747530649171
 30
0.0
 11
186.72580581268571
 21
38.977982640358611
 31
0.0
  0
LINE
  5
30AF
  8
TITLE
 10
186.15285557561981
 20
38.317747530649171
 30
0.0
 11
186.81309068533301
 21
38.977982640358611
 31
0.0
  0
LINE
  5
30B0
  8
TITLE
 10
186.24014044826691
 20
38.317747530649171
 30
0.0
 11
186.90037555798011
 21
38.977982640358611
 31
0.0
  0
LINE
  5
30B1
  8
TITLE
 10
186.25226829423079
 20
38.242590503958468
 30
0.0
 11
186.98766043062679
 21
38.977982640358611
 31
0.0
  0
LINE
  5
30B2
  8
TITLE
 10
186.23961074742269
 20
38.142648084510483
 30
0.0
 11
187.07494530327401
 21
38.977982640358611
 31
0.0
  0
LINE
  5
30B3
  8
TITLE
 10
186.42645175081401
 20
36.321937017028048
 30
0.0
 11
186.9967243098161
 21
36.892209576033572
 31
0.0
  0
LINE
  5
30B4
  8
TITLE
 10
186.4756761736507
 20
36.28387656722122
 30
0.0
 11
187.0392151504374
 21
36.847415544011831
 31
0.0
  0
LINE
  5
30B5
  8
TITLE
 10
186.5249005964879
 20
36.245816117410868
 30
0.0
 11
187.08170599106629
 21
36.802621511989848
 31
0.0
  0
LINE
  5
30B6
  8
TITLE
 10
186.57412501932399
 20
36.207755667603813
 30
0.0
 11
187.1241968316948
 21
36.757827479971191
 31
0.0
  0
LINE
  5
30B7
  8
TITLE
 10
186.029067794588
 20
37.495680768443442
 30
0.0
 11
187.2502040925558
 21
38.71681706641516
 31
0.0
  0
LINE
  5
30B8
  8
TITLE
 10
185.8982741383073
 20
37.277602239515872
 30
0.0
 11
187.24496104807071
 21
38.624289149279889
 31
0.0
  0
LINE
  5
30B9
  8
TITLE
 10
186.10508975388331
 20
37.658987600385878
 30
0.0
 11
187.2527078800839
 21
38.806605726586902
 31
0.0
  0
LINE
  5
30BA
  8
TITLE
 10
186.1569143556589
 20
37.798097074801809
 30
0.0
 11
187.2527079652925
 21
38.893890684435171
 31
0.0
  0
LINE
  5
30BB
  8
TITLE
 10
187.2755798952052
 20
34.290664364088208
 30
0.0
 11
188.127819592972
 21
35.14290406185853
 31
0.0
  0
LINE
  5
30BC
  8
TITLE
 10
187.36286476785239
 20
34.290664364088208
 30
0.0
 11
188.21510446561879
 21
35.14290406185853
 31
0.0
  0
LINE
  5
30BD
  8
TITLE
 10
185.5799160470655
 20
35.300831567988901
 30
0.0
 11
186.415177265544
 21
36.136092786467081
 31
0.0
  0
LINE
  5
30BE
  8
TITLE
 10
185.5799160470655
 20
35.213546695341719
 30
0.0
 11
186.415177265544
 21
36.0488079138198
 31
0.0
  0
LINE
  5
30BF
  8
TITLE
 10
187.01714482486861
 20
35.865211619331149
 30
0.0
 11
187.25043871752439
 21
36.098505511986779
 31
0.0
  0
LINE
  5
30C0
  8
TITLE
 10
187.0663692477122
 20
35.827151169524299
 30
0.0
 11
187.25043871752439
 21
36.011220639339733
 31
0.0
  0
LINE
  5
30C1
  8
TITLE
 10
185.5799160470655
 20
34.777122332109329
 30
0.0
 11
186.415177265544
 21
35.612383550584113
 31
0.0
  0
LINE
  5
30C2
  8
TITLE
 10
185.5799160470655
 20
34.689837459462169
 30
0.0
 11
186.415177265544
 21
35.525098677940612
 31
0.0
  0
LINE
  5
30C3
  8
TITLE
 10
185.5799160470655
 20
34.602552586818881
 30
0.0
 11
186.415177265544
 21
35.437813805293437
 31
0.0
  0
LINE
  5
30C4
  8
TITLE
 10
185.5799160470655
 20
34.51526771417138
 30
0.0
 11
186.415177265544
 21
35.350528932646171
 31
0.0
  0
LINE
  5
30C5
  8
TITLE
 10
185.5799160470655
 20
34.42798284152456
 30
0.0
 11
186.415177265544
 21
35.263244060002641
 31
0.0
  0
LINE
  5
30C6
  8
TITLE
 10
185.5799160470655
 20
34.340697968877052
 30
0.0
 11
186.415177265544
 21
35.175959187355829
 31
0.0
  0
LINE
  5
30C7
  8
TITLE
 10
185.61716731492371
 20
34.290664364088208
 30
0.0
 11
186.415177265544
 21
35.088674314708328
 31
0.0
  0
LINE
  5
30C8
  8
TITLE
 10
185.70445218757081
 20
34.290664364088208
 30
0.0
 11
186.415177265544
 21
35.00138944206104
 31
0.0
  0
LINE
  5
30C9
  8
TITLE
 10
185.5799160470655
 20
34.864407204756731
 30
0.0
 11
186.415177265544
 21
35.699668423231167
 31
0.0
  0
LINE
  5
30CA
  8
TITLE
 10
185.79173706021751
 20
34.290664364088208
 30
0.0
 11
186.415177265544
 21
34.914104569414228
 31
0.0
  0
LINE
  5
30CB
  8
TITLE
 10
185.87902193286479
 20
34.290664364088208
 30
0.0
 11
186.415177265544
 21
34.826819696767082
 31
0.0
  0
LINE
  5
30CC
  8
TITLE
 10
185.9663068055051
 20
34.290664364088208
 30
0.0
 11
186.415177265544
 21
34.73953482411968
 31
0.0
  0
LINE
  5
30CD
  8
TITLE
 10
186.0535916781518
 20
34.290664364088208
 30
0.0
 11
186.415177265544
 21
34.65224995147252
 31
0.0
  0
LINE
  5
30CE
  8
TITLE
 10
186.14087655079931
 20
34.290664364088208
 30
0.0
 11
186.415177265544
 21
34.564965078828877
 31
0.0
  0
LINE
  5
30CF
  8
TITLE
 10
186.22816142344661
 20
34.290664364088208
 30
0.0
 11
186.415177265544
 21
34.477680206182171
 31
0.0
  0
LINE
  5
30D0
  8
TITLE
 10
186.3154462960938
 20
34.290664364088208
 30
0.0
 11
186.415177265544
 21
34.390395333534912
 31
0.0
  0
LINE
  5
30D1
  8
TITLE
 10
186.4027311687405
 20
34.290664364088208
 30
0.0
 11
186.415177265544
 21
34.303110460891489
 31
0.0
  0
LINE
  5
30D2
  8
TITLE
 10
185.5799160470655
 20
35.126261822694332
 30
0.0
 11
186.415177265544
 21
35.961523041172747
 31
0.0
  0
LINE
  5
30D3
  8
TITLE
 10
185.5799160470655
 20
35.038976950047292
 30
0.0
 11
186.415177265544
 21
35.874238168525963
 31
0.0
  0
LINE
  5
30D4
  8
TITLE
 10
185.5799160470655
 20
34.951692077400018
 30
0.0
 11
186.415177265544
 21
35.786953295878341
 31
0.0
  0
LINE
  5
30D5
  8
TITLE
 10
187.0963371022502
 20
35.071555170244878
 30
0.0
 11
187.1676859938606
 21
35.14290406185853
 31
0.0
  0
LINE
  5
30D6
  8
TITLE
 10
187.21404251622241
 20
35.712969820099723
 30
0.0
 11
187.25043871752439
 21
35.749366021401663
 31
0.0
  0
LINE
  5
30D7
  8
TITLE
 10
187.1155936705488
 20
35.789090719713712
 30
0.0
 11
187.25043871752439
 21
35.923935766696218
 31
0.0
  0
LINE
  5
30D8
  8
TITLE
 10
187.16481809338569
 20
35.751030269906892
 30
0.0
 11
187.25043871752439
 21
35.836650894049171
 31
0.0
  0
LINE
  5
30D9
  8
TITLE
 10
187.18829502255801
 20
34.290664364088208
 30
0.0
 11
188.0405347203249
 21
35.14290406185853
 31
0.0
  0
LINE
  5
30DA
  8
TITLE
 10
187.0963371022502
 20
34.460561061715111
 30
0.0
 11
187.77868010239021
 21
35.14290406185853
 31
0.0
  0
LINE
  5
30DB
  8
TITLE
 10
187.0963371022502
 20
34.373276189071241
 30
0.0
 11
187.86596497503751
 21
35.14290406185853
 31
0.0
  0
LINE
  5
30DC
  8
TITLE
 10
187.10101014991079
 20
34.290664364088208
 30
0.0
 11
187.9532498476774
 21
35.14290406185853
 31
0.0
  0
LINE
  5
30DD
  8
TITLE
 10
187.0963371022502
 20
34.809700552303298
 30
0.0
 11
187.42954061180171
 21
35.14290406185853
 31
0.0
  0
LINE
  5
30DE
  8
TITLE
 10
187.0963371022502
 20
34.72241567965613
 30
0.0
 11
187.51682548444879
 21
35.14290406185853
 31
0.0
  0
LINE
  5
30DF
  8
TITLE
 10
187.0963371022502
 20
34.635130807009197
 30
0.0
 11
187.604110357096
 21
35.14290406185853
 31
0.0
  0
LINE
  5
30E0
  8
TITLE
 10
187.0963371022502
 20
34.547845934361931
 30
0.0
 11
187.69139522974351
 21
35.14290406185853
 31
0.0
  0
LINE
  5
30E1
  8
TITLE
 10
187.0963371022502
 20
34.896985424950692
 30
0.0
 11
187.34225573915501
 21
35.14290406185853
 31
0.0
  0
LINE
  5
30E2
  8
TITLE
 10
187.0963371022502
 20
34.98427029759749
 30
0.0
 11
187.25497086650739
 21
35.14290406185853
 31
0.0
  0
LINE
  5
30E3
  8
TITLE
 10
185.34346127968541
 20
35.93722552707321
 30
0.0
 11
186.9893401981366
 21
37.5831044455241
 31
0.0
  0
LINE
  5
30E4
  8
TITLE
 10
184.93666218679999
 20
35.792281052128821
 30
0.0
 11
187.1342846730808
 21
37.989903538409969
 31
0.0
  0
LINE
  5
30E5
  8
TITLE
 10
185.0620236673679
 20
35.83035766004933
 30
0.0
 11
187.09620806515281
 21
37.864542057835131
 31
0.0
  0
LINE
  5
30E6
  8
TITLE
 10
185.1966062580785
 20
35.877655378113452
 30
0.0
 11
187.04891034709581
 21
37.729959467130691
 31
0.0
  0
LINE
  5
30E7
  8
TITLE
 10
185.5799160470655
 20
35.475401313283221
 30
0.0
 11
186.415177265544
 21
36.310662531758112
 31
0.0
  0
LINE
  5
30E8
  8
TITLE
 10
185.5799160470655
 20
35.38811644063582
 30
0.0
 11
186.415177265544
 21
36.223377659110952
 31
0.0
  0
LINE
  5
30E9
  8
TITLE
 10
186.8694715563588
 20
35.979392968755171
 30
0.0
 11
187.25043871752439
 21
36.360360129924523
 31
0.0
  0
LINE
  5
30EA
  8
TITLE
 10
186.91869597919541
 20
35.94133251894857
 30
0.0
 11
187.25043871752439
 21
36.273075257277227
 31
0.0
  0
LINE
  5
30EB
  8
TITLE
 10
186.96792040203201
 20
35.903272069137749
 30
0.0
 11
187.25043871752439
 21
36.185790384633812
 31
0.0
  0
LINE
  5
30EC
  8
TITLE
 10
185.5799160470655
 20
35.911825676511171
 30
0.0
 11
186.78427010667971
 21
37.116179736133049
 31
0.0
  0
LINE
  5
30ED
  8
TITLE
 10
185.5799160470655
 20
35.824540803864117
 30
0.0
 11
186.8267609473084
 21
37.07138570411086
 31
0.0
  0
LINE
  5
30EE
  8
TITLE
 10
185.5799160470655
 20
35.73725593122073
 30
0.0
 11
186.86925178793709
 21
37.026591672089118
 31
0.0
  0
LINE
  5
30EF
  8
TITLE
 10
185.5799160470655
 20
35.64997105857389
 30
0.0
 11
186.91174262855881
 21
36.98179764007044
 31
0.0
  0
LINE
  5
30F0
  8
TITLE
 10
185.5799160470655
 20
35.562686185926509
 30
0.0
 11
186.9542334691873
 21
36.937003608051903
 31
0.0
  0
LINE
  5
30F1
  8
TITLE
 10
185.5079806615916
 20
36.014460036335421
 30
0.0
 11
186.91210568887061
 21
37.418585063610848
 31
0.0
  0
LINE
  5
30F2
  8
TITLE
 10
185.5799160470655
 20
35.999110549158672
 30
0.0
 11
186.80572262849131
 21
37.224917130584672
 31
0.0
  0
LINE
  5
30F3
  8
TITLE
 10
186.72179828784141
 20
36.093574318179762
 30
0.0
 11
187.25043871752439
 21
36.622214747866089
 31
0.0
  0
LINE
  5
30F4
  8
TITLE
 10
186.77102271067801
 20
36.05551386837282
 30
0.0
 11
187.25043871752439
 21
36.534929875218829
 31
0.0
  0
LINE
  5
30F5
  8
TITLE
 10
186.6233494421611
 20
36.169695217797212
 30
0.0
 11
187.16668767231701
 21
36.713033447952732
 31
0.0
  0
LINE
  5
30F6
  8
TITLE
 10
186.67257386500449
 20
36.131634767986377
 30
0.0
 11
187.20917851294541
 21
36.668239415930771
 31
0.0
  0
LINE
  5
30F7
  8
TITLE
 10
186.82024713351481
 20
36.017453418562241
 30
0.0
 11
187.25043871752439
 21
36.447645002571903
 31
0.0
  0
LINE
  5
30F8
  8
TITLE
 10
188.2508451536186
 20
39.630173254823951
 30
0.0
 11
188.4759601501535
 21
39.855288251358161
 31
0.0
  0
LINE
  5
30F9
  8
TITLE
 10
188.2508451536186
 20
39.542888382176571
 30
0.0
 11
188.56324502280069
 21
39.855288251358161
 31
0.0
  0
LINE
  5
30FA
  8
TITLE
 10
188.2508451536186
 20
39.455603509529382
 30
0.0
 11
188.65052989544071
 21
39.855288251358161
 31
0.0
  0
LINE
  5
30FB
  8
TITLE
 10
188.2508451536186
 20
39.368318636885867
 30
0.0
 11
188.73781476808739
 21
39.855288251358161
 31
0.0
  0
LINE
  5
30FC
  8
TITLE
 10
188.2508451536186
 20
39.80474300011803
 30
0.0
 11
188.30139040485881
 21
39.855288251358161
 31
0.0
  0
LINE
  5
30FD
  8
TITLE
 10
188.2508451536186
 20
39.717458127470742
 30
0.0
 11
188.38867527750651
 21
39.855288251358161
 31
0.0
  0
LINE
  5
30FE
  8
TITLE
 10
185.5799160470655
 20
39.665075200310397
 30
0.0
 11
185.7701290981131
 21
39.855288251358161
 31
0.0
  0
LINE
  5
30FF
  8
TITLE
 10
185.5799160470655
 20
39.577790327663251
 30
0.0
 11
185.85741397076069
 21
39.855288251358161
 31
0.0
  0
LINE
  5
3100
  8
TITLE
 10
185.5799160470655
 20
39.490505455016532
 30
0.0
 11
185.9446988434
 21
39.855288251358161
 31
0.0
  0
LINE
  5
3101
  8
TITLE
 10
185.5799160470655
 20
39.403220582372782
 30
0.0
 11
186.03198371604759
 21
39.855288251358161
 31
0.0
  0
LINE
  5
3102
  8
TITLE
 10
185.5799160470655
 20
39.315935709725522
 30
0.0
 11
186.11926858869481
 21
39.855288251358161
 31
0.0
  0
LINE
  5
3103
  8
TITLE
 10
185.5799160470655
 20
39.839644945604853
 30
0.0
 11
185.59555935281861
 21
39.855288251358161
 31
0.0
  0
LINE
  5
3104
  8
TITLE
 10
185.5799160470655
 20
39.752360072957678
 30
0.0
 11
185.6828442254658
 21
39.855288251358161
 31
0.0
  0
LINE
  5
3105
  8
TITLE
 10
189.1384768918744
 20
37.724689068395371
 30
0.0
 11
189.9826071139168
 21
38.568819290437872
 31
0.0
  0
LINE
  5
3106
  8
TITLE
 10
189.400331509816
 20
37.724689068395371
 30
0.0
 11
189.9826071139168
 21
38.306964672500037
 31
0.0
  0
LINE
  5
3107
  8
TITLE
 10
189.4876163824633
 20
37.724689068395371
 30
0.0
 11
189.9826071139168
 21
38.21967979985277
 31
0.0
  0
LINE
  5
3108
  8
TITLE
 10
189.22576176452171
 20
37.724689068395371
 30
0.0
 11
189.9826071139168
 21
38.48153441779106
 31
0.0
  0
LINE
  5
3109
  8
TITLE
 10
189.31304663716901
 20
37.724689068395371
 30
0.0
 11
189.9826071139168
 21
38.394249545147211
 31
0.0
  0
LINE
  5
310A
  8
TITLE
 10
189.57490125511001
 20
37.724689068395371
 30
0.0
 11
189.9826071139168
 21
38.132394927205702
 31
0.0
  0
LINE
  5
310B
  8
TITLE
 10
189.66218612775029
 20
37.724689068395371
 30
0.0
 11
189.9826071139168
 21
38.045110054558677
 31
0.0
  0
LINE
  5
310C
  8
TITLE
 10
189.74947100039751
 20
37.724689068395371
 30
0.0
 11
189.9826071139168
 21
37.957825181911737
 31
0.0
  0
LINE
  5
310D
  8
TITLE
 10
189.8367558730441
 20
37.724689068395371
 30
0.0
 11
189.9826071139168
 21
37.870540309264243
 31
0.0
  0
LINE
  5
310E
  8
TITLE
 10
189.9240407456918
 20
37.724689068395371
 30
0.0
 11
189.9826071139168
 21
37.783255436617083
 31
0.0
  0
LINE
  5
310F
  8
TITLE
 10
189.02127734813391
 20
34.290664364088208
 30
0.0
 11
189.8735170459008
 21
35.14290406185853
 31
0.0
  0
LINE
  5
3110
  8
TITLE
 10
189.10856222078101
 20
34.290664364088208
 30
0.0
 11
189.9608019185477
 21
35.14290406185853
 31
0.0
  0
LINE
  5
3111
  8
TITLE
 10
189.1958470934282
 20
34.290664364088208
 30
0.0
 11
190.04808679119441
 21
35.14290406185853
 31
0.0
  0
LINE
  5
3112
  8
TITLE
 10
189.2831319660749
 20
34.290664364088208
 30
0.0
 11
190.13537166384171
 21
35.14290406185853
 31
0.0
  0
LINE
  5
3113
  8
TITLE
 10
189.37041683872241
 20
34.290664364088208
 30
0.0
 11
190.22265653648941
 21
35.14290406185853
 31
0.0
  0
LINE
  5
3114
  8
TITLE
 10
189.45770171136971
 20
34.290664364088208
 30
0.0
 11
190.2335869524936
 21
35.066549605211762
 31
0.0
  0
LINE
  5
3115
  8
TITLE
 10
189.5449865840163
 20
34.290664364088208
 30
0.0
 11
190.2335869524936
 21
34.97926473256495
 31
0.0
  0
LINE
  5
3116
  8
TITLE
 10
189.98141094724571
 20
34.290664364088208
 30
0.0
 11
190.2335869524936
 21
34.542840369336083
 31
0.0
  0
LINE
  5
3117
  8
TITLE
 10
190.06869581989241
 20
34.290664364088208
 30
0.0
 11
190.2335869524936
 21
34.455555496689257
 31
0.0
  0
LINE
  5
3118
  8
TITLE
 10
189.6322714566565
 20
34.290664364088208
 30
0.0
 11
190.2335869524936
 21
34.891979859917569
 31
0.0
  0
LINE
  5
3119
  8
TITLE
 10
189.71955632930391
 20
34.290664364088208
 30
0.0
 11
190.2335869524936
 21
34.804694987274161
 31
0.0
  0
LINE
  5
311A
  8
TITLE
 10
189.8068412019511
 20
34.290664364088208
 30
0.0
 11
190.2335869524936
 21
34.71741011462688
 31
0.0
  0
LINE
  5
311B
  8
TITLE
 10
189.89412607459809
 20
34.290664364088208
 30
0.0
 11
190.2335869524936
 21
34.630125241983372
 31
0.0
  0
LINE
  5
311C
  8
TITLE
 10
190.15598069253971
 20
34.290664364088208
 30
0.0
 11
190.2335869524936
 21
34.36827062404187
 31
0.0
  0
LINE
  5
3121
  8
DIMS
 10
127.3749999999999
 20
175.59441156862661
 30
0.0
 11
127.3749999999999
 21
156.98481231041171
 31
0.0
  0
LINE
  5
3122
  8
DIMS
 10
117.3779825977588
 20
182.2818670410669
 30
0.0
 11
117.3779825977588
 21
156.98481231041171
 31
0.0
  0
LINE
  5
3123
  8
DIMS
 10
125.3749999999999
 20
158.23481231041171
 30
0.0
 11
119.3779825977588
 21
158.23481231041171
 31
0.0
  0
SOLID
  5
3124
  8
DIMS
 10
125.3749999999999
 20
158.56814564374491
 30
0.0
 11
125.3749999999999
 21
157.90147897707831
 31
0.0
 12
127.3749999999999
 22
158.23481231041171
 32
0.0
 13
127.3749999999999
 23
158.23481231041171
 33
0.0
  0
SOLID
  5
3125
  8
DIMS
 10
119.3779825977588
 20
158.56814564374491
 30
0.0
 11
119.3779825977588
 21
157.90147897707831
 31
0.0
 12
117.3779825977588
 22
158.23481231041171
 32
0.0
 13
117.3779825977588
 23
158.23481231041171
 33
0.0
  0
TEXT
  5
3126
  8
0
 62
     7
 10
120.4568484417365
 20
158.85981231041171
 30
0.0
 40
2.5
  1
10
 41
0.75
  7
DIMS
  0
TEXT
  5
3127
  8
0
 10
74.578682018209676
 20
132.02577724728769
 30
0.0
 40
2.5
  1
※押出し成型のため、誤差のある場合がございます。
 72
     1
 11
109.5786820182097
 21
133.27577724728769
 31
0.0
 73
     2
  0
TEXT
  5
3128
  8
0
 10
30.500000000000021
 20
56.25
 30
0.0
 40
2.5
  1
ハンドレール平型
 72
     1
 11
42.166666666666671
 21
57.5
 31
0.0
 73
     2
  0
TEXT
  5
3129
  8
0
 10
32.249999999999993
 20
63.675497065706601
 30
0.0
 40
2.5
  1
品          名
 72
     1
 11
42.333333333333321
 21
64.925497065706594
 31
0.0
 73
     2
  0
TEXT
  5
312A
  8
0
 10
32.0
 20
48.675497065706608
 30
0.0
 40
2.5
  1
経          歴
 72
     1
 11
42.166666666666671
 21
49.925497065706608
 31
0.0
 73
     2
  0
LINE
  5
312B
  8
TITLE
 10
24.375
 20
47.0
 30
0.0
 11
22.20993649053889
 21
43.25
 31
0.0
  0
LINE
  5
312C
  8
TITLE
 10
22.20993649053889
 20
43.25
 30
0.0
 11
26.54006350946111
 21
43.25
 31
0.0
  0
LINE
  5
312D
  8
TITLE
 10
26.54006350946111
 20
43.25
 30
0.0
 11
24.375
 21
47.0
 31
0.0
  0
TEXT
  5
312E
  8
0
 10
23.433530944715631
 20
43.7605351667139
 30
0.0
 40
2.0
  1
1
 72
     1
 11
24.243054754239441
 21
44.760535166713908
 31
0.0
 73
     2
  0
LINE
  5
312F
  8
TITLE
 10
24.375
 20
37.0
 30
0.0
 11
22.20993649053889
 21
33.25
 31
0.0
  0
LINE
  5
3130
  8
TITLE
 10
22.20993649053889
 20
33.25
 30
0.0
 11
26.54006350946111
 21
33.25
 31
0.0
  0
LINE
  5
3131
  8
TITLE
 10
26.54006350946111
 20
33.25
 30
0.0
 11
24.375
 21
37.0
 31
0.0
  0
TEXT
  5
3132
  8
0
 10
21.16555319691588
 20
28.739356149794158
 30
0.0
 40
2.5
  1
特記事項
 72
     1
 11
26.832219863582552
 21
29.989356149794158
 31
0.0
 73
     2
  0
LINE
  5
3133
  8
TITLE
 10
24.375
 20
42.0
 30
0.0
 11
22.20993649053889
 21
38.25
 31
0.0
  0
LINE
  5
3134
  8
TITLE
 10
22.20993649053889
 20
38.25
 30
0.0
 11
26.54006350946111
 21
38.25
 31
0.0
  0
LINE
  5
3135
  8
TITLE
 10
26.54006350946111
 20
38.25
 30
0.0
 11
24.375
 21
42.0
 31
0.0
  0
TEXT
  5
3136
  8
0
 10
23.3903826863441
 20
38.634565554712353
 30
0.0
 40
2.0
  1
2
 72
     1
 11
24.34276363872506
 21
39.634565554712353
 31
0.0
 73
     2
  0
TEXT
  5
3137
  8
0
 10
23.422619047619051
 20
33.677403026748948
 30
0.0
 40
2.0
  1
3
 72
     1
 11
24.375
 21
34.677403026748948
 31
0.0
 73
     2
  0
TEXT
  5
3138
  8
0
 10
66.903959893265423
 20
34.604066584276651
 30
0.0
 40
2.5
  1
重量
 72
     1
 11
69.570626559932094
 21
35.854066584276651
 31
0.0
 73
     2
  0
TEXT
  5
3139
  8
0
 10
66.903959893265423
 20
41.27073325094328
 30
0.0
 40
2.5
  1
規格
 72
     1
 11
69.570626559932094
 21
42.52073325094328
 31
0.0
 73
     2
  0
TEXT
  5
313A
  8
0
 10
77.125000000000014
 20
63.675497065706601
 30
0.0
 40
2.5
  1
群          別
 72
     1
 11
87.208333333333343
 21
64.925497065706594
 31
0.0
 73
     2
  0
TEXT
  5
313B
  8
0
 10
66.903959893265423
 20
47.93739991761003
 30
0.0
 40
2.5
  1
材質
 72
     1
 11
69.570626559932094
 21
49.187399917610037
 31
0.0
 73
     2
  0
TEXT
  5
313F
  8
0
 10
122.16071428571421
 20
63.675497065706601
 30
0.0
 40
2.5
  1
タ    イ    プ
 72
     1
 11
132.49404761904751
 21
64.925497065706594
 31
0.0
 73
     2
  0
TEXT
  5
3140
  8
0
 10
122.0178571428571
 20
56.25
 30
0.0
 40
2.5
  1
ＹＭＲ－９７５
 72
     1
 11
132.1011904761904
 21
57.5
 31
0.0
 73
     2
  0
TEXT
  5
3141
  8
0
 10
110.8533185468831
 20
48.828796392541321
 30
0.0
 40
2.5
  1
縮尺
 72
     1
 11
113.5199852135498
 21
50.078796392541321
 31
0.0
 73
     2
  0
TEXT
  5
3142
  8
0
 10
140.85331854688309
 20
48.828796392541321
 30
0.0
 40
2.5
  1
仕上
 72
     1
 11
143.5199852135498
 21
50.078796392541321
 31
0.0
 73
     2
  0
TEXT
  5
3143
  8
0
 10
174.7797619047617
 20
44.244047619047592
 30
0.0
 40
2.5
  1
Ｈ１４．８．６
 72
     1
 11
184.94642857142841
 21
45.494047619047592
 31
0.0
 73
     2
  0
TEXT
  5
3144
  8
0
 10
166.9583333333332
 20
63.675497065706601
 30
0.0
 40
2.5
  1
図  面  番  号
 72
     1
 11
177.2083333333332
 21
64.925497065706594
 31
0.0
 73
     2
  0
TEXT
  5
3145
  8
0
 10
167.55357135154719
 20
56.083333486115741
 30
0.0
 40
2.5
  1
２Ｓ－０１０５
 72
     1
 11
177.72023801821391
 21
57.333333486115741
 31
0.0
 73
     2
  0
TEXT
  5
3146
  8
0
 10
170.853318546883
 20
48.828796392541321
 30
0.0
 40
2.5
  1
日付
 72
     1
 11
173.6866518802164
 21
50.078796392541321
 31
0.0
 73
     2
  0
LINE
  5
3147
  8
DIMS
 10
128.0
 20
192.9375
 30
0.0
 11
149.625
 21
192.9375
 31
0.0
  0
LINE
  5
3148
  8
DIMS
 10
90.499999999999943
 20
201.93727700101221
 30
0.0
 11
149.625
 21
201.93727700101221
 31
0.0
  0
LINE
  5
3149
  8
DIMS
 10
148.3749999999998
 20
194.9375
 30
0.0
 11
148.3749999999998
 21
199.93727700101221
 31
0.0
  0
SOLID
  5
314A
  8
DIMS
 10
148.0416666666666
 20
194.9375
 30
0.0
 11
148.7083333333332
 21
194.9375
 31
0.0
 12
148.3749999999998
 22
192.9375
 32
0.0
 13
148.3749999999998
 23
192.9375
 33
0.0
  0
SOLID
  5
314B
  8
DIMS
 10
148.0416666666666
 20
199.93727700101221
 30
0.0
 11
148.7083333333332
 21
199.93727700101221
 31
0.0
 12
148.3749999999998
 22
201.93727700101221
 32
0.0
 13
148.3749999999998
 23
201.93727700101221
 33
0.0
  0
TEXT
  5
314C
  8
0
 62
     7
 10
147.7499999999998
 20
196.5891742147918
 30
0.0
 40
2.5
  1
9
 50
90.0
 41
0.75
  7
DIMS
  0
LINE
  5
314D
  8
DIMS
 10
45.375
 20
216.56227700101221
 30
0.0
 11
45.375
 21
224.0495155746103
 31
0.0
  0
LINE
  5
314E
  8
DIMS
 10
134.375
 20
216.56227700101221
 30
0.0
 11
134.375
 21
224.0495155746103
 31
0.0
  0
LINE
  5
314F
  8
DIMS
 10
47.374999999999993
 20
222.79951557461041
 30
0.0
 11
132.375
 21
222.79951557461041
 31
0.0
  0
SOLID
  5
3150
  8
DIMS
 10
47.374999999999993
 20
223.13284890794381
 30
0.0
 11
47.374999999999993
 21
222.46618224127701
 31
0.0
 12
45.375
 22
222.79951557461041
 32
0.0
 13
45.375
 23
222.79951557461041
 33
0.0
  0
SOLID
  5
3151
  8
DIMS
 10
132.375
 20
223.13284890794381
 30
0.0
 11
132.375
 21
222.46618224127701
 31
0.0
 12
134.375
 22
222.79951557461041
 32
0.0
 13
134.375
 23
222.79951557461041
 33
0.0
  0
TEXT
  5
3152
  8
0
 62
     7
 10
88.133928571428541
 20
223.42451557461041
 30
0.0
 40
2.5
  1
89
 41
0.75
  7
DIMS
  0
LINE
  5
3153
  8
DIMS
 10
52.375
 20
199.01547915844691
 30
0.0
 11
52.375
 21
217.18727700101221
 31
0.0
  0
LINE
  5
3154
  8
DIMS
 10
127.3749999999999
 20
199.01547915844691
 30
0.0
 11
127.3749999999999
 21
217.18727700101221
 31
0.0
  0
LINE
  5
3155
  8
DIMS
 10
54.375
 20
215.93727700101201
 30
0.0
 11
125.3749999999999
 21
215.93727700101201
 31
0.0
  0
SOLID
  5
3156
  8
DIMS
 10
54.375
 20
216.27061033434541
 30
0.0
 11
54.375
 21
215.60394366767881
 31
0.0
 12
52.375
 22
215.93727700101201
 32
0.0
 13
52.375
 23
215.93727700101201
 33
0.0
  0
SOLID
  5
3157
  8
DIMS
 10
125.3749999999999
 20
216.27061033434541
 30
0.0
 11
125.3749999999999
 21
215.60394366767881
 31
0.0
 12
127.3749999999999
 22
215.93727700101201
 32
0.0
 13
127.3749999999999
 23
215.93727700101201
 33
0.0
  0
TEXT
  5
3158
  8
0
 62
     7
 10
88.089285714285694
 20
216.56227700101221
 30
0.0
 40
2.5
  1
75
 41
0.75
  7
DIMS
  0
LINE
  5
3159
  8
DIMS
 10
45.375
 20
187.78575448638611
 30
0.0
 11
45.375
 21
217.18727700101221
 31
0.0
  0
LINE
  5
315A
  8
DIMS
 10
52.375
 20
199.01547915844691
 30
0.0
 11
52.375
 21
217.18727700101221
 31
0.0
  0
LINE
  5
315B
  8
DIMS
 10
47.374999999999993
 20
215.93727700101201
 30
0.0
 11
50.375
 21
215.93727700101201
 31
0.0
  0
SOLID
  5
315C
  8
DIMS
 10
47.374999999999993
 20
216.27061033434541
 30
0.0
 11
47.374999999999993
 21
215.60394366767881
 31
0.0
 12
45.375
 22
215.93727700101201
 32
0.0
 13
45.375
 23
215.93727700101201
 33
0.0
  0
SOLID
  5
315D
  8
DIMS
 10
50.375
 20
216.27061033434541
 30
0.0
 11
50.375
 21
215.60394366767881
 31
0.0
 12
52.375
 22
215.93727700101201
 32
0.0
 13
52.375
 23
215.93727700101201
 33
0.0
  0
TEXT
  5
315E
  8
0
 62
     7
 10
47.98214285714284
 20
216.56227700101221
 30
0.0
 40
2.5
  1
7
 41
0.75
  7
DIMS
  0
TEXT
  5
315F
  8
0
 62
     7
 10
148.14450287721419
 20
210.1768443571905
 30
0.0
 40
2.5
  1
手摺芯材：フラットバー（別途）
 72
     1
 11
169.64450287721419
 21
211.4268443571905
 31
0.0
 73
     2
  0
SOLID
  5
3160
  8
DIMS
 10
129.0649668579708
 20
192.01610393080301
 30
0.0
 11
127.3923231289964
 21
190.87007859642611
 31
0.0
 12
128.6028697912013
 22
192.49663566266611
 32
0.0
 13
128.6028697912013
 23
192.49663566266611
 33
0.0
1001
ACAD
1000
DSTYLE
1002
{
1070
    40
1040
1.0
1070
    77
1070
     1
1002
}
  0
POLYLINE
  5
3161
  8
DIMS
 66
     1
 10
0.0
 20
0.0
 30
0.0
1001
ACAD
1000
DSTYLE
1002
{
1070
    40
1040
1.0
1070
    77
1070
     1
1002
}
  0
VERTEX
  5
3451
  8
DIMS
 10
128.83391832458599
 20
192.2563697967345
 30
0.0
  0
VERTEX
  5
3452
  8
DIMS
 10
145.51950287721419
 20
208.3018443571905
 30
0.0
  0
VERTEX
  5
3453
  8
DIMS
 10
192.7873600200713
 20
208.3018443571905
 30
0.0
  0
SEQEND
  5
3454
  8
DIMS
  0
TEXT
  5
3166
  8
0
 62
     7
 10
145.45937097923249
 20
216.17556986766411
 30
0.0
 40
2.5
  1
笠木：合成樹脂
 72
     1
 11
155.62603764589909
 21
217.42556986766411
 31
0.0
 73
     2
  0
SOLID
  5
3167
  8
DIMS
 10
128.7536557326325
 20
199.6986093829608
 30
0.0
 11
127.10579021946781
 21
198.51723291390729
 31
0.0
 12
128.28143279601159
 22
200.1691940645789
 32
0.0
 13
128.28143279601159
 23
200.1691940645789
 33
0.0
1001
ACAD
1000
DSTYLE
1002
{
1070
    40
1040
1.0
1070
    77
1070
     1
1002
}
  0
POLYLINE
  5
3168
  8
DIMS
 66
     1
 10
0.0
 20
0.0
 30
0.0
1001
ACAD
1000
DSTYLE
1002
{
1070
    40
1040
1.0
1070
    77
1070
     1
1002
}
  0
VERTEX
  5
3455
  8
DIMS
 10
128.517544264322
 20
199.93390172376991
 30
0.0
  0
VERTEX
  5
3456
  8
DIMS
 10
142.8343709792324
 20
214.30056986766411
 30
0.0
  0
VERTEX
  5
3457
  8
DIMS
 10
166.4593709792326
 20
214.30056986766411
 30
0.0
  0
SEQEND
  5
3458
  8
DIMS
  0
LINE
  5
316D
  8
DIMS
 10
127.3749999999999
 20
199.01547915844691
 30
0.0
 11
127.3749999999999
 21
217.18727700101221
 31
0.0
  0
LINE
  5
316E
  8
DIMS
 10
134.375
 20
187.78575448638611
 30
0.0
 11
134.375
 21
217.18727700101221
 31
0.0
  0
LINE
  5
316F
  8
DIMS
 10
129.375
 20
215.93727700101201
 30
0.0
 11
132.375
 21
215.93727700101201
 31
0.0
  0
SOLID
  5
3170
  8
DIMS
 10
129.375
 20
216.27061033434541
 30
0.0
 11
129.375
 21
215.60394366767881
 31
0.0
 12
127.3749999999999
 22
215.93727700101201
 32
0.0
 13
127.3749999999999
 23
215.93727700101201
 33
0.0
  0
SOLID
  5
3171
  8
DIMS
 10
132.375
 20
216.27061033434541
 30
0.0
 11
132.375
 21
215.60394366767881
 31
0.0
 12
134.375
 22
215.93727700101201
 32
0.0
 13
134.375
 23
215.93727700101201
 33
0.0
  0
TEXT
  5
3172
  8
0
 62
     7
 10
129.98214285714269
 20
216.56227700101221
 30
0.0
 40
2.5
  1
7
 41
0.75
  7
DIMS
  0
LINE
  5
3173
  8
DIMS
 10
128.0
 20
183.9374999999998
 30
0.0
 11
149.625
 21
183.9374999999998
 31
0.0
  0
LINE
  5
3174
  8
DIMS
 10
128.0
 20
192.9375
 30
0.0
 11
149.625
 21
192.9375
 31
0.0
  0
LINE
  5
3175
  8
DIMS
 10
148.3749999999998
 20
185.9375
 30
0.0
 11
148.3749999999998
 21
190.9375
 31
0.0
  0
SOLID
  5
3176
  8
DIMS
 10
148.0416666666666
 20
185.9375
 30
0.0
 11
148.7083333333332
 21
185.9375
 31
0.0
 12
148.3749999999998
 22
183.9374999999998
 32
0.0
 13
148.3749999999998
 23
183.9374999999998
 33
0.0
  0
SOLID
  5
3177
  8
DIMS
 10
148.0416666666666
 20
190.9375
 30
0.0
 11
148.7083333333332
 21
190.9375
 31
0.0
 12
148.3749999999998
 22
192.9375
 32
0.0
 13
148.3749999999998
 23
192.9375
 33
0.0
  0
TEXT
  5
3178
  8
0
 62
     7
 10
147.7499999999998
 20
187.58928571428569
 30
0.0
 40
2.5
  1
9
 50
90.0
 41
0.75
  7
DIMS
  0
LINE
  5
3179
  8
DIMS
 10
125.90015245174131
 20
175.9374999999998
 30
0.0
 11
149.625
 21
175.9374999999998
 31
0.0
  0
LINE
  5
317A
  8
DIMS
 10
128.0
 20
183.9374999999998
 30
0.0
 11
149.625
 21
183.9374999999998
 31
0.0
  0
LINE
  5
317B
  8
DIMS
 10
148.3749999999998
 20
177.9375
 30
0.0
 11
148.3749999999998
 21
181.9375
 31
0.0
  0
SOLID
  5
317C
  8
DIMS
 10
148.0416666666666
 20
177.9375
 30
0.0
 11
148.7083333333332
 21
177.9375
 31
0.0
 12
148.3749999999998
 22
175.9374999999998
 32
0.0
 13
148.3749999999998
 23
175.9374999999998
 33
0.0
  0
SOLID
  5
317D
  8
DIMS
 10
148.0416666666666
 20
181.9375
 30
0.0
 11
148.7083333333332
 21
181.9375
 31
0.0
 12
148.3749999999998
 22
183.9374999999998
 32
0.0
 13
148.3749999999998
 23
183.9374999999998
 33
0.0
  0
TEXT
  5
317E
  8
0
 62
     7
 10
147.7499999999998
 20
179.0446428571428
 30
0.0
 40
2.5
  1
8
 50
90.0
 41
0.75
  7
DIMS
  0
LINE
  5
317F
  8
DIMS
 10
148.9999999999998
 20
175.9374999999998
 30
0.0
 11
156.1923499932482
 21
175.9374999999998
 31
0.0
  0
LINE
  5
3180
  8
DIMS
 10
149.0
 20
201.93727700101221
 30
0.0
 11
156.1923499932482
 21
201.93727700101221
 31
0.0
  0
LINE
  5
3181
  8
DIMS
 10
154.9423499932482
 20
177.9375
 30
0.0
 11
154.9423499932482
 21
199.93727700101221
 31
0.0
  0
SOLID
  5
3182
  8
DIMS
 10
154.6090166599148
 20
177.9375
 30
0.0
 11
155.2756833265814
 21
177.9375
 31
0.0
 12
154.9423499932482
 22
175.9374999999998
 32
0.0
 13
154.9423499932482
 23
175.9374999999998
 33
0.0
  0
SOLID
  5
3183
  8
DIMS
 10
154.6090166599148
 20
199.93727700101221
 30
0.0
 11
155.2756833265814
 21
199.93727700101221
 31
0.0
 12
154.9423499932482
 22
201.93727700101221
 32
0.0
 13
154.9423499932482
 23
201.93727700101221
 33
0.0
  0
TEXT
  5
3184
  8
0
 62
     7
 10
154.3173499932482
 20
187.1516742147918
 30
0.0
 40
2.5
  1
26
 50
90.0
 41
0.75
  7
DIMS
  0
LINE
  5
3359
  8
TITLE
 10
20.0
 20
67.5
 30
0.0
 11
199.75
 21
67.5
 31
0.0
  0
LINE
  5
335A
  8
TITLE
 10
127.0465728752536
 20
43.671572875253808
 30
0.0
 11
132.7034271247461
 21
49.32842712474617
 31
0.0
  0
TEXT
  5
335B
  8
TITLE
 10
131.62009379141281
 20
43.221572875253813
 30
0.0
 40
2.5
  1
１
  0
TEXT
  5
335C
  8
TITLE
 10
125.9632395419204
 20
47.278427124746173
 30
0.0
 40
2.5
  1
１
  0
LINE
  5
335D
  8
DEFPOINTS
 10
0.0
 20
0.0
 30
0.0
 11
210.0
 21
0.0
 31
0.0
  0
LINE
  5
335E
  8
DEFPOINTS
 10
210.0
 20
0.0
 30
0.0
 11
210.0
 21
297.0
 31
0.0
  0
LINE
  5
335F
  8
DEFPOINTS
 10
210.0
 20
297.0
 30
0.0
 11
0.0
 21
297.0
 31
0.0
  0
LINE
  5
3360
  8
DEFPOINTS
 10
0.0
 20
297.0
 30
0.0
 11
0.0
 21
0.0
 31
0.0
  0
LINE
  5
3361
  8
TITLE
 10
20.0
 20
12.625
 30
0.0
 11
199.75
 21
12.625
 31
0.0
  0
LINE
  5
3362
  8
TITLE
 10
199.75
 20
12.625
 30
0.0
 11
199.75
 21
284.37499999999989
 31
0.0
  0
LINE
  5
3363
  8
TITLE
 10
199.75
 20
284.37499999999989
 30
0.0
 11
20.0
 21
284.37499999999989
 31
0.0
  0
LINE
  5
3364
  8
TITLE
 10
20.0
 20
284.37499999999989
 30
0.0
 11
20.0
 21
12.625
 31
0.0
  0
ENDSEC
  0
EOF
