  0
SECTION
  2
HEADER
  9
$ACADVER
  1
AC1009
  9
$INSBASE
 10
0.0
 20
0.0
 30
0.0
  9
$EXTMIN
 10
-0.0192219669563656
 20
-0.0226555674080373
 30
-0.0000000000000058
  9
$EXTMAX
 10
420.02563809047348
 20
594.03625716485499
 30
0.0000000000000104
  9
$LIMMIN
 10
0.0
 20
0.0
  9
$LIMMAX
 10
420.0
 20
297.0
  9
$ORTHOMODE
 70
     1
  9
$REGENMODE
 70
     1
  9
$FILLMODE
 70
     1
  9
$QTEXTMODE
 70
     0
  9
$MIRRTEXT
 70
     1
  9
$DRAGMODE
 70
     2
  9
$LTSCALE
 40
0.4
  9
$OSMODE
 70
    37
  9
$ATTMODE
 70
     1
  9
$TEXTSIZE
 40
2.5
  9
$TRACEWID
 40
1.0
  9
$TEXTSTYLE
  7
STANDARD
  9
$CLAYER
  8
0
  9
$CELTYPE
  6
BYLAYER
  9
$CECOLOR
 62
   256
  9
$DIMSCALE
 40
0.0
  9
$DIMASZ
 40
2.0
  9
$DIMEXO
 40
0.625
  9
$DIMDLI
 40
3.75
  9
$DIMRND
 40
0.0
  9
$DIMDLE
 40
0.0
  9
$DIMEXE
 40
1.25
  9
$DIMTP
 40
0.0
  9
$DIMTM
 40
0.0
  9
$DIMTXT
 40
2.5
  9
$DIMCEN
 40
0.0
  9
$DIMTSZ
 40
0.0
  9
$DIMTOL
 70
     0
  9
$DIMLIM
 70
     0
  9
$DIMTIH
 70
     0
  9
$DIMTOH
 70
     0
  9
$DIMSE1
 70
     0
  9
$DIMSE2
 70
     0
  9
$DIMTAD
 70
     1
  9
$DIMZIN
 70
     8
  9
$DIMBLK
  1

  9
$DIMASO
 70
     1
  9
$DIMSHO
 70
     1
  9
$DIMPOST
  1

  9
$DIMAPOST
  1

  9
$DIMALT
 70
     0
  9
$DIMALTD
 70
     3
  9
$DIMALTF
 40
0.03937007874016
  9
$DIMLFAC
 40
1.0
  9
$DIMTOFL
 70
     1
  9
$DIMTVP
 40
0.0
  9
$DIMTIX
 70
     0
  9
$DIMSOXD
 70
     0
  9
$DIMSAH
 70
     0
  9
$DIMBLK1
  1

  9
$DIMBLK2
  1

  9
$DIMSTYLE
  2
DIMS
  9
$DIMCLRD
 70
     0
  9
$DIMCLRE
 70
     0
  9
$DIMCLRT
 70
     7
  9
$DIMTFAC
 40
1.0
  9
$DIMGAP
 40
0.625
  9
$LUNITS
 70
     2
  9
$LUPREC
 70
     4
  9
$SKETCHINC
 40
1.0
  9
$FILLETRAD
 40
0.0
  9
$AUNITS
 70
     0
  9
$AUPREC
 70
     0
  9
$MENU
  1
.
  9
$ELEVATION
 40
0.0
  9
$PELEVATION
 40
0.0
  9
$THICKNESS
 40
0.0
  9
$LIMCHECK
 70
     0
  9
$BLIPMODE
 70
     0
  9
$CHAMFERA
 40
10.0
  9
$CHAMFERB
 40
10.0
  9
$SKPOLY
 70
     0
  9
$TDCREATE
 40
2451639.7154235072
  9
$TDUPDATE
 40
2458715.6218810529
  9
$TDINDWG
 40
0.1567909144
  9
$TDUSRTIMER
 40
0.1567907986
  9
$USRTIMER
 70
     1
  9
$ANGBASE
 50
0.0
  9
$ANGDIR
 70
     0
  9
$PDMODE
 70
     0
  9
$PDSIZE
 40
0.0
  9
$PLINEWID
 40
0.0
  9
$COORDS
 70
     1
  9
$SPLFRAME
 70
     0
  9
$SPLINETYPE
 70
     6
  9
$SPLINESEGS
 70
     8
  9
$ATTDIA
 70
     1
  9
$ATTREQ
 70
     1
  9
$HANDLING
 70
     1
  9
$HANDSEED
  5
4AA8
  9
$SURFTAB1
 70
     6
  9
$SURFTAB2
 70
     6
  9
$SURFTYPE
 70
     6
  9
$SURFU
 70
     6
  9
$SURFV
 70
     6
  9
$UCSNAME
  2

  9
$UCSORG
 10
0.0
 20
0.0
 30
0.0
  9
$UCSXDIR
 10
1.0
 20
0.0
 30
0.0
  9
$UCSYDIR
 10
0.0
 20
1.0
 30
0.0
  9
$PUCSNAME
  2

  9
$PUCSORG
 10
0.0
 20
0.0
 30
0.0
  9
$PUCSXDIR
 10
1.0
 20
0.0
 30
0.0
  9
$PUCSYDIR
 10
0.0
 20
1.0
 30
0.0
  9
$USERI1
 70
     0
  9
$USERI2
 70
     0
  9
$USERI3
 70
     0
  9
$USERI4
 70
     0
  9
$USERI5
 70
     0
  9
$USERR1
 40
0.0
  9
$USERR2
 40
0.0
  9
$USERR3
 40
0.0
  9
$USERR4
 40
0.0
  9
$USERR5
 40
0.0
  9
$WORLDVIEW
 70
     1
  9
$SHADEDGE
 70
     3
  9
$SHADEDIF
 70
    70
  9
$TILEMODE
 70
     1
  9
$MAXACTVP
 70
    48
  9
$PLIMCHECK
 70
     0
  9
$PEXTMIN
 10
0.0
 20
0.0
 30
0.0
  9
$PEXTMAX
 10
0.0
 20
0.0
 30
0.0
  9
$PLIMMIN
 10
0.0
 20
0.0
  9
$PLIMMAX
 10
12.0
 20
9.0
  9
$UNITMODE
 70
     0
  9
$VISRETAIN
 70
     1
  9
$PLINEGEN
 70
     0
  9
$PSLTSCALE
 70
     0
  0
ENDSEC
  0
SECTION
  2
TABLES
  0
TABLE
  2
VPORT
 70
     1
  0
VPORT
  2
*ACTIVE
 70
     0
 10
0.0
 20
0.0
 11
1.0
 21
1.0
 12
210.00320806175861
 22
297.00680079872342
 13
0.0
 23
0.0
 14
10.0
 24
10.0
 15
10.0
 25
10.0
 16
0.0
 26
0.0
 36
1.0
 17
0.0
 27
0.0
 37
0.0
 40
599.97976568308275
 41
1.6555740432612309
 42
50.0
 43
0.0
 44
0.0
 50
0.0
 51
0.0
 71
     0
 72
   100
 73
     1
 74
     3
 75
     0
 76
     0
 77
     0
 78
     0
  0
ENDTAB
  0
TABLE
  2
LTYPE
 70
     3
  0
LTYPE
  2
CONTINUOUS
 70
     0
  3
Solid line
 72
    65
 73
     0
 40
0.0
  0
LTYPE
  2
CENTER2
 70
     0
  3
Center (.5x) ___ _ ___ _ ___ _ ___ _ ___ _ ___
 72
    65
 73
     4
 40
28.574999999999999
 49
19.050000000000001
 49
-3.1749999999999989
 49
3.1749999999999989
 49
-3.1749999999999989
  0
ENDTAB
  0
TABLE
  2
LAYER
 70
     7
  0
LAYER
  2
0
 70
     0
 62
     7
  6
CONTINUOUS
  0
LAYER
  2
TITLE
 70
     0
 62
     7
  6
CONTINUOUS
  0
LAYER
  2
DEFPOINTS
 70
     0
 62
     7
  6
CONTINUOUS
  0
LAYER
  2
MODEL
 70
     0
 62
     7
  6
CONTINUOUS
  0
LAYER
  2
DIMS
 70
     0
 62
     1
  6
CONTINUOUS
  0
LAYER
  2
CENTER
 70
     0
 62
     6
  6
CENTER2
  0
LAYER
  2
GENKYO
 70
     0
 62
     3
  6
CONTINUOUS
  0
ENDTAB
  0
TABLE
  2
STYLE
 70
     2
  0
STYLE
  2
STANDARD
 70
     0
 40
0.0
 41
1.0
 50
0.0
 71
     0
 42
2.5
  3
romans.shx
  4
bigfont.shx
  0
STYLE
  2
DIMS
 70
     0
 40
0.0
 41
0.75
 50
0.0
 71
     0
 42
2.5
  3
romans.shx
  4
bigfont.shx
  0
ENDTAB
  0
TABLE
  2
VIEW
 70
     1
  0
VIEW
  2
PRINT
 70
     1
 40
128.5
 10
98.875866602002361
 20
145.24226553880581
 41
88.0
 11
0.0
 21
0.0
 31
1.0
 12
0.0
 22
0.0
 32
0.0
 42
50.0
 43
0.0
 44
0.0
 50
0.0
 71
     0
  0
ENDTAB
  0
TABLE
  2
UCS
 70
     0
  0
ENDTAB
  0
TABLE
  2
APPID
 70
    10
  0
APPID
  2
ACAD
 70
     0
  0
APPID
  2
ACAD_EXEMPT_FROM_CAD_STANDARDS
 70
     0
  0
APPID
  2
ACAD_MLEADERVER
 70
     0
  0
APPID
  2
ACAD_PSEXT
 70
     0
  0
APPID
  2
ACAD_NAV_VCDISPLAY
 70
     0
  0
APPID
  2
ACAECLAYERSTANDARD
 70
     0
  0
APPID
  2
ACCMTRANSPARENCY
 70
     0
  0
APPID
  2
ACAD_DSTYLE_DIMRADIAL_EXTENSION
 70
     0
  0
APPID
  2
ACAD_DSTYLE_DIMTALN
 70
     0
  0
APPID
  2
ACLAYERTOOLS
 70
     0
  0
ENDTAB
  0
TABLE
  2
DIMSTYLE
 70
     3
  0
DIMSTYLE
  2
DIMS
 70
     0
  3

  4

  5

  6

  7

 40
0.0
 41
2.0
 42
0.625
 43
3.75
 44
1.25
 45
0.0
 46
0.0
 47
0.0
 48
0.0
140
2.5
141
0.0
142
0.0
143
0.03937007874016
144
1.0
145
0.0
146
1.0
147
0.625
 71
     0
 72
     0
 73
     0
 74
     0
 75
     0
 76
     0
 77
     1
 78
     8
170
     0
171
     3
172
     1
173
     0
174
     0
175
     0
176
     0
177
     0
178
     7
  0
DIMSTYLE
  2
STANDARD
 70
     0
  3

  4

  5

  6

  7

 40
1.0
 41
0.18
 42
0.0625
 43
0.38
 44
0.18
 45
0.0
 46
0.0
 47
0.0
 48
0.0
140
0.18
141
0.09
142
0.0
143
25.399999999999999
144
1.0
145
0.0
146
1.0
147
0.09
 71
     0
 72
     0
 73
     1
 74
     1
 75
     0
 76
     0
 77
     0
 78
     0
170
     0
171
     2
172
     0
173
     0
174
     0
175
     0
176
     0
177
     0
178
     0
  0
ENDTAB
  0
ENDSEC
  0
SECTION
  2
BLOCKS
  0
BLOCK
  8
0
  2
$MODEL_SPACE
 70
     0
 10
0.0
 20
0.0
 30
0.0
  3
$MODEL_SPACE
  1

  0
ENDBLK
  5
21
  8
0
  0
BLOCK
 67
     1
  8
0
  2
$PAPER_SPACE
 70
     0
 10
0.0
 20
0.0
 30
0.0
  3
$PAPER_SPACE
  1

  0
ENDBLK
  5
1960
 67
     1
  8
0
  0
BLOCK
  8
0
  2
*D0
 70
     1
 10
0.0
 20
0.0
 30
0.0
  3
*D0
  1

  0
LINE
  5
49F8
  8
DIMS
 62
     0
 10
201.18770180686289
 20
441.63036310504378
 30
0.0
 11
201.18770180686289
 21
458.88036460149692
 31
0.0
  0
LINE
  5
49F9
  8
DIMS
 62
     0
 10
209.38770180686271
 20
440.33036460207899
 30
0.0
 11
209.38770180686271
 21
458.88036460149692
 31
0.0
  0
LINE
  5
49FA
  8
DIMS
 62
     0
 10
197.18770180872551
 20
456.38036460266107
 30
0.0
 11
193.18770181058821
 21
456.38036460266107
 31
0.0
  0
LINE
  5
49FB
  8
DIMS
 62
     0
 10
213.38770180500009
 20
456.38036460266107
 30
0.0
 11
217.3877018031375
 21
456.38036460266107
 31
0.0
  0
INSERT
  5
49FC
  8
0
  2
*U4
 10
0.0
 20
0.0
 30
0.0
  0
LINE
  5
49FD
  8
DIMS
 62
     0
 10
201.18770180686289
 20
456.38036460266107
 30
0.0
 11
209.38770180686271
 21
456.38036460266107
 31
0.0
  0
SOLID
  5
49FE
  8
DIMS
 62
     0
 10
197.18770180872551
 20
457.04703126901728
 30
0.0
 11
197.18770180872551
 21
455.71369793630492
 31
0.0
 12
201.18770180686289
 22
456.38036460266107
 32
0.0
 13
201.18770180686289
 23
456.38036460266107
 33
0.0
  0
SOLID
  5
49FF
  8
DIMS
 62
     0
 10
213.38770180500009
 20
457.04703126901728
 30
0.0
 11
213.38770180500009
 21
455.71369793630492
 31
0.0
 12
209.38770180686271
 22
456.38036460266107
 32
0.0
 13
209.38770180686271
 23
456.38036460266107
 33
0.0
  0
POINT
  5
4A00
  8
DEFPOINTS
 62
     0
 10
201.18770180686289
 20
440.38036310562592
 30
0.0
  0
POINT
  5
4A01
  8
DEFPOINTS
 62
     0
 10
209.38770180686271
 20
439.08036460266101
 30
0.0
  0
POINT
  5
4A02
  8
DEFPOINTS
 62
     0
 10
209.38770180686271
 20
456.38036460266107
 30
0.0
  0
ENDBLK
  5
4935
  8
0
  0
BLOCK
  8
0
  2
*D1
 70
     1
 10
0.0
 20
0.0
 30
0.0
  3
*D1
  1

  0
LINE
  5
4958
  8
DIMS
 62
     0
 10
208.63770180628069
 20
441.08036460266112
 30
0.0
 11
231.68770180569859
 21
441.08036460266112
 31
0.0
  0
LINE
  5
4959
  8
DIMS
 62
     0
 10
208.6377018062806
 20
242.08036460266109
 30
0.0
 11
231.68770180569851
 21
242.08036460266109
 31
0.0
  0
LINE
  5
495A
  8
DIMS
 62
     0
 10
229.18770180686269
 20
437.08036460452382
 30
0.0
 11
229.18770180686269
 21
246.0803646007985
 31
0.0
  0
SOLID
  5
495B
  8
DIMS
 62
     0
 10
228.52103514050651
 20
437.08036460452382
 30
0.0
 11
229.85436847321901
 21
437.08036460452382
 31
0.0
 12
229.18770180686269
 22
441.08036460266112
 32
0.0
 13
229.18770180686269
 23
441.08036460266112
 33
0.0
  0
SOLID
  5
495C
  8
DIMS
 62
     0
 10
228.52103514050651
 20
246.0803646007985
 30
0.0
 11
229.85436847321901
 21
246.0803646007985
 31
0.0
 12
229.18770180686269
 22
242.08036460266109
 32
0.0
 13
229.18770180686269
 23
242.08036460266109
 33
0.0
  0
INSERT
  5
495D
  8
0
  2
*U3
 10
0.0
 20
0.0
 30
0.0
  0
POINT
  5
495E
  8
DEFPOINTS
 62
     0
 10
207.38770180686279
 20
441.08036460266112
 30
0.0
  0
POINT
  5
495F
  8
DEFPOINTS
 62
     0
 10
207.38770180686271
 20
242.08036460266109
 30
0.0
  0
POINT
  5
4960
  8
DEFPOINTS
 62
     0
 10
229.18770180686269
 20
242.08036460266109
 30
0.0
  0
ENDBLK
  5
4943
  8
0
  0
BLOCK
  8
0
  2
*U3
 70
     1
 10
0.0
 20
0.0
 30
0.0
  3
*U3
  1

  0
TEXT
  5
4A8E
  8
DIMS
 62
     7
 10
227.9377018074448
 20
336.04465031952458
 30
0.0
 40
4.9999999976717113
  1
199
 50
90.0
 41
0.75
  7
DIMS
  0
ENDBLK
  5
4A90
  8
0
  0
BLOCK
  8
0
  2
*U4
 70
     1
 10
0.0
 20
0.0
 30
0.0
  3
*U4
  1

  0
TEXT
  5
4A92
  8
DIMS
 62
     7
 10
202.80758499777659
 20
460.34940678646029
 30
0.0
 40
4.9999999976717113
  1
8.2
 41
0.75
  7
DIMS
  0
ENDBLK
  5
4A94
  8
0
  0
BLOCK
  8
0
  2
*U5
 70
     1
 10
0.0
 20
0.0
 30
0.0
  3
*U5
  1

  0
TEXT
  5
4A9E
  8
DIMS
 62
     7
 10
227.9377018074448
 20
336.04465031952458
 30
0.0
 40
4.9999999976717113
  1
199
 50
90.0
 41
0.75
  7
DIMS
  0
ENDBLK
  5
4AA0
  8
0
  0
BLOCK
  8
0
  2
*U6
 70
     1
 10
0.0
 20
0.0
 30
0.0
  3
*U6
  1

  0
TEXT
  5
4AA2
  8
DIMS
 62
     7
 10
202.80758499777659
 20
460.34940678646029
 30
0.0
 40
4.9999999976717113
  1
8.2
 41
0.75
  7
DIMS
  0
ENDBLK
  5
4AA4
  8
0
  0
ENDSEC
  0
SECTION
  2
ENTITIES
  0
LINE
  5
1055
  8
TITLE
 10
40.0
 20
65.0
 30
0.0
 11
399.5
 21
65.0
 31
0.0
  0
LINE
  5
1056
  8
TITLE
 10
40.0
 20
105.0
 30
0.0
 11
399.5
 21
105.0
 31
0.0
  0
LINE
  5
1057
  8
TITLE
 10
40.0
 20
125.0
 30
0.0
 11
399.5
 21
125.0
 31
0.0
  0
LINE
  5
1058
  8
TITLE
 10
129.75
 20
78.3333333333333
 30
0.0
 11
219.74999999999989
 21
78.3333333333333
 31
0.0
  0
LINE
  5
1059
  8
TITLE
 10
129.75
 20
91.666666666666615
 30
0.0
 11
219.74999999999989
 21
91.666666666666615
 31
0.0
  0
LINE
  5
105A
  8
TITLE
 10
40.0
 20
135.0
 30
0.0
 11
399.5
 21
135.0
 31
0.0
  0
LINE
  5
105E
  8
TITLE
 10
40.0
 20
95.0
 30
0.0
 11
129.75
 21
95.0
 31
0.0
  0
LINE
  5
105F
  8
TITLE
 10
40.0
 20
85.0
 30
0.0
 11
129.75
 21
85.0
 31
0.0
  0
LINE
  5
1061
  8
TITLE
 10
40.0
 20
75.0
 30
0.0
 11
129.75
 21
75.0
 31
0.0
  0
LINE
  5
1069
  8
TITLE
 10
129.75
 20
135.0
 30
0.0
 11
129.75
 21
65.0
 31
0.0
  0
LINE
  5
106E
  8
TITLE
 10
344.93510499563382
 20
76.846908661963923
 30
0.0
 11
346.34373839593331
 21
78.255542062262279
 31
0.0
  0
LINE
  5
106F
  8
TITLE
 10
345.10967474092803
 20
76.846908661963923
 30
0.0
 11
346.51830814122792
 21
78.255542062262279
 31
0.0
  0
LINE
  5
1070
  8
TITLE
 10
345.28424448622252
 20
76.846908661963923
 30
0.0
 11
346.6928778865215
 21
78.255542062262279
 31
0.0
  0
LINE
  5
1071
  8
TITLE
 10
345.45881423150252
 20
76.846908661963923
 30
0.0
 11
346.86744763181599
 21
78.255542062262279
 31
0.0
  0
LINE
  5
1072
  8
TITLE
 10
345.63338397679701
 20
76.846908661963923
 30
0.0
 11
347.04201737709587
 21
78.255542062262279
 31
0.0
  0
LINE
  5
1073
  8
TITLE
 10
345.8079537220911
 20
76.846908661963923
 30
0.0
 11
347.21658712239082
 21
78.255542062262279
 31
0.0
  0
LINE
  5
1074
  8
TITLE
 10
345.98252346738559
 20
76.846908661963923
 30
0.0
 11
347.3911568676844
 21
78.255542062262279
 31
0.0
  0
LINE
  5
1075
  8
TITLE
 10
346.1570932126798
 20
76.846908661963923
 30
0.0
 11
347.56572661297901
 21
78.255542062262279
 31
0.0
  0
LINE
  5
1076
  8
TITLE
 10
344.58950772008711
 20
68.645672848244445
 30
0.0
 11
346.31341548341197
 21
70.369580611569504
 31
0.0
  0
LINE
  5
1077
  8
TITLE
 10
344.70158183103348
 20
68.583177213896136
 30
0.0
 11
346.5052206032193
 21
70.386815986068456
 31
0.0
  0
LINE
  5
1078
  8
TITLE
 10
344.88029337909688
 20
68.587319016658071
 30
0.0
 11
346.69844836523589
 21
70.405474002804866
 31
0.0
  0
LINE
  5
1079
  8
TITLE
 10
345.0605277188738
 20
68.592983611155745
 30
0.0
 11
346.89313374935188
 21
70.425589641626402
 31
0.0
  0
LINE
  5
107A
  8
TITLE
 10
345.24232569188803
 20
68.600211838868603
 30
0.0
 11
347.08931339728679
 21
70.447199544267576
 31
0.0
  0
LINE
  5
107B
  8
TITLE
 10
345.42573033834151
 20
68.609046740034643
 30
0.0
 11
348.71634784242769
 21
71.899664244113424
 31
0.0
  0
LINE
  5
107C
  8
TITLE
 10
345.61078706600341
 20
68.619533722395175
 30
0.0
 11
348.71634784242769
 21
71.725094498818564
 31
0.0
  0
LINE
  5
107D
  8
TITLE
 10
345.79754383599288
 20
68.63172074710404
 30
0.0
 11
348.71634784242769
 21
71.550524753524002
 31
0.0
  0
LINE
  5
107E
  8
TITLE
 10
345.9860513680992
 20
68.645658533916347
 30
0.0
 11
348.71634784242769
 21
71.375955008230292
 31
0.0
  0
LINE
  5
107F
  8
TITLE
 10
346.17636336778543
 20
68.661400788293435
 30
0.0
 11
348.71634784242769
 21
71.201385262942424
 31
0.0
  0
LINE
  5
1080
  8
TITLE
 10
344.90293876325052
 20
74.021626504899828
 30
0.0
 11
346.31958727418311
 21
75.438275015832644
 31
0.0
  0
LINE
  5
1081
  8
TITLE
 10
344.98118034060229
 20
73.925298336958036
 30
0.0
 11
346.49415701947692
 21
75.438275015832644
 31
0.0
  0
LINE
  5
1082
  8
TITLE
 10
345.15575008589673
 20
73.925298336958036
 30
0.0
 11
346.66872676477141
 21
75.438275015832644
 31
0.0
  0
LINE
  5
1083
  8
TITLE
 10
345.33031983119139
 20
73.925298336958036
 30
0.0
 11
346.84329651006578
 21
75.438275015832644
 31
0.0
  0
LINE
  5
1084
  8
TITLE
 10
345.50488957648599
 20
73.925298336958036
 30
0.0
 11
347.01786625534601
 21
75.438275015832644
 31
0.0
  0
LINE
  5
1085
  8
TITLE
 10
345.67945932177992
 20
73.925298336958036
 30
0.0
 11
347.19243600063987
 21
75.438275015832644
 31
0.0
  0
LINE
  5
1086
  8
TITLE
 10
345.85402906706003
 20
73.925298336958036
 30
0.0
 11
347.36700574593448
 21
75.438275015832644
 31
0.0
  0
LINE
  5
1087
  8
TITLE
 10
346.02859881235418
 20
73.925298336958036
 30
0.0
 11
347.54157549122931
 21
75.438275015832644
 31
0.0
  0
LINE
  5
1088
  8
TITLE
 10
346.2031685576485
 20
73.925298336958036
 30
0.0
 11
347.71614523652352
 21
75.438275015832644
 31
0.0
  0
LINE
  5
108D
  8
TITLE
 10
219.74999999999989
 20
85.0
 30
0.0
 11
399.5
 21
85.0
 31
0.0
  0
LINE
  5
108E
  8
TITLE
 10
309.74999999999977
 20
135.0
 30
0.0
 11
309.74999999999977
 21
105.0
 31
0.0
  0
LINE
  5
108F
  8
TITLE
 10
219.74999999999989
 20
135.0
 30
0.0
 11
219.75
 21
65.0
 31
0.0
  0
LINE
  5
1091
  8
TITLE
 10
279.89258800051232
 20
76.569767170528422
 30
0.0
 11
282.72026749676428
 21
79.397446666780198
 31
0.0
  0
LINE
  5
1092
  8
TITLE
 10
280.18663259105381
 20
76.689242015775577
 30
0.0
 11
282.72026749676428
 21
79.222876921485664
 31
0.0
  0
LINE
  5
1093
  8
TITLE
 10
280.4670075644342
 20
76.795047243854555
 30
0.0
 11
282.72026749676428
 21
79.048307176191642
 31
0.0
  0
LINE
  5
1094
  8
TITLE
 10
279.25125277694781
 20
76.277571437551273
 30
0.0
 11
282.65320284941208
 21
79.679521510016656
 31
0.0
  0
LINE
  5
1095
  8
TITLE
 10
279.58209942460633
 20
76.43384833991648
 30
0.0
 11
282.72026749676428
 21
79.572016412074547
 31
0.0
  0
LINE
  5
1096
  8
TITLE
 10
276.16451839785719
 20
74.41282527550689
 30
0.0
 11
281.0544664804234
 21
79.302773358081552
 31
0.0
  0
LINE
  5
1097
  8
TITLE
 10
276.35671693497858
 20
74.430454067326281
 30
0.0
 11
281.30242381826628
 21
79.376160950622079
 31
0.0
  0
LINE
  5
1098
  8
TITLE
 10
276.35671693497858
 20
74.255884322039236
 30
0.0
 11
281.5427609510312
 21
79.441928338092495
 31
0.0
  0
LINE
  5
1099
  8
TITLE
 10
276.35671693497858
 20
74.081314576745555
 30
0.0
 11
281.776250325484
 21
79.500847967251715
 31
0.0
  0
LINE
  5
109A
  8
TITLE
 10
276.35671693497858
 20
73.906744831450965
 30
0.0
 11
282.00353514077329
 21
79.553563037245496
 31
0.0
  0
LINE
  5
109B
  8
TITLE
 10
276.35671693497858
 20
73.732175086157
 30
0.0
 11
282.22515783847729
 21
79.600615989670061
 31
0.0
  0
LINE
  5
109C
  8
TITLE
 10
276.35671693497858
 20
73.557605340862423
 30
0.0
 11
282.44158097820832
 21
79.642469384107699
 31
0.0
  0
LINE
  5
109D
  8
TITLE
 10
275.84937160767231
 20
74.272248230609421
 30
0.0
 11
280.7979474347373
 21
79.220824057681085
 31
0.0
  0
LINE
  5
109E
  8
TITLE
 10
250.6764609656461
 20
82.208158241144375
 30
0.0
 11
244.8387403741215
 21
76.370437649619504
 31
0.0
  0
LINE
  5
109F
  8
TITLE
 10
246.7689582747025
 20
66.902525803069096
 30
0.0
 11
254.30665222067211
 21
74.440219749034455
 31
0.0
  0
LINE
  5
10A0
  8
TITLE
 10
246.5937681970984
 20
66.90190547075764
 30
0.0
 11
254.30727255298331
 21
74.615409826640501
 31
0.0
  0
LINE
  5
10A1
  8
TITLE
 10
246.4224703583838
 20
66.905177377320484
 30
0.0
 11
254.32160518916109
 21
74.804312208098821
 31
0.0
  0
LINE
  5
10A2
  8
TITLE
 10
246.2548207909376
 20
66.912097555167975
 30
0.0
 11
254.29708046857229
 21
74.954357232818197
 31
0.0
  0
LINE
  5
10A3
  8
TITLE
 10
246.09060485673751
 20
66.922451366285742
 30
0.0
 11
254.28672665745609
 21
75.118573166990018
 31
0.0
  0
LINE
  5
10A4
  8
TITLE
 10
245.92963259299731
 20
66.936048847818185
 30
0.0
 11
254.27312917592289
 21
75.279545430742786
 31
0.0
  0
LINE
  5
10A5
  8
TITLE
 10
245.72068035588629
 20
66.901666356001812
 30
0.0
 11
254.25645704945171
 21
75.437443049580381
 31
0.0
  0
LINE
  5
10A6
  8
TITLE
 10
247.13217445401801
 20
66.916602491790883
 30
0.0
 11
254.29257553195001
 21
74.077003569724425
 31
0.0
  0
LINE
  5
10A7
  8
TITLE
 10
246.94831975064179
 20
66.907317533707555
 30
0.0
 11
254.30186049003319
 21
74.260858273103466
 31
0.0
  0
LINE
  5
10A8
  8
TITLE
 10
247.71478199598971
 20
66.97550079788175
 30
0.0
 11
254.23367722585911
 21
73.494396027750952
 31
0.0
  0
LINE
  5
10A9
  8
TITLE
 10
247.32089655822219
 20
66.930754850702982
 30
0.0
 11
254.27842317303819
 21
73.888281465518276
 31
0.0
  0
LINE
  5
10AA
  8
TITLE
 10
247.51492529872331
 20
66.950213845909502
 30
0.0
 11
254.2589641778313
 21
73.694252725017463
 31
0.0
  0
LINE
  5
10AB
  8
TITLE
 10
245.54611061059151
 20
66.901666356001243
 30
0.0
 11
254.23686139897291
 21
75.592417144382523
 31
0.0
  0
LINE
  5
10AC
  8
TITLE
 10
245.37154086529071
 20
66.901666356001243
 30
0.0
 11
254.21447792481729
 21
75.744603415528346
 31
0.0
  0
LINE
  5
10AD
  8
TITLE
 10
245.1969711200035
 20
66.901666356001243
 30
0.0
 11
254.18942895863219
 21
75.894124194629924
 31
0.0
  0
LINE
  5
10AE
  8
TITLE
 10
245.02240137470909
 20
66.901666356001243
 30
0.0
 11
254.16182517166169
 21
76.041090152953757
 31
0.0
  0
LINE
  5
10AF
  8
TITLE
 10
244.8478316294152
 20
66.901666356001243
 30
0.0
 11
254.1317670072321
 21
76.185601733819141
 31
0.0
  0
LINE
  5
10B0
  8
TITLE
 10
244.6732618841157
 20
66.901666356001243
 30
0.0
 11
254.09934588989299
 21
76.327750361766746
 31
0.0
  0
LINE
  5
10B1
  8
TITLE
 10
244.49869213882101
 20
66.901666356001243
 30
0.0
 11
254.06464525228719
 21
76.467619469455741
 31
0.0
  0
LINE
  5
10B2
  8
TITLE
 10
244.3241223935465
 20
66.901666356001243
 30
0.0
 11
254.02774141215329
 21
76.605285374608144
 31
0.0
  0
LINE
  5
10B3
  8
TITLE
 10
244.1495526482515
 20
66.901666356001243
 30
0.0
 11
253.9887043252142
 21
76.740818032963801
 31
0.0
  0
LINE
  5
10B4
  8
TITLE
 10
243.97498290295729
 20
66.901666356001812
 30
0.0
 11
253.94759823467231
 21
76.874281687715879
 31
0.0
  0
LINE
  5
10B5
  8
TITLE
 10
243.80041315766459
 20
66.901666356001243
 30
0.0
 11
253.87307233369799
 21
76.974325532035465
 31
0.0
  0
LINE
  5
10B6
  8
TITLE
 10
243.62584341236911
 20
66.901666356001243
 30
0.0
 11
253.69850258840441
 21
76.974325532035465
 31
0.0
  0
LINE
  5
10B7
  8
TITLE
 10
243.45127366707439
 20
66.901666356001812
 30
0.0
 11
253.52393284310989
 21
76.974325532034925
 31
0.0
  0
LINE
  5
10B8
  8
TITLE
 10
243.27670392178251
 20
66.901666356001243
 30
0.0
 11
253.34936309781389
 21
76.974325532035465
 31
0.0
  0
LINE
  5
10B9
  8
TITLE
 10
239.7013781899679
 20
71.356548907656759
 30
0.0
 11
250.5529875234584
 21
82.208158241144375
 31
0.0
  0
LINE
  5
10BA
  8
TITLE
 10
239.6472350639491
 20
71.476975526930275
 30
0.0
 11
250.37841777816291
 21
82.208158241144375
 31
0.0
  0
LINE
  5
10BB
  8
TITLE
 10
239.59483239386361
 20
71.5991426021385
 30
0.0
 11
250.20384803286711
 21
82.208158241144375
 31
0.0
  0
LINE
  5
10BC
  8
TITLE
 10
239.5442068190703
 20
71.723086772641764
 30
0.0
 11
250.02927828757521
 21
82.208158241144375
 31
0.0
  0
LINE
  5
10BD
  8
TITLE
 10
239.49539796283571
 20
71.848847661700631
 30
0.0
 11
249.85470854227989
 21
82.208158241144375
 31
0.0
  0
LINE
  5
10BE
  8
TITLE
 10
239.11871806387899
 20
73.217865215657568
 30
0.0
 11
248.1090110893372
 21
82.208158241144375
 31
0.0
  0
LINE
  5
10BF
  8
TITLE
 10
239.0937071990663
 20
73.367424096153471
 30
0.0
 11
247.93444134405721
 21
82.208158241144375
 31
0.0
  0
LINE
  5
10C0
  8
TITLE
 10
239.28023562014391
 20
72.506534045492344
 30
0.0
 11
248.9818598158235
 21
82.208158241144375
 31
0.0
  0
LINE
  5
10C1
  8
TITLE
 10
239.24336343538971
 20
72.644231606031866
 30
0.0
 11
248.80729007052889
 21
82.208158241144375
 31
0.0
  0
LINE
  5
10C2
  8
TITLE
 10
239.20869552016151
 20
72.784133436090841
 30
0.0
 11
248.63272032524131
 21
82.208158241144375
 31
0.0
  0
LINE
  5
10C3
  8
TITLE
 10
239.1763082904001
 20
72.926315951624488
 30
0.0
 11
248.4581505799475
 21
82.208158241144375
 31
0.0
  0
LINE
  5
10C4
  8
TITLE
 10
239.14628528882059
 20
73.070862695320116
 30
0.0
 11
248.28358083463121
 21
82.208158241144375
 31
0.0
  0
LINE
  5
10C5
  8
TITLE
 10
239.4484486897872
 20
71.976468133945076
 30
0.0
 11
249.68013879698529
 21
82.208158241144375
 31
0.0
  0
LINE
  5
10C6
  8
TITLE
 10
239.4034053970951
 20
72.105994586548277
 30
0.0
 11
249.505569051691
 21
82.208158241144375
 31
0.0
  0
LINE
  5
10C7
  8
TITLE
 10
239.36031834466931
 20
72.237477279417291
 30
0.0
 11
249.33099930639781
 21
82.208158241144375
 31
0.0
  0
LINE
  5
10C8
  8
TITLE
 10
239.31924203069559
 20
72.37097071075064
 30
0.0
 11
249.15642956111989
 21
82.208158241144375
 31
0.0
  0
LINE
  5
10C9
  8
TITLE
 10
242.5784249406461
 20
66.901666356001243
 30
0.0
 11
248.13204165020159
 21
72.455283065595466
 31
0.0
  0
LINE
  5
10CA
  8
TITLE
 10
243.10213417648629
 20
66.901666356001243
 30
0.0
 11
253.17479335252111
 21
76.974325532035465
 31
0.0
  0
LINE
  5
10CB
  8
TITLE
 10
242.92756443119319
 20
66.901666356001243
 30
0.0
 11
253.00022360722451
 21
76.974325532034925
 31
0.0
  0
LINE
  5
10CC
  8
TITLE
 10
242.75299468589779
 20
66.901666356001243
 30
0.0
 11
252.8256538619313
 21
76.974325532035465
 31
0.0
  0
LINE
  5
10CD
  8
TITLE
 10
242.4038551953241
 20
66.901666356001812
 30
0.0
 11
247.72219303005309
 21
72.220004190731601
 31
0.0
  0
LINE
  5
10CE
  8
TITLE
 10
242.2292854500281
 20
66.901666356001812
 30
0.0
 11
247.437310419509
 21
72.10969132548118
 31
0.0
  0
LINE
  5
10CF
  8
TITLE
 10
242.0547157047337
 20
66.901666356001243
 30
0.0
 11
247.19883694108231
 21
72.045787592349583
 31
0.0
  0
LINE
  5
10D0
  8
TITLE
 10
241.88014595944091
 20
66.901666356001243
 30
0.0
 11
246.9875782024063
 21
72.009098598967057
 31
0.0
  0
LINE
  5
10D1
  8
TITLE
 10
241.70557621414511
 20
66.901666356001243
 30
0.0
 11
246.7951497328369
 21
71.991239874691615
 31
0.0
  0
LINE
  5
10D2
  8
TITLE
 10
241.5310064688515
 20
66.901666356001016
 30
0.0
 11
246.6169825453803
 21
71.987642432530194
 31
0.0
  0
LINE
  5
10D3
  8
TITLE
 10
241.35643672355801
 20
66.901666356001243
 30
0.0
 11
246.45025965970001
 21
71.995489292144285
 31
0.0
  0
LINE
  5
10D4
  8
TITLE
 10
241.18186697826329
 20
66.901666356001243
 30
0.0
 11
246.2931009937636
 21
72.012900371501502
 31
0.0
  0
LINE
  5
10D5
  8
TITLE
 10
241.0072972329682
 20
66.901666356001243
 30
0.0
 11
246.14418107017349
 21
72.038550193206575
 31
0.0
  0
LINE
  5
10D6
  8
TITLE
 10
240.8327274876456
 20
66.901666356001812
 30
0.0
 11
246.0025277873915
 21
72.071466655711461
 31
0.0
  0
LINE
  5
10D7
  8
TITLE
 10
240.65815774239351
 20
66.901666356001812
 30
0.0
 11
245.8674072861339
 21
72.110915899740419
 31
0.0
  0
LINE
  5
10D8
  8
TITLE
 10
240.4835879971001
 20
66.901666356001243
 30
0.0
 11
245.7382537898774
 21
72.156332148778375
 31
0.0
  0
LINE
  5
10D9
  8
TITLE
 10
240.30901825180459
 20
66.901666356001243
 30
0.0
 11
245.6146247082942
 21
72.207272812489606
 31
0.0
  0
LINE
  5
10DA
  8
TITLE
 10
240.13444850651311
 20
66.901666356001243
 30
0.0
 11
245.4961707839729
 21
72.263388633462384
 31
0.0
  0
LINE
  5
10DB
  8
TITLE
 10
239.9598787612176
 20
66.901666356001243
 30
0.0
 11
245.3826156431652
 21
72.324403237949113
 31
0.0
  0
LINE
  5
10DC
  8
TITLE
 10
239.785309015922
 20
66.901666356001243
 30
0.0
 11
245.27374147824901
 21
72.390098818327559
 31
0.0
  0
LINE
  5
10DD
  8
TITLE
 10
239.61073927062719
 20
66.901666356001243
 30
0.0
 11
245.1693788846724
 21
72.460305970045496
 31
0.0
  0
LINE
  5
10DE
  8
TITLE
 10
239.26159978003949
 20
66.901666356001243
 30
0.0
 11
244.97371149631911
 21
72.613778072280226
 31
0.0
  0
LINE
  5
10DF
  8
TITLE
 10
239.08703003480659
 20
66.901666356001243
 30
0.0
 11
244.8822549120799
 21
72.696891233330319
 31
0.0
  0
LINE
  5
10E0
  8
TITLE
 10
239.43616952533409
 20
66.901666356001016
 30
0.0
 11
245.0693996195173
 21
72.534896450183922
 31
0.0
  0
LINE
  5
10E2
  8
TITLE
 10
239.39839116852559
 20
76.98893322612571
 30
0.0
 11
244.6176161834787
 21
82.208158241144375
 31
0.0
  0
LINE
  5
10E3
  8
TITLE
 10
239.07136352500549
 20
73.519650167387795
 30
0.0
 11
247.7598715987622
 21
82.208158241144375
 31
0.0
  0
LINE
  5
10E4
  8
TITLE
 10
239.0518095555247
 20
73.674665943200353
 30
0.0
 11
247.58530185346831
 21
82.208158241144375
 31
0.0
  0
LINE
  5
10E5
  8
TITLE
 10
239.0351812004495
 20
73.832607333419517
 30
0.0
 11
247.41073210817351
 21
82.208158241144375
 31
0.0
  0
LINE
  5
10E6
  8
TITLE
 10
239.0216298231154
 20
73.993625701379585
 30
0.0
 11
247.2361623628793
 21
82.208158241144375
 31
0.0
  0
LINE
  5
10E7
  8
TITLE
 10
239.01132473142721
 20
74.157890354985753
 30
0.0
 11
247.06159261758529
 21
82.208158241144375
 31
0.0
  0
LINE
  5
10E8
  8
TITLE
 10
239.00445621973219
 20
74.325591588566695
 30
0.0
 11
246.88702287229091
 21
82.208158241144375
 31
0.0
  0
LINE
  5
10E9
  8
TITLE
 10
239.0012393183151
 20
74.496944432445176
 30
0.0
 11
246.71245312699671
 21
82.208158241144375
 31
0.0
  0
LINE
  5
10EA
  8
TITLE
 10
239.0019184631245
 20
74.672193322547571
 30
0.0
 11
246.5378833817021
 21
82.208158241144375
 31
0.0
  0
LINE
  5
10EB
  8
TITLE
 10
239.00677337837371
 20
74.851617983072117
 30
0.0
 11
246.3633136364075
 21
82.208158241144375
 31
0.0
  0
LINE
  5
10EC
  8
TITLE
 10
239.0161265817321
 20
75.035540931722821
 30
0.0
 11
246.18874389111349
 21
82.208158241144375
 31
0.0
  0
LINE
  5
10ED
  8
TITLE
 10
239.0303530964824
 20
75.224337191791633
 30
0.0
 11
246.01417414583349
 21
82.208158241144375
 31
0.0
  0
LINE
  5
10EE
  8
TITLE
 10
239.04989322186159
 20
75.418447062465773
 30
0.0
 11
245.8396044005398
 21
82.208158241144375
 31
0.0
  0
LINE
  5
10EF
  8
TITLE
 10
239.07526963112019
 20
75.618393217018493
 30
0.0
 11
245.6650346552448
 21
82.208158241144375
 31
0.0
  0
LINE
  5
10F0
  8
TITLE
 10
239.10711074213609
 20
75.824804073326902
 30
0.0
 11
245.4904649099503
 21
82.208158241144375
 31
0.0
  0
LINE
  5
10F1
  8
TITLE
 10
239.14618343328459
 20
76.038446509770921
 30
0.0
 11
245.31589516465661
 21
82.208158241144375
 31
0.0
  0
LINE
  5
10F2
  8
TITLE
 10
239.19344013534521
 20
76.260272957125594
 30
0.0
 11
245.14132541936189
 21
82.208158241144375
 31
0.0
  0
LINE
  5
10F3
  8
TITLE
 10
239.2500888887181
 20
76.491491455765598
 30
0.0
 11
244.9667556740674
 21
82.208158241144375
 31
0.0
  0
LINE
  5
10F4
  8
TITLE
 10
239.3177017817471
 20
76.733674094086723
 30
0.0
 11
244.79218592877319
 21
82.208158241144375
 31
0.0
  0
LINE
  5
10F5
  8
TITLE
 10
239.49511412608149
 20
77.260225928966648
 30
0.0
 11
244.44304643818521
 21
82.208158241144375
 31
0.0
  0
LINE
  5
10F6
  8
TITLE
 10
247.56843233258181
 20
76.95419636147048
 30
0.0
 11
247.58856150314719
 21
76.974325532035465
 31
0.0
  0
LINE
  5
10F7
  8
TITLE
 10
247.69213937549611
 20
76.903333659091473
 30
0.0
 11
247.76313124844069
 21
76.974325532035465
 31
0.0
  0
LINE
  5
10F8
  8
TITLE
 10
239.75674943373659
 20
77.871000727268452
 30
0.0
 11
244.09390694761069
 21
82.208158241144375
 31
0.0
  0
LINE
  5
10F9
  8
TITLE
 10
239.6122421382606
 20
77.5519236864275
 30
0.0
 11
244.268476692891
 21
82.208158241144375
 31
0.0
  0
LINE
  5
10FA
  8
TITLE
 10
239.99710043592339
 20
70.779422427156931
 30
0.0
 11
244.10883804849939
 21
74.891160039730323
 31
0.0
  0
LINE
  5
10FB
  8
TITLE
 10
239.93471481370671
 20
70.891606550239445
 30
0.0
 11
244.14585049545761
 21
75.102742231983967
 31
0.0
  0
LINE
  5
10FC
  8
TITLE
 10
239.87392405202959
 20
71.00538553391911
 30
0.0
 11
244.210250367805
 21
75.341711849639282
 31
0.0
  0
LINE
  5
10FD
  8
TITLE
 10
239.81475282825329
 20
71.120784055419023
 30
0.0
 11
244.321516940245
 21
75.627548167367721
 31
0.0
  0
LINE
  5
10FE
  8
TITLE
 10
239.75722788829131
 20
71.23782886064356
 30
0.0
 11
244.56078576524089
 21
76.041386737629395
 31
0.0
  0
LINE
  5
10FF
  8
TITLE
 10
240.06105818194109
 20
70.66881042787638
 30
0.0
 11
244.09074304641459
 21
74.698495292349904
 31
0.0
  0
LINE
  5
1100
  8
TITLE
 10
240.9451351104571
 20
69.45805041289637
 30
0.0
 11
244.5586023580571
 21
73.071517660476502
 31
0.0
  0
LINE
  5
1101
  8
TITLE
 10
241.19850503222031
 20
69.187711098806574
 30
0.0
 11
244.79500068820909
 21
72.784206754749832
 31
0.0
  0
LINE
  5
1102
  8
TITLE
 10
241.11263849263361
 20
69.276414304529084
 30
0.0
 11
244.7119490380916
 21
72.875724849926826
 31
0.0
  0
LINE
  5
1103
  8
TITLE
 10
241.02818111462599
 20
69.36652667176044
 30
0.0
 11
244.633129574587
 21
72.971475131711699
 31
0.0
  0
LINE
  5
1104
  8
TITLE
 10
240.78329165111069
 20
69.645346444117109
 30
0.0
 11
244.42283152220261
 21
73.284886315208354
 31
0.0
  0
LINE
  5
1105
  8
TITLE
 10
240.70450424245891
 20
69.741128780760405
 30
0.0
 11
244.3618867589544
 21
73.39851129725578
 31
0.0
  0
LINE
  5
1106
  8
TITLE
 10
240.62714834074529
 20
69.838342624340783
 30
0.0
 11
244.3058443646496
 21
73.517038648245247
 31
0.0
  0
LINE
  5
1107
  8
TITLE
 10
240.55123190051421
 20
69.936995929405384
 30
0.0
 11
244.25498166227001
 21
73.640745691160319
 31
0.0
  0
LINE
  5
1108
  8
TITLE
 10
240.3322175142857
 20
70.241690779015826
 30
0.0
 11
244.13747473772199
 21
74.046948002488364
 31
0.0
  0
LINE
  5
1109
  8
TITLE
 10
240.47676410208899
 20
70.037097876272497
 30
0.0
 11
244.20964910692609
 21
73.769982881109556
 31
0.0
  0
LINE
  5
110A
  8
TITLE
 10
240.4037553894957
 20
70.138658908973781
 30
0.0
 11
244.17029084477761
 21
73.905194364255706
 31
0.0
  0
LINE
  5
110B
  8
TITLE
 10
240.26216358552969
 20
70.346206595637284
 30
0.0
 11
244.11193754010461
 21
74.195980550162247
 31
0.0
  0
LINE
  5
110C
  8
TITLE
 10
240.19360812697491
 20
70.452220882392481
 30
0.0
 11
244.09465554062729
 21
74.353268295980016
 31
0.0
  0
LINE
  5
110D
  8
TITLE
 10
240.12656714116639
 20
70.559749641819892
 30
0.0
 11
244.0869605812176
 21
74.520143081858464
 31
0.0
  0
LINE
  5
110E
  8
TITLE
 10
240.86350380548211
 20
69.55098885321496
 30
0.0
 11
244.4884600729992
 21
73.175945120712313
 31
0.0
  0
LINE
  5
110F
  8
TITLE
 10
243.48418745957829
 20
82.208158241144375
 30
0.0
 11
241.2426036210876
 21
79.966574402653279
 31
0.0
  0
LINE
  5
1110
  8
TITLE
 10
240.60472037062451
 20
79.24268090003028
 30
0.0
 11
243.57019771172759
 21
82.208158241144375
 31
0.0
  0
LINE
  5
1111
  8
TITLE
 10
240.19255662832131
 20
78.655947412445443
 30
0.0
 11
243.74476745702199
 21
82.208158241144375
 31
0.0
  0
LINE
  5
1112
  8
TITLE
 10
239.9411180763673
 20
78.229939115195648
 30
0.0
 11
243.91933720231631
 21
82.208158241144375
 31
0.0
  0
LINE
  5
1113
  8
TITLE
 10
249.08445227762749
 20
67.29775260777572
 30
0.0
 11
253.9114254159652
 21
72.124725746113143
 31
0.0
  0
LINE
  5
1114
  8
TITLE
 10
248.5873938841813
 20
67.149833704910463
 30
0.0
 11
254.05934431883031
 21
72.621784139559637
 31
0.0
  0
LINE
  5
1115
  8
TITLE
 10
248.8294028136381
 20
67.217272889072518
 30
0.0
 11
253.9919051346682
 21
72.379775210103006
 31
0.0
  0
LINE
  5
1116
  8
TITLE
 10
248.3563227929092
 20
67.093332358932599
 30
0.0
 11
254.11584566480849
 21
72.852855230832134
 31
0.0
  0
LINE
  5
1117
  8
TITLE
 10
248.13462381916011
 20
67.046203130477579
 30
0.0
 11
254.16297489326149
 21
73.0745542045712
 31
0.0
  0
LINE
  5
1118
  8
TITLE
 10
247.9210933158933
 20
67.007242372505203
 30
0.0
 11
254.2019356512335
 21
73.288084707838181
 31
0.0
  0
LINE
  5
1119
  8
TITLE
 10
249.64684197161111
 20
67.511002811170826
 30
0.0
 11
253.69817521257499
 21
71.562336052140779
 31
0.0
  0
LINE
  5
111A
  8
TITLE
 10
249.3554838271277
 20
67.394214411974332
 30
0.0
 11
253.81496361176571
 21
71.853694196611528
 31
0.0
  0
LINE
  5
111B
  8
TITLE
 10
249.9654486736865
 20
67.655039767944288
 30
0.0
 11
253.5541382557966
 21
71.243729350053243
 31
0.0
  0
LINE
  5
111C
  8
TITLE
 10
250.32366640914151
 20
67.838687758107895
 30
0.0
 11
253.37049026562849
 21
70.885511614591564
 31
0.0
  0
LINE
  5
111F
  8
TITLE
 10
263.24553015249347
 20
77.379683851803776
 30
0.0
 11
265.5563166693442
 21
79.690470368661707
 31
0.0
  0
LINE
  5
1120
  8
TITLE
 10
263.42009989778802
 20
77.379683851803776
 30
0.0
 11
265.73088641463909
 21
79.690470368661707
 31
0.0
  0
LINE
  5
1121
  8
TITLE
 10
263.59466964308189
 20
77.379683851803776
 30
0.0
 11
265.90545615993329
 21
79.690470368661707
 31
0.0
  0
LINE
  5
1122
  8
TITLE
 10
263.76923938837649
 20
77.379683851803776
 30
0.0
 11
266.08002590522722
 21
79.690470368661707
 31
0.0
  0
LINE
  5
1123
  8
TITLE
 10
263.94380913367132
 20
77.379683851803776
 30
0.0
 11
266.25459565052211
 21
79.690470368661707
 31
0.0
  0
LINE
  5
1124
  8
TITLE
 10
264.11837887896507
 20
77.379683851803776
 30
0.0
 11
266.42916539581529
 21
79.690470368661707
 31
0.0
  0
LINE
  5
1125
  8
TITLE
 10
262.02354193544818
 20
77.379683851803776
 30
0.0
 11
264.33432845229822
 21
79.690470368661707
 31
0.0
  0
LINE
  5
1126
  8
TITLE
 10
262.1981116807425
 20
77.379683851803776
 30
0.0
 11
264.50889819759232
 21
79.690470368661707
 31
0.0
  0
LINE
  5
1127
  8
TITLE
 10
262.37268142603608
 20
77.379683851803776
 30
0.0
 11
264.68346794288732
 21
79.690470368661707
 31
0.0
  0
LINE
  5
1128
  8
TITLE
 10
262.54725117133091
 20
77.379683851803776
 30
0.0
 11
264.8580376881813
 21
79.690470368661707
 31
0.0
  0
LINE
  5
1129
  8
TITLE
 10
262.72182091661062
 20
77.379683851803776
 30
0.0
 11
265.03260743347602
 21
79.690470368661707
 31
0.0
  0
LINE
  5
112A
  8
TITLE
 10
262.89639066190489
 20
77.379683851803776
 30
0.0
 11
265.20717717876971
 21
79.690470368661707
 31
0.0
  0
LINE
  5
112B
  8
TITLE
 10
263.07096040719932
 20
77.379683851803776
 30
0.0
 11
265.38174692406409
 21
79.690470368661707
 31
0.0
  0
LINE
  5
112C
  8
TITLE
 10
263.17566229351758
 20
68.581328728176373
 30
0.0
 11
265.53762169966961
 21
70.943288134329521
 31
0.0
  0
LINE
  5
112D
  8
TITLE
 10
263.35023203881133
 20
68.581328728176373
 30
0.0
 11
265.86651420364728
 21
71.097610893012416
 31
0.0
  0
LINE
  5
112E
  8
TITLE
 10
263.52480178410559
 20
68.581328728176373
 30
0.0
 11
266.38138321965749
 21
71.437910163727736
 31
0.0
  0
LINE
  5
112F
  8
TITLE
 10
262.12824382176552
 20
68.581328728176373
 30
0.0
 11
264.24309332741211
 21
70.696178233822621
 31
0.0
  0
LINE
  5
1130
  8
TITLE
 10
262.30281356706001
 20
68.581328728176373
 30
0.0
 11
264.42106453197567
 21
70.69957969309246
 31
0.0
  0
LINE
  5
1131
  8
TITLE
 10
262.47738331235411
 20
68.581328728176373
 30
0.0
 11
264.60937542228868
 21
70.713320838125725
 31
0.0
  0
LINE
  5
1132
  8
TITLE
 10
262.65195305763422
 20
68.581328728176373
 30
0.0
 11
264.81039319024927
 21
70.739768860791571
 31
0.0
  0
LINE
  5
1133
  8
TITLE
 10
262.82652280292848
 20
68.581328728176373
 30
0.0
 11
265.02753631709732
 21
70.782342242345692
 31
0.0
  0
LINE
  5
1134
  8
TITLE
 10
263.00109254822291
 20
68.581328728176373
 30
0.0
 11
265.26642494684631
 21
70.846661126799916
 31
0.0
  0
LINE
  5
1135
  8
TITLE
 10
263.69937152940003
 20
68.581328728176373
 30
0.0
 11
270.2775708675598
 21
75.159528066336179
 31
0.0
  0
LINE
  5
1136
  8
TITLE
 10
263.87394127469412
 20
68.581328728176373
 30
0.0
 11
270.2775708675598
 21
74.98495832104156
 31
0.0
  0
LINE
  5
1137
  8
TITLE
 10
264.04851101998833
 20
68.581328728176373
 30
0.0
 11
270.2775708675598
 21
74.810388575747893
 31
0.0
  0
LINE
  5
113A
  8
TITLE
 10
248.74887205369609
 20
76.039799139067796
 30
0.0
 11
249.68339844666431
 21
76.974325532035465
 31
0.0
  0
LINE
  5
113B
  8
TITLE
 10
248.8847747857919
 20
75.826562380576263
 30
0.0
 11
250.0325379372515
 21
76.974325532035465
 31
0.0
  0
LINE
  5
113C
  8
TITLE
 10
249.00190521125151
 20
75.594553315446348
 30
0.0
 11
250.38167742784131
 21
76.974325532035465
 31
0.0
  0
LINE
  5
113D
  8
TITLE
 10
249.05284587496291
 20
75.470924233863499
 30
0.0
 11
250.55624717313529
 21
76.974325532035465
 31
0.0
  0
LINE
  5
113E
  8
TITLE
 10
248.94578939027829
 20
75.7130072397687
 30
0.0
 11
250.20710768254571
 21
76.974325532035465
 31
0.0
  0
LINE
  5
113F
  8
TITLE
 10
248.81907920541411
 20
75.935436545491783
 30
0.0
 11
249.8579681919573
 21
76.974325532035465
 31
0.0
  0
LINE
  5
1140
  8
TITLE
 10
248.67428157355729
 20
76.139778404223705
 30
0.0
 11
249.50882870136931
 21
76.974325532035465
 31
0.0
  0
LINE
  5
1141
  8
TITLE
 10
248.42497126901489
 20
76.414177335509521
 30
0.0
 11
248.98511946554899
 21
76.974325532035465
 31
0.0
  0
LINE
  5
1142
  8
TITLE
 10
248.51228679039309
 20
76.326923111679577
 30
0.0
 11
249.15968921074381
 21
76.974325532035465
 31
0.0
  0
LINE
  5
1143
  8
TITLE
 10
248.5953999514611
 20
76.235466527420826
 30
0.0
 11
249.33425895607499
 21
76.974325532035465
 31
0.0
  0
LINE
  5
1144
  8
TITLE
 10
248.3334531738461
 20
76.497228985621263
 30
0.0
 11
248.81054972026831
 21
76.97432553203582
 31
0.0
  0
LINE
  5
1145
  8
TITLE
 10
248.1376603632759
 20
76.650575665675603
 30
0.0
 11
248.46141022963809
 21
76.97432553203582
 31
0.0
  0
LINE
  5
1146
  8
TITLE
 10
248.23770289203529
 20
76.57604844914988
 30
0.0
 11
248.63597997492209
 21
76.974325532035465
 31
0.0
  0
LINE
  5
1147
  8
TITLE
 10
247.92429170853191
 20
76.786346501539043
 30
0.0
 11
248.11227073902899
 21
76.974325532035465
 31
0.0
  0
LINE
  5
1148
  8
TITLE
 10
247.8106667264851
 20
76.847291264786094
 30
0.0
 11
247.9377009937343
 21
76.974325532035465
 31
0.0
  0
LINE
  5
1149
  8
TITLE
 10
248.0332329030409
 20
76.720717950734283
 30
0.0
 11
248.2868404843438
 21
76.97432553203582
 31
0.0
  0
LINE
  5
114A
  8
TITLE
 10
251.3307838724223
 20
68.496665730803869
 30
0.0
 11
252.71251229293719
 21
69.878394151318133
 31
0.0
  0
LINE
  5
114B
  8
TITLE
 10
250.74833737596691
 20
68.088788979642885
 30
0.0
 11
253.12038904409829
 21
70.460840647774546
 31
0.0
  0
LINE
  5
114C
  8
TITLE
 10
249.09826212400051
 20
75.341770737606339
 30
0.0
 11
250.73081691843021
 21
76.974325532034925
 31
0.0
  0
LINE
  5
114D
  8
TITLE
 10
249.13771136803391
 20
75.206650236332294
 30
0.0
 11
250.90538666374931
 21
76.974325532034925
 31
0.0
  0
LINE
  5
114E
  8
TITLE
 10
249.1706278305343
 20
75.064996953567103
 30
0.0
 11
251.07995640900359
 21
76.974325532035465
 31
0.0
  0
LINE
  5
114F
  8
TITLE
 10
249.19627765223959
 20
74.916077029977572
 30
0.0
 11
251.25452615429779
 21
76.974325532035465
 31
0.0
  0
LINE
  5
1150
  8
TITLE
 10
249.2136887315967
 20
74.758918364041619
 30
0.0
 11
251.429095899591
 21
76.974325532035465
 31
0.0
  0
LINE
  5
1151
  8
TITLE
 10
249.2179381490489
 20
74.414028290904085
 30
0.0
 11
251.7782353901805
 21
76.974325532035465
 31
0.0
  0
LINE
  5
1152
  8
TITLE
 10
249.200079424774
 20
74.22159982133492
 30
0.0
 11
251.95280513547439
 21
76.974325532035465
 31
0.0
  0
LINE
  5
1153
  8
TITLE
 10
249.1633904313918
 20
74.010341082658059
 30
0.0
 11
252.12737488077011
 21
76.974325532035465
 31
0.0
  0
LINE
  5
1154
  8
TITLE
 10
249.2215355912104
 20
74.59219547836031
 30
0.0
 11
251.6036656448855
 21
76.974325532035465
 31
0.0
  0
LINE
  5
1155
  8
TITLE
 10
249.09948669825951
 20
73.771867604231844
 30
0.0
 11
252.3019446260646
 21
76.974325532034925
 31
0.0
  0
LINE
  5
1156
  8
TITLE
 10
248.98917383300949
 20
73.48698499368767
 30
0.0
 11
252.47651437135721
 21
76.974325532034925
 31
0.0
  0
LINE
  5
1157
  8
TITLE
 10
248.7538949581558
 20
73.077136373553401
 30
0.0
 11
252.651084116612
 21
76.974325532035465
 31
0.0
  0
LINE
  5
1158
  8
TITLE
 10
261.84897219015397
 20
77.379683851803776
 30
0.0
 11
264.15975870700407
 21
79.690470368661707
 31
0.0
  0
LINE
  5
1159
  8
TITLE
 10
261.42996484058813
 20
68.581328728176373
 30
0.0
 11
263.54481434623409
 21
70.696178233822621
 31
0.0
  0
LINE
  5
115A
  8
TITLE
 10
261.60453458588262
 20
68.581328728176373
 30
0.0
 11
263.71938409152892
 21
70.696178233822621
 31
0.0
  0
LINE
  5
115B
  8
TITLE
 10
261.77910433117711
 20
68.581328728176373
 30
0.0
 11
263.89395383682353
 21
70.696178233822621
 31
0.0
  0
LINE
  5
115C
  8
TITLE
 10
260.32341356418692
 20
69.74418414058664
 30
0.0
 11
261.27540765742327
 21
70.696178233822621
 31
0.0
  0
LINE
  5
115D
  8
TITLE
 10
260.32341356418692
 20
69.569614395292334
 30
0.0
 11
261.44997740271759
 21
70.696178233822621
 31
0.0
  0
LINE
  5
115E
  8
TITLE
 10
260.32341356418692
 20
69.395044649998653
 30
0.0
 11
261.62454714801169
 21
70.696178233822621
 31
0.0
  0
LINE
  5
115F
  8
TITLE
 10
260.32341356418692
 20
69.220474904703821
 30
0.0
 11
261.79911689330589
 21
70.696178233822621
 31
0.0
  0
LINE
  5
1160
  8
TITLE
 10
260.32341356418692
 20
69.045905159409472
 30
0.0
 11
261.97368663859987
 21
70.696178233822621
 31
0.0
  0
LINE
  5
1161
  8
TITLE
 10
260.32341356418692
 20
68.871335414114952
 30
0.0
 11
262.14825638389419
 21
70.696178233822621
 31
0.0
  0
LINE
  5
1162
  8
TITLE
 10
260.32341356418692
 20
68.6967656688212
 30
0.0
 11
262.32282612918868
 21
70.696178233822621
 31
0.0
  0
LINE
  5
1163
  8
TITLE
 10
260.38254636883721
 20
68.581328728176373
 30
0.0
 11
262.49739587448329
 21
70.696178233822621
 31
0.0
  0
LINE
  5
1164
  8
TITLE
 10
260.55711611413091
 20
68.581328728176373
 30
0.0
 11
262.67196561977761
 21
70.696178233822621
 31
0.0
  0
LINE
  5
1165
  8
TITLE
 10
260.7316858594109
 20
68.581328728176373
 30
0.0
 11
262.8465353650717
 21
70.696178233822621
 31
0.0
  0
LINE
  5
1166
  8
TITLE
 10
260.90625560470551
 20
68.581328728176373
 30
0.0
 11
263.02110511035198
 21
70.696178233822621
 31
0.0
  0
LINE
  5
1167
  8
TITLE
 10
261.08082534999971
 20
68.581328728176373
 30
0.0
 11
263.19567485564608
 21
70.696178233822621
 31
0.0
  0
LINE
  5
1168
  8
TITLE
 10
261.25539509529409
 20
68.581328728176373
 30
0.0
 11
263.37024460094
 21
70.696178233822621
 31
0.0
  0
LINE
  5
1169
  8
TITLE
 10
261.95367407647097
 20
68.581328728176373
 30
0.0
 11
264.06852358211808
 21
70.696178233822621
 31
0.0
  0
LINE
  5
116A
  8
TITLE
 10
260.32341356418692
 20
70.26789337646224
 30
0.0
 11
260.75169842155458
 21
70.696178233822621
 31
0.0
  0
LINE
  5
116B
  8
TITLE
 10
260.32341356418692
 20
70.093323631168204
 30
0.0
 11
260.92626816684913
 21
70.696178233822621
 31
0.0
  0
LINE
  5
116C
  8
TITLE
 10
260.32341356418692
 20
69.918753885873627
 30
0.0
 11
261.1008379121285
 21
70.696178233822621
 31
0.0
  0
LINE
  5
116D
  8
TITLE
 10
260.32341356418692
 20
70.617032867044344
 30
0.0
 11
260.4025589309656
 21
70.696178233822621
 31
0.0
  0
LINE
  5
116E
  8
TITLE
 10
260.32341356418692
 20
70.442463121750137
 30
0.0
 11
260.57712867626032
 21
70.696178233822621
 31
0.0
  0
LINE
  5
116F
  8
TITLE
 10
261.51045561293893
 20
74.073481604607721
 30
0.0
 11
261.7454360360997
 21
74.308462027768329
 31
0.0
  0
LINE
  5
1170
  8
TITLE
 10
261.68502535823382
 20
74.073481604607721
 30
0.0
 11
261.7454360360997
 21
74.133892282474022
 31
0.0
  0
LINE
  5
1171
  8
TITLE
 10
260.98674637705551
 20
74.073481604607721
 30
0.0
 11
261.7454360360997
 21
74.832171263644469
 31
0.0
  0
LINE
  5
1172
  8
TITLE
 10
261.1613161223504
 20
74.073481604607721
 30
0.0
 11
261.7454360360997
 21
74.657601518350234
 31
0.0
  0
LINE
  5
1173
  8
TITLE
 10
261.33588586764489
 20
74.073481604607721
 30
0.0
 11
261.7454360360997
 21
74.48303177306228
 31
0.0
  0
LINE
  5
1174
  8
TITLE
 10
260.46303714118812
 20
74.073481604607721
 30
0.0
 11
261.7454360360997
 21
75.355880499519785
 31
0.0
  0
LINE
  5
1175
  8
TITLE
 10
260.63760688648131
 20
74.073481604607721
 30
0.0
 11
261.7454360360997
 21
75.181310754225464
 31
0.0
  0
LINE
  5
1176
  8
TITLE
 10
260.81217663177608
 20
74.073481604607721
 30
0.0
 11
261.7454360360997
 21
75.006741008938505
 31
0.0
  0
LINE
  5
1177
  8
TITLE
 10
259.76475816001062
 20
74.073481604607721
 30
0.0
 11
261.7454360360997
 21
76.054159480697152
 31
0.0
  0
LINE
  5
1178
  8
TITLE
 10
259.93932790530442
 20
74.073481604607721
 30
0.0
 11
261.7454360360997
 21
75.879589735402931
 31
0.0
  0
LINE
  5
1179
  8
TITLE
 10
260.11389765059909
 20
74.073481604607721
 30
0.0
 11
261.7454360360997
 21
75.70501999010834
 31
0.0
  0
LINE
  5
117A
  8
TITLE
 10
260.28846739589369
 20
74.073481604607721
 30
0.0
 11
261.7454360360997
 21
75.530450244814361
 31
0.0
  0
LINE
  5
117B
  8
TITLE
 10
259.18579558665721
 20
79.255320625923702
 30
0.0
 11
259.62094532939511
 21
79.690470368661707
 31
0.0
  0
LINE
  5
117C
  8
TITLE
 10
259.18579558665721
 20
79.604460116512215
 30
0.0
 11
259.27180583880642
 21
79.690470368661707
 31
0.0
  0
LINE
  5
117D
  8
TITLE
 10
259.18579558665721
 20
79.429890371218264
 30
0.0
 11
259.44637558410079
 21
79.690470368661707
 31
0.0
  0
LINE
  5
117E
  8
TITLE
 10
259.18579558665721
 20
78.033332408877726
 30
0.0
 11
260.84293354644092
 21
79.690470368661707
 31
0.0
  0
LINE
  5
117F
  8
TITLE
 10
259.18579558665721
 20
77.858762663583406
 30
0.0
 11
261.01750329173558
 21
79.690470368661707
 31
0.0
  0
LINE
  5
1180
  8
TITLE
 10
259.18579558665721
 20
77.684192918288801
 30
0.0
 11
261.19207303702927
 21
79.690470368661707
 31
0.0
  0
LINE
  5
1181
  8
TITLE
 10
259.18579558665721
 20
77.509623172995404
 30
0.0
 11
261.36664278232348
 21
79.690470368661707
 31
0.0
  0
LINE
  5
1182
  8
TITLE
 10
259.18579558665721
 20
76.113065210654852
 30
0.0
 11
262.76320074466389
 21
79.690470368661707
 31
0.0
  0
LINE
  5
1183
  8
TITLE
 10
259.18579558665721
 20
75.938495465360475
 30
0.0
 11
262.93777048995821
 21
79.690470368661707
 31
0.0
  0
LINE
  5
1184
  8
TITLE
 10
259.18579558665721
 20
75.763925720066283
 30
0.0
 11
263.1123402352523
 21
79.690470368661707
 31
0.0
  0
LINE
  5
1185
  8
TITLE
 10
259.18579558665721
 20
75.589355974771706
 30
0.0
 11
263.28690998054702
 21
79.690470368661707
 31
0.0
  0
LINE
  5
1186
  8
TITLE
 10
259.18579558665721
 20
75.414786229477642
 30
0.0
 11
263.46147972584151
 21
79.690470368661707
 31
0.0
  0
LINE
  5
1187
  8
TITLE
 10
259.18579558665721
 20
75.240216484183136
 30
0.0
 11
263.63604947113561
 21
79.690470368661707
 31
0.0
  0
LINE
  5
1188
  8
TITLE
 10
259.18579558665721
 20
75.065646738888532
 30
0.0
 11
263.81061921641572
 21
79.690470368661707
 31
0.0
  0
LINE
  5
1189
  8
TITLE
 10
259.18579558665721
 20
74.891076993601772
 30
0.0
 11
263.98518896171009
 21
79.690470368661707
 31
0.0
  0
LINE
  5
118A
  8
TITLE
 10
259.18579558665721
 20
76.985913937111718
 30
0.0
 11
261.89035201819252
 21
79.690470368661707
 31
0.0
  0
LINE
  5
118B
  8
TITLE
 10
259.18579558665721
 20
76.811344191817639
 30
0.0
 11
262.0649217634865
 21
79.690470368661707
 31
0.0
  0
LINE
  5
118C
  8
TITLE
 10
259.18579558665721
 20
76.636774446530438
 30
0.0
 11
262.23949150878087
 21
79.690470368661707
 31
0.0
  0
LINE
  5
118D
  8
TITLE
 10
259.18579558665721
 20
76.462204701236118
 30
0.0
 11
262.41406125407502
 21
79.690470368661707
 31
0.0
  0
LINE
  5
118E
  8
TITLE
 10
259.18579558665721
 20
76.287634955941527
 30
0.0
 11
262.58863099936912
 21
79.690470368661707
 31
0.0
  0
LINE
  5
118F
  8
TITLE
 10
259.18579558665721
 20
77.335053427700501
 30
0.0
 11
261.54121252761831
 21
79.690470368661707
 31
0.0
  0
LINE
  5
1190
  8
TITLE
 10
259.18579558665721
 20
77.160483682405953
 30
0.0
 11
261.71578227291252
 21
79.690470368661707
 31
0.0
  0
LINE
  5
1191
  8
TITLE
 10
259.18579558665721
 20
74.716507248307536
 30
0.0
 11
261.7454360360997
 21
77.276147697742303
 31
0.0
  0
LINE
  5
1192
  8
TITLE
 10
259.18579558665721
 20
74.541937503013528
 30
0.0
 11
261.7454360360997
 21
77.101577952448594
 31
0.0
  0
LINE
  5
1193
  8
TITLE
 10
259.24104892412731
 20
74.073481604607721
 30
0.0
 11
261.7454360360997
 21
76.577868716572468
 31
0.0
  0
LINE
  5
1194
  8
TITLE
 10
259.41561866942129
 20
74.073481604607721
 30
0.0
 11
261.7454360360997
 21
76.403298971285423
 31
0.0
  0
LINE
  5
1195
  8
TITLE
 10
259.5901884147155
 20
74.073481604607721
 30
0.0
 11
261.7454360360997
 21
76.228729225991756
 31
0.0
  0
LINE
  5
1196
  8
TITLE
 10
259.18579558665721
 20
74.367367757726555
 30
0.0
 11
261.7454360360997
 21
76.927008207161649
 31
0.0
  0
LINE
  5
1197
  8
TITLE
 10
259.18579558665721
 20
74.192798012432235
 30
0.0
 11
261.7454360360997
 21
76.752438461867925
 31
0.0
  0
LINE
  5
1198
  8
TITLE
 10
259.18579558665721
 20
78.207902154164941
 30
0.0
 11
260.66836380114643
 21
79.690470368661707
 31
0.0
  0
LINE
  5
1199
  8
TITLE
 10
259.18579558665721
 20
78.382471899459546
 30
0.0
 11
260.49379405585199
 21
79.690470368661707
 31
0.0
  0
LINE
  5
119A
  8
TITLE
 10
259.18579558665721
 20
78.731611390040811
 30
0.0
 11
260.14465456526398
 21
79.690470368661707
 31
0.0
  0
LINE
  5
119B
  8
TITLE
 10
259.18579558665721
 20
78.5570416447474
 30
0.0
 11
260.31922431055767
 21
79.690470368661707
 31
0.0
  0
LINE
  5
119C
  8
TITLE
 10
259.18579558665721
 20
79.080750880629424
 30
0.0
 11
259.79551507468932
 21
79.690470368661707
 31
0.0
  0
LINE
  5
119D
  8
TITLE
 10
259.18579558665721
 20
78.906181135335132
 30
0.0
 11
259.97008481996932
 21
79.690470368661707
 31
0.0
  0
LINE
  5
119E
  8
TITLE
 10
279.74999999999989
 20
105.0
 30
0.0
 11
279.74999999999989
 21
85.0
 31
0.0
  0
LINE
  5
119F
  8
TITLE
 10
271.95819096527612
 20
73.34875325819543
 30
0.0
 11
274.8017003075837
 21
76.192262600502914
 31
0.0
  0
LINE
  5
11A0
  8
TITLE
 10
272.14577128128229
 20
73.361763828921283
 30
0.0
 11
275.06321511927712
 21
76.279207666908704
 31
0.0
  0
LINE
  5
11A1
  8
TITLE
 10
272.33670148424062
 20
73.378124286585475
 30
0.0
 11
275.335777743601
 21
76.377200545931501
 31
0.0
  0
LINE
  5
11A2
  8
TITLE
 10
271.20188547430348
 20
73.989005729561683
 30
0.0
 11
272.98030511064718
 21
75.767425365920417
 31
0.0
  0
LINE
  5
11A3
  8
TITLE
 10
271.20188547430348
 20
73.814435984267703
 30
0.0
 11
273.18798635320468
 21
75.800536863176745
 31
0.0
  0
LINE
  5
11A4
  8
TITLE
 10
271.20188547430348
 20
73.639866238973639
 30
0.0
 11
273.40040164964762
 21
75.838382414332983
 31
0.0
  0
LINE
  5
11A5
  8
TITLE
 10
271.20188547430348
 20
73.465296493685798
 30
0.0
 11
273.61794253845221
 21
75.881353557842445
 31
0.0
  0
LINE
  5
11A6
  8
TITLE
 10
271.23800825273253
 20
73.326849526828241
 30
0.0
 11
273.84106391651142
 21
75.929905190600877
 31
0.0
  0
LINE
  5
11A7
  8
TITLE
 10
271.4138289894193
 20
73.328100518220566
 30
0.0
 11
274.07029947240773
 21
75.984571001209616
 31
0.0
  0
LINE
  5
11A8
  8
TITLE
 10
271.59237490345703
 20
73.332076686970879
 30
0.0
 11
274.30628234015012
 21
76.045984123658087
 31
0.0
  0
LINE
  5
11A9
  8
TITLE
 10
271.77377978741572
 20
73.338911825636245
 30
0.0
 11
274.54977331270032
 21
76.114905350913816
 31
0.0
  0
LINE
  5
11AA
  8
TITLE
 10
271.20188547430348
 20
74.338145220150196
 30
0.0
 11
272.57782763935921
 21
75.714087385207606
 31
0.0
  0
LINE
  5
11AB
  8
TITLE
 10
271.20188547430348
 20
74.163575474855719
 30
0.0
 11
272.77701800003132
 21
75.738708000584523
 31
0.0
  0
LINE
  5
11AC
  8
TITLE
 10
271.20188547430348
 20
75.560133437196285
 30
0.0
 11
271.27944484892362
 21
75.637692811831954
 31
0.0
  0
LINE
  5
11AD
  8
TITLE
 10
264.29294862425968
 20
77.379683851803776
 30
0.0
 11
266.60373514111018
 21
79.690470368661707
 31
0.0
  0
LINE
  5
11AE
  8
TITLE
 10
264.46751836955411
 20
77.379683851803776
 30
0.0
 11
266.77830488640501
 21
79.690470368661707
 31
0.0
  0
LINE
  5
11AF
  8
TITLE
 10
264.64208811483411
 20
77.379683851803776
 30
0.0
 11
266.95287463169842
 21
79.690470368661707
 31
0.0
  0
LINE
  5
11B0
  8
TITLE
 10
264.81665786012798
 20
77.379683851803776
 30
0.0
 11
267.12744437699268
 21
79.690470368661707
 31
0.0
  0
LINE
  5
11B1
  8
TITLE
 10
264.99122760542252
 20
77.379683851803776
 30
0.0
 11
267.30201412227308
 21
79.690470368661707
 31
0.0
  0
LINE
  5
11B2
  8
TITLE
 10
265.1657973507165
 20
77.379683851803776
 30
0.0
 11
267.4765838675678
 21
79.690470368661707
 31
0.0
  0
LINE
  5
11B3
  8
TITLE
 10
265.34036709601122
 20
77.379683851803776
 30
0.0
 11
267.65115361286149
 21
79.690470368661707
 31
0.0
  0
LINE
  5
11B4
  8
TITLE
 10
265.51493684130509
 20
77.379683851803776
 30
0.0
 11
267.82572335815553
 21
79.690470368661707
 31
0.0
  0
LINE
  5
11B5
  8
TITLE
 10
267.64682929452181
 20
76.020181399162993
 30
0.0
 11
270.2775708675598
 21
78.650922972193555
 31
0.0
  0
LINE
  5
11B6
  8
TITLE
 10
267.64682929452181
 20
75.845611653868417
 30
0.0
 11
270.2775708675598
 21
78.476353226899874
 31
0.0
  0
LINE
  5
11B7
  8
TITLE
 10
267.64682929452181
 20
75.671041908581202
 30
0.0
 11
270.2775708675598
 21
78.301783481605284
 31
0.0
  0
LINE
  5
11B8
  8
TITLE
 10
267.64682929452181
 20
75.496472163286853
 30
0.0
 11
270.2775708675598
 21
78.127213736318353
 31
0.0
  0
LINE
  5
11B9
  8
TITLE
 10
267.64682929452181
 20
76.893030125627462
 30
0.0
 11
270.2775708675598
 21
79.523771698665001
 31
0.0
  0
LINE
  5
11BA
  8
TITLE
 10
267.64682929452181
 20
76.718460380332928
 30
0.0
 11
270.2775708675598
 21
79.349201953370411
 31
0.0
  0
LINE
  5
11BB
  8
TITLE
 10
267.64682929452181
 20
76.543890635038878
 30
0.0
 11
270.2775708675598
 21
79.174632208076432
 31
0.0
  0
LINE
  5
11BC
  8
TITLE
 10
267.64682929452181
 20
76.369320889744301
 30
0.0
 11
270.2775708675598
 21
79.000062462782736
 31
0.0
  0
LINE
  5
11BD
  8
TITLE
 10
267.64682929452181
 20
76.194751144449825
 30
0.0
 11
270.2775708675598
 21
78.825492717488146
 31
0.0
  0
LINE
  5
11BE
  8
TITLE
 10
265.68950658659952
 20
77.379683851803776
 30
0.0
 11
268.00029310345019
 21
79.690470368661707
 31
0.0
  0
LINE
  5
11BF
  8
TITLE
 10
265.86407633189373
 20
77.379683851803776
 30
0.0
 11
268.17486284874451
 21
79.690470368661707
 31
0.0
  0
LINE
  5
11C0
  8
TITLE
 10
266.03864607718828
 20
77.379683851803776
 30
0.0
 11
268.34943259403889
 21
79.690470368661707
 31
0.0
  0
LINE
  5
11C1
  8
TITLE
 10
266.21321582248248
 20
77.379683851803776
 30
0.0
 11
268.52400233933361
 21
79.690470368661707
 31
0.0
  0
LINE
  5
11C2
  8
TITLE
 10
266.38778556776248
 20
77.379683851803776
 30
0.0
 11
268.69857208462781
 21
79.690470368661707
 31
0.0
  0
LINE
  5
11C3
  8
TITLE
 10
266.56235531305731
 20
77.379683851803776
 30
0.0
 11
268.87314182992208
 21
79.690470368661707
 31
0.0
  0
LINE
  5
11C4
  8
TITLE
 10
266.73692505835129
 20
77.379683851803776
 30
0.0
 11
269.04771157521611
 21
79.690470368661707
 31
0.0
  0
LINE
  5
11C5
  8
TITLE
 10
266.9114948036451
 20
77.379683851803776
 30
0.0
 11
269.22228132049582
 21
79.690470368661707
 31
0.0
  0
LINE
  5
11C6
  8
TITLE
 10
267.64682929452181
 20
77.067599870921782
 30
0.0
 11
270.26969979226169
 21
79.690470368661707
 31
0.0
  0
LINE
  5
11C7
  8
TITLE
 10
267.08606454894021
 20
77.379683851803776
 30
0.0
 11
269.39685106578992
 21
79.690470368661707
 31
0.0
  0
LINE
  5
11C8
  8
TITLE
 10
267.26063429423402
 20
77.379683851803776
 30
0.0
 11
269.57142081108452
 21
79.690470368661707
 31
0.0
  0
LINE
  5
11C9
  8
TITLE
 10
267.43520403952829
 20
77.379683851803776
 30
0.0
 11
269.74599055637941
 21
79.690470368661707
 31
0.0
  0
LINE
  5
11CA
  8
TITLE
 10
267.60977378482232
 20
77.379683851803776
 30
0.0
 11
269.92056030167288
 21
79.690470368661707
 31
0.0
  0
LINE
  5
11CB
  8
TITLE
 10
267.64682929452181
 20
77.242169616216643
 30
0.0
 11
270.09513004696771
 21
79.690470368661707
 31
0.0
  0
LINE
  5
11CC
  8
TITLE
 10
267.92981700445091
 20
69.494949042663833
 30
0.0
 11
269.36395055307202
 21
70.929082591285749
 31
0.0
  0
LINE
  5
11CD
  8
TITLE
 10
264.22308076528287
 20
68.581328728176373
 30
0.0
 11
270.2775708675598
 21
74.635818830453019
 31
0.0
  0
LINE
  5
11CE
  8
TITLE
 10
264.39765051056293
 20
68.581328728176373
 30
0.0
 11
270.2775708675598
 21
74.46124908516596
 31
0.0
  0
LINE
  5
11CF
  8
TITLE
 10
264.5722202558577
 20
68.581328728176373
 30
0.0
 11
270.2775708675598
 21
74.286679339871654
 31
0.0
  0
LINE
  5
11D0
  8
TITLE
 10
264.74679000115162
 20
68.581328728176373
 30
0.0
 11
270.2775708675598
 21
74.112109594584979
 31
0.0
  0
LINE
  5
11D1
  8
TITLE
 10
264.9213597464456
 20
68.581328728176373
 30
0.0
 11
270.2775708675598
 21
73.937539849290374
 31
0.0
  0
LINE
  5
11D2
  8
TITLE
 10
265.09812893306201
 20
68.583528169498663
 30
0.0
 11
270.27537142623748
 21
73.760770662673863
 31
0.0
  0
LINE
  5
11D3
  8
TITLE
 10
265.28110257442972
 20
68.591932065578334
 30
0.0
 11
270.26696753015028
 21
73.577797021299602
 31
0.0
  0
LINE
  5
11D4
  8
TITLE
 10
265.47108407422428
 20
68.607343820072543
 30
0.0
 11
270.25155577566409
 21
73.387815521511442
 31
0.0
  0
LINE
  5
11D5
  8
TITLE
 10
265.66902036023947
 20
68.630710360799924
 30
0.0
 11
270.22818923492918
 21
73.18987923549642
 31
0.0
  0
LINE
  5
11D6
  8
TITLE
 10
265.87613373636168
 20
68.663253991620564
 30
0.0
 11
270.1956456041151
 21
72.9827658593737
 31
0.0
  0
LINE
  5
11D7
  8
TITLE
 10
266.09404939078121
 20
68.706599900760381
 30
0.0
 11
270.15229969497619
 21
72.764850204948246
 31
0.0
  0
LINE
  5
11D8
  8
TITLE
 10
266.32501125293749
 20
68.762992017614962
 30
0.0
 11
270.09590757811441
 21
72.53388834279906
 31
0.0
  0
LINE
  5
11D9
  8
TITLE
 10
266.57227526012048
 20
68.835686279496372
 30
0.0
 11
270.02321331623949
 21
72.286624335616139
 31
0.0
  0
LINE
  5
11DA
  8
TITLE
 10
266.84090006589952
 20
68.929741339996468
 30
0.0
 11
269.92915825574011
 21
72.017999529836601
 31
0.0
  0
LINE
  5
11DB
  8
TITLE
 10
266.90509736461649
 20
71.961624308694496
 30
0.0
 11
270.2775708675598
 21
75.3340978116304
 31
0.0
  0
LINE
  5
11DC
  8
TITLE
 10
267.48591116854959
 20
69.225612952056423
 30
0.0
 11
269.63328664367862
 21
71.372988427186584
 31
0.0
  0
LINE
  5
11DD
  8
TITLE
 10
267.13957675298889
 20
69.053848281791502
 30
0.0
 11
269.80505131394528
 21
71.719322842746379
 31
0.0
  0
LINE
  5
11DE
  8
TITLE
 10
267.64682929452181
 20
74.798193182109785
 30
0.0
 11
270.2775708675598
 21
77.42893475514758
 31
0.0
  0
LINE
  5
11DF
  8
TITLE
 10
267.64682929452181
 20
74.623623436816388
 30
0.0
 11
270.2775708675598
 21
77.254365009853274
 31
0.0
  0
LINE
  5
11E0
  8
TITLE
 10
267.64682929452181
 20
74.449053691521783
 30
0.0
 11
270.2775708675598
 21
77.079795264559564
 31
0.0
  0
LINE
  5
11E1
  8
TITLE
 10
267.64342783525228
 20
73.921942996376345
 30
0.0
 11
270.2775708675598
 21
76.556086028676447
 31
0.0
  0
LINE
  5
11E2
  8
TITLE
 10
267.62968669021922
 20
73.733632106055239
 30
0.0
 11
270.2775708675598
 21
76.381516283388606
 31
0.0
  0
LINE
  5
11E3
  8
TITLE
 10
267.60323866756733
 20
73.532614338095058
 30
0.0
 11
270.2775708675598
 21
76.20694653809521
 31
0.0
  0
LINE
  5
11E4
  8
TITLE
 10
267.64682929452181
 20
74.274483946234199
 30
0.0
 11
270.2775708675598
 21
76.905225519265002
 31
0.0
  0
LINE
  5
11E5
  8
TITLE
 10
267.64682929452181
 20
74.099914200939608
 30
0.0
 11
270.2775708675598
 21
76.730655773970383
 31
0.0
  0
LINE
  5
11E6
  8
TITLE
 10
267.56066528599951
 20
73.315471211247896
 30
0.0
 11
270.2775708675598
 21
76.032376792800605
 31
0.0
  0
LINE
  5
11E7
  8
TITLE
 10
267.4963464015583
 20
73.076582581504823
 30
0.0
 11
270.2775708675598
 21
75.857807047513816
 31
0.0
  0
LINE
  5
11E8
  8
TITLE
 10
267.39971939401551
 20
72.805385828674545
 30
0.0
 11
270.2775708675598
 21
75.683237302218942
 31
0.0
  0
LINE
  5
11E9
  8
TITLE
 10
267.24539663533159
 20
72.476493324704137
 30
0.0
 11
270.2775708675598
 21
75.508667556924067
 31
0.0
  0
LINE
  5
11EA
  8
TITLE
 10
271.20188547430348
 20
75.036424201320145
 30
0.0
 11
271.81721477106908
 21
75.651753498093541
 31
0.0
  0
LINE
  5
11EB
  8
TITLE
 10
271.20188547430348
 20
74.861854456033072
 30
0.0
 11
272.00236180762028
 21
75.66233078935079
 31
0.0
  0
LINE
  5
11EC
  8
TITLE
 10
271.20188547430348
 20
74.687284710738822
 30
0.0
 11
272.1907191094075
 21
75.676118345844543
 31
0.0
  0
LINE
  5
11ED
  8
TITLE
 10
271.20188547430348
 20
74.512714965444275
 30
0.0
 11
272.3824720705922
 21
75.693301561733293
 31
0.0
  0
LINE
  5
11EE
  8
TITLE
 10
271.20188547430348
 20
75.38556369190259
 30
0.0
 11
271.45590011567663
 21
75.639578333289606
 31
0.0
  0
LINE
  5
11EF
  8
TITLE
 10
271.20188547430348
 20
75.210993946614323
 30
0.0
 11
271.63511114366781
 21
75.644219615986842
 31
0.0
  0
LINE
  5
11F0
  8
TITLE
 10
267.64682929452181
 20
74.972762927404034
 30
0.0
 11
270.2775708675598
 21
77.603504500441559
 31
0.0
  0
LINE
  5
11F1
  8
TITLE
 10
267.64682929452181
 20
75.321902417992916
 30
0.0
 11
270.2775708675598
 21
77.952643991023734
 31
0.0
  0
LINE
  5
11F2
  8
TITLE
 10
267.64682929452181
 20
75.147332672698596
 30
0.0
 11
270.2775708675598
 21
77.778074245736136
 31
0.0
  0
LINE
  5
11F3
  8
TITLE
 10
276.35671693497858
 20
71.811907887933884
 30
0.0
 11
278.98745850800168
 21
74.442649460971396
 31
0.0
  0
LINE
  5
11F4
  8
TITLE
 10
276.35671693497858
 20
71.637338142639251
 30
0.0
 11
278.98745850800168
 21
74.268079715676805
 31
0.0
  0
LINE
  5
11F5
  8
TITLE
 10
276.35671693497858
 20
71.462768397345585
 30
0.0
 11
278.98745850800168
 21
74.09350997038274
 31
0.0
  0
LINE
  5
11F6
  8
TITLE
 10
276.35671693497858
 20
71.288198652051278
 30
0.0
 11
278.98745850800168
 21
73.918940225088519
 31
0.0
  0
LINE
  5
11F7
  8
TITLE
 10
276.35671693497858
 20
71.113628906763395
 30
0.0
 11
278.98745850800168
 21
73.744370479794497
 31
0.0
  0
LINE
  5
11F8
  8
TITLE
 10
276.35671693497858
 20
70.939059161469459
 30
0.0
 11
278.98745850800168
 21
73.569800734500234
 31
0.0
  0
LINE
  5
11F9
  8
TITLE
 10
276.35671693497858
 20
70.764489416181874
 30
0.0
 11
278.98745850800168
 21
73.395230989205643
 31
0.0
  0
LINE
  5
11FA
  8
TITLE
 10
276.35671693497858
 20
69.542501199122157
 30
0.0
 11
278.98745850800168
 21
72.173242772159625
 31
0.0
  0
LINE
  5
11FB
  8
TITLE
 10
276.35671693497858
 20
69.367931453834586
 30
0.0
 11
278.98745850800168
 21
71.99867302686539
 31
0.0
  0
LINE
  5
11FC
  8
TITLE
 10
276.35671693497858
 20
70.589919670887255
 30
0.0
 11
278.98745850800168
 21
73.220661243918059
 31
0.0
  0
LINE
  5
11FD
  8
TITLE
 10
276.35671693497858
 20
70.415349925593574
 30
0.0
 11
278.98745850800168
 21
73.046091498624108
 31
0.0
  0
LINE
  5
11FE
  8
TITLE
 10
276.35671693497858
 20
70.240780180298998
 30
0.0
 11
278.98745850800168
 21
72.871521753329802
 31
0.0
  0
LINE
  5
11FF
  8
TITLE
 10
276.35671693497858
 20
70.066210435004393
 30
0.0
 11
278.98745850800168
 21
72.696952008042459
 31
0.0
  0
LINE
  5
1200
  8
TITLE
 10
276.35671693497858
 20
69.891640689710442
 30
0.0
 11
278.98745850800168
 21
72.522382262748252
 31
0.0
  0
LINE
  5
1201
  8
TITLE
 10
276.35671693497858
 20
69.717070944416122
 30
0.0
 11
278.98745850800168
 21
72.347812517453661
 31
0.0
  0
LINE
  5
1202
  8
TITLE
 10
276.35671693497858
 20
69.193361708539982
 30
0.0
 11
278.98745850800168
 21
71.824103281571297
 31
0.0
  0
LINE
  5
1203
  8
TITLE
 10
276.35671693497858
 20
69.018791963246287
 30
0.0
 11
278.98745850800168
 21
71.64953353627682
 31
0.0
  0
LINE
  5
1204
  8
TITLE
 10
276.35671693497858
 20
68.844222217958972
 30
0.0
 11
278.98745850800168
 21
71.474963790989776
 31
0.0
  0
LINE
  5
1205
  8
TITLE
 10
276.35671693497858
 20
68.669652472664382
 30
0.0
 11
278.98745850800168
 21
71.300394045695469
 31
0.0
  0
LINE
  5
1206
  8
TITLE
 10
276.44296293578373
 20
68.581328728176373
 30
0.0
 11
278.98745850800168
 21
71.12582430040095
 31
0.0
  0
LINE
  5
1207
  8
TITLE
 10
277.14124191696112
 20
68.581328728176373
 30
0.0
 11
278.98745850800168
 21
70.427545319231044
 31
0.0
  0
LINE
  5
1208
  8
TITLE
 10
277.31581166224112
 20
68.581328728176373
 30
0.0
 11
278.98745850800168
 21
70.252975573937107
 31
0.0
  0
LINE
  5
1209
  8
TITLE
 10
277.49038140753532
 20
68.581328728176373
 30
0.0
 11
278.98745850800168
 21
70.078405828642502
 31
0.0
  0
LINE
  5
120A
  8
TITLE
 10
277.66495115282947
 20
68.581328728176373
 30
0.0
 11
278.98745850800168
 21
69.903836083348182
 31
0.0
  0
LINE
  5
120B
  8
TITLE
 10
276.96667217166691
 20
68.581328728176373
 30
0.0
 11
278.98745850800168
 21
70.602115064525634
 31
0.0
  0
LINE
  5
120C
  8
TITLE
 10
276.61753268107861
 20
68.581328728176373
 30
0.0
 11
278.98745850800168
 21
70.95125455511419
 31
0.0
  0
LINE
  5
120D
  8
TITLE
 10
276.79210242637231
 20
68.581328728176373
 30
0.0
 11
278.98745850800168
 21
70.776684809819614
 31
0.0
  0
LINE
  5
120E
  8
TITLE
 10
277.83952089812408
 20
68.581328728176373
 30
0.0
 11
278.98745850800168
 21
69.729266338053691
 31
0.0
  0
LINE
  5
120F
  8
TITLE
 10
278.01409064341829
 20
68.581328728176373
 30
0.0
 11
278.98745850800168
 21
69.554696592766646
 31
0.0
  0
LINE
  5
1210
  8
TITLE
 10
278.18866038871261
 20
68.581328728176373
 30
0.0
 11
278.98745850800168
 21
69.380126847472624
 31
0.0
  0
LINE
  5
1211
  8
TITLE
 10
278.36323013400732
 20
68.581328728176373
 30
0.0
 11
278.98745850800168
 21
69.205557102178346
 31
0.0
  0
LINE
  5
1212
  8
TITLE
 10
278.53779987930147
 20
68.581328728176373
 30
0.0
 11
278.98745850800168
 21
69.030987356891643
 31
0.0
  0
LINE
  5
1213
  8
TITLE
 10
278.7123696245954
 20
68.581328728176373
 30
0.0
 11
278.98745850800168
 21
68.856417611597635
 31
0.0
  0
LINE
  5
1214
  8
TITLE
 10
278.88693936988949
 20
68.581328728176373
 30
0.0
 11
278.98745850800168
 21
68.681847866302462
 31
0.0
  0
LINE
  5
1215
  8
TITLE
 10
276.35671693497858
 20
72.161047378522142
 30
0.0
 11
278.98745850800168
 21
74.791788951552945
 31
0.0
  0
LINE
  5
1216
  8
TITLE
 10
276.35671693497858
 20
71.986477633227565
 30
0.0
 11
278.98745850800168
 21
74.617219206266242
 31
0.0
  0
LINE
  5
1217
  8
TITLE
 10
276.35671693497858
 20
72.684756614398282
 30
0.0
 11
278.98745850800168
 21
75.315498187429085
 31
0.0
  0
LINE
  5
1218
  8
TITLE
 10
276.35671693497858
 20
72.510186869110399
 30
0.0
 11
278.98745850800168
 21
75.140928442134523
 31
0.0
  0
LINE
  5
1219
  8
TITLE
 10
276.35671693497858
 20
72.335617123816746
 30
0.0
 11
278.98745850800168
 21
74.966358696847564
 31
0.0
  0
LINE
  5
121A
  8
TITLE
 10
276.35671693497858
 20
73.383035595568103
 30
0.0
 11
278.98745850800168
 21
76.013777168605657
 31
0.0
  0
LINE
  5
121B
  8
TITLE
 10
276.35671693497858
 20
73.208465850273583
 30
0.0
 11
278.98745850800168
 21
75.839207423311692
 31
0.0
  0
LINE
  5
121C
  8
TITLE
 10
276.35671693497858
 20
73.033896104986539
 30
0.0
 11
278.98745850800168
 21
75.664637678017641
 31
0.0
  0
LINE
  5
121D
  8
TITLE
 10
276.35671693497858
 20
72.859326359692602
 30
0.0
 11
278.98745850800168
 21
75.490067932723704
 31
0.0
  0
LINE
  5
121E
  8
TITLE
 10
272.53118310778967
 20
73.398036164825726
 30
0.0
 11
275.62128668923509
 21
76.488139746278193
 31
0.0
  0
LINE
  5
121F
  8
TITLE
 10
272.72944197949948
 20
73.421725291255683
 30
0.0
 11
275.92229029338853
 21
76.614573605137821
 31
0.0
  0
LINE
  5
1220
  8
TITLE
 10
274.74116408619813
 20
73.862319690320092
 30
0.0
 11
279.65736816481513
 21
78.778523768936935
 31
0.0
  0
LINE
  5
1221
  8
TITLE
 10
274.01537705461209
 20
73.660241894601924
 30
0.0
 11
278.59852131639713
 21
78.243386156387402
 31
0.0
  0
LINE
  5
1222
  8
TITLE
 10
274.24969706143719
 20
73.71999215613971
 30
0.0
 11
278.98162541103437
 21
78.451920505744454
 31
0.0
  0
LINE
  5
1223
  8
TITLE
 10
274.49133142396369
 20
73.78705677336589
 30
0.0
 11
279.3317854249774
 21
78.627510774393571
 31
0.0
  0
LINE
  5
1224
  8
TITLE
 10
275.00028740234848
 20
73.946873261169003
 30
0.0
 11
279.96365671037222
 21
78.910242569185044
 31
0.0
  0
LINE
  5
1225
  8
TITLE
 10
275.27007865525383
 20
74.042094768786995
 30
0.0
 11
280.25424225562369
 21
79.026258369156025
 31
0.0
  0
LINE
  5
1226
  8
TITLE
 10
275.55231712714863
 20
74.149763495372426
 30
0.0
 11
280.53169895083118
 21
79.129145319070503
 31
0.0
  0
LINE
  5
1227
  8
TITLE
 10
273.34960301011171
 20
73.51817708598486
 30
0.0
 11
276.96708817923331
 21
77.13566225510678
 31
0.0
  0
LINE
  5
1228
  8
TITLE
 10
272.93173253545012
 20
73.449446101911619
 30
0.0
 11
276.24235078142152
 21
76.760064347883826
 31
0.0
  0
LINE
  5
1229
  8
TITLE
 10
273.13834317885357
 20
73.481487000014255
 30
0.0
 11
276.58672279661812
 21
76.929866617785606
 31
0.0
  0
LINE
  5
122A
  8
TITLE
 10
273.56589038422408
 20
73.559894714802809
 30
0.0
 11
277.65759440068553
 21
77.651598731264343
 31
0.0
  0
LINE
  5
122B
  8
TITLE
 10
273.78764394236532
 20
73.607078527657734
 30
0.0
 11
278.16767902006808
 21
77.987113605359639
 31
0.0
  0
LINE
  5
122C
  8
TITLE
 10
312.51453102872688
 20
77.943725791304956
 30
0.0
 11
314.28138174013787
 21
79.71057650271635
 31
0.0
  0
LINE
  5
122D
  8
TITLE
 10
312.51453102872688
 20
77.76915604601821
 30
0.0
 11
314.45595148543248
 21
79.71057650271635
 31
0.0
  0
LINE
  5
122E
  8
TITLE
 10
312.51453102872688
 20
77.594586300723705
 30
0.0
 11
314.63052123072703
 21
79.71057650271635
 31
0.0
  0
LINE
  5
122F
  8
TITLE
 10
312.51453102872688
 20
76.547167828964959
 30
0.0
 11
315.67793970247789
 21
79.71057650271635
 31
0.0
  0
LINE
  5
1230
  8
TITLE
 10
312.51453102872688
 20
76.372598083670923
 30
0.0
 11
315.85250944777249
 21
79.71057650271635
 31
0.0
  0
LINE
  5
1231
  8
TITLE
 10
312.51453102872688
 20
76.198028338376417
 30
0.0
 11
316.02707919306698
 21
79.71057650271635
 31
0.0
  0
LINE
  5
1232
  8
TITLE
 10
312.51453102872688
 20
76.896307319553202
 30
0.0
 11
315.32880021190408
 21
79.71057650271635
 31
0.0
  0
LINE
  5
1233
  8
TITLE
 10
312.51453102872688
 20
76.721737574258924
 30
0.0
 11
315.50336995718408
 21
79.71057650271635
 31
0.0
  0
LINE
  5
1234
  8
TITLE
 10
312.51453102872688
 20
77.420016555429939
 30
0.0
 11
314.80509097602112
 21
79.71057650271635
 31
0.0
  0
LINE
  5
1235
  8
TITLE
 10
312.51453102872688
 20
77.245446810142326
 30
0.0
 11
314.97966072131533
 21
79.71057650271635
 31
0.0
  0
LINE
  5
1236
  8
TITLE
 10
312.51453102872688
 20
77.070877064848375
 30
0.0
 11
315.15423046660982
 21
79.71057650271635
 31
0.0
  0
LINE
  5
1237
  8
TITLE
 10
312.51453102872688
 20
75.674319102500561
 30
0.0
 11
314.50536248940421
 21
77.665150563170712
 31
0.0
  0
LINE
  5
1238
  8
TITLE
 10
312.51453102872688
 20
75.499749357213517
 30
0.0
 11
314.50536248940421
 21
77.490580817883384
 31
0.0
  0
LINE
  5
1239
  8
TITLE
 10
312.51453102872688
 20
76.023458593081827
 30
0.0
 11
314.50536248940421
 21
78.014290053759538
 31
0.0
  0
LINE
  5
123A
  8
TITLE
 10
312.51453102872688
 20
75.848888847794498
 30
0.0
 11
314.50536248940421
 21
77.839720308464933
 31
0.0
  0
LINE
  5
123B
  8
TITLE
 10
311.75645695656402
 20
78.058500445599876
 30
0.0
 11
313.40853301368088
 21
79.71057650271635
 31
0.0
  0
LINE
  5
123C
  8
TITLE
 10
311.93102670185851
 20
78.058500445599876
 30
0.0
 11
313.58310275896127
 21
79.71057650271635
 31
0.0
  0
LINE
  5
123D
  8
TITLE
 10
312.10559644715329
 20
78.058500445599876
 30
0.0
 11
313.75767250425582
 21
79.71057650271635
 31
0.0
  0
LINE
  5
123E
  8
TITLE
 10
312.28016619243351
 20
78.058500445599876
 30
0.0
 11
313.93224224954952
 21
79.71057650271635
 31
0.0
  0
LINE
  5
123F
  8
TITLE
 10
312.45473593772698
 20
78.058500445599876
 30
0.0
 11
314.1068119948435
 21
79.71057650271635
 31
0.0
  0
LINE
  5
1240
  8
TITLE
 10
310.83320275849002
 20
68.581328728176373
 30
0.0
 11
314.50536248940421
 21
72.25348845908978
 31
0.0
  0
LINE
  5
1241
  8
TITLE
 10
311.00777250378388
 20
68.581328728176373
 30
0.0
 11
314.50536248940421
 21
72.07891871380339
 31
0.0
  0
LINE
  5
1242
  8
TITLE
 10
312.51453102872688
 20
71.135505724884325
 30
0.0
 11
314.50536248940421
 21
73.126337185561454
 31
0.0
  0
LINE
  5
1243
  8
TITLE
 10
312.51453102872688
 20
70.960935979590104
 30
0.0
 11
314.50536248940421
 21
72.951767440267744
 31
0.0
  0
LINE
  5
1244
  8
TITLE
 10
312.51453102872688
 20
70.786366234295514
 30
0.0
 11
314.50536248940421
 21
72.777197694972926
 31
0.0
  0
LINE
  5
1245
  8
TITLE
 10
312.51453102872688
 20
70.611796489001819
 30
0.0
 11
314.50536248940421
 21
72.602627949678336
 31
0.0
  0
LINE
  5
1246
  8
TITLE
 10
312.51453102872688
 20
70.437226743714234
 30
0.0
 11
314.50536248940421
 21
72.428058204384939
 31
0.0
  0
LINE
  5
1247
  8
TITLE
 10
312.51453102872688
 20
71.833784706061493
 30
0.0
 11
314.50536248940421
 21
73.824616166732227
 31
0.0
  0
LINE
  5
1248
  8
TITLE
 10
312.51453102872688
 20
71.659214960767741
 30
0.0
 11
314.50536248940421
 21
73.650046421437082
 31
0.0
  0
LINE
  5
1249
  8
TITLE
 10
312.51453102872688
 20
71.484645215472881
 30
0.0
 11
314.50536248940421
 21
73.47547667615062
 31
0.0
  0
LINE
  5
124A
  8
TITLE
 10
312.51453102872688
 20
71.310075470178376
 30
0.0
 11
314.50536248940421
 21
73.300906930855774
 31
0.0
  0
LINE
  5
124B
  8
TITLE
 10
311.18234224907849
 20
68.581328728176373
 30
0.0
 11
314.50536248940421
 21
71.904348968508501
 31
0.0
  0
LINE
  5
124C
  8
TITLE
 10
311.35691199437292
 20
68.581328728176373
 30
0.0
 11
314.50536248940421
 21
71.729779223214209
 31
0.0
  0
LINE
  5
124D
  8
TITLE
 10
311.5314817396677
 20
68.581328728176373
 30
0.0
 11
314.50536248940421
 21
71.555209477927505
 31
0.0
  0
LINE
  5
124E
  8
TITLE
 10
311.70605148496162
 20
68.581328728176373
 30
0.0
 11
314.50536248940421
 21
71.380639732632901
 31
0.0
  0
LINE
  5
124F
  8
TITLE
 10
311.88062123024127
 20
68.581328728176373
 30
0.0
 11
314.50536248940421
 21
71.206069987338964
 31
0.0
  0
LINE
  5
1250
  8
TITLE
 10
312.05519097553542
 20
68.581328728176373
 30
0.0
 11
314.50536248940421
 21
71.031500242044359
 31
0.0
  0
LINE
  5
1251
  8
TITLE
 10
312.2297607208302
 20
68.581328728176373
 30
0.0
 11
314.50536248940421
 21
70.856930496750664
 31
0.0
  0
LINE
  5
1252
  8
TITLE
 10
312.40433046612497
 20
68.581328728176373
 30
0.0
 11
314.50536248940421
 21
70.682360751455846
 31
0.0
  0
LINE
  5
1253
  8
TITLE
 10
312.5789002114189
 20
68.581328728176373
 30
0.0
 11
314.50536248940421
 21
70.507791006161497
 31
0.0
  0
LINE
  5
1254
  8
TITLE
 10
312.7534699567139
 20
68.581328728176373
 30
0.0
 11
314.50536248940421
 21
70.333221260866864
 31
0.0
  0
LINE
  5
1255
  8
TITLE
 10
312.92803970200771
 20
68.581328728176373
 30
0.0
 11
314.63290382873328
 21
70.28619285490953
 31
0.0
  0
LINE
  5
1256
  8
TITLE
 10
313.1026094473018
 20
68.581328728176373
 30
0.0
 11
314.80747357402731
 21
70.28619285490953
 31
0.0
  0
LINE
  5
1257
  8
TITLE
 10
313.2771791925959
 20
68.581328728176373
 30
0.0
 11
314.98204331932169
 21
70.28619285490953
 31
0.0
  0
LINE
  5
1258
  8
TITLE
 10
312.51453102872688
 20
73.404912413695456
 30
0.0
 11
314.50536248940421
 21
75.395743874365877
 31
0.0
  0
LINE
  5
1259
  8
TITLE
 10
312.51453102872688
 20
73.230342668401804
 30
0.0
 11
314.50536248940421
 21
75.2211741290795
 31
0.0
  0
LINE
  5
125A
  8
TITLE
 10
312.51453102872688
 20
73.055772923107739
 30
0.0
 11
314.50536248940421
 21
75.046604383784896
 31
0.0
  0
LINE
  5
125B
  8
TITLE
 10
312.51453102872688
 20
72.881203177813262
 30
0.0
 11
314.50536248940421
 21
74.872034638490035
 31
0.0
  0
LINE
  5
125C
  8
TITLE
 10
312.51453102872688
 20
72.706633432519439
 30
0.0
 11
314.50536248940421
 21
74.697464893195516
 31
0.0
  0
LINE
  5
125D
  8
TITLE
 10
312.51453102872688
 20
72.532063687224081
 30
0.0
 11
314.50536248940421
 21
74.52289514790148
 31
0.0
  0
LINE
  5
125E
  8
TITLE
 10
312.51453102872688
 20
72.357493941937392
 30
0.0
 11
314.50536248940421
 21
74.348325402607784
 31
0.0
  0
LINE
  5
125F
  8
TITLE
 10
312.51453102872688
 20
72.182924196642801
 30
0.0
 11
314.50536248940421
 21
74.173755657313464
 31
0.0
  0
LINE
  5
1260
  8
TITLE
 10
312.51453102872688
 20
72.008354451348723
 30
0.0
 11
314.50536248940421
 21
73.999185912018618
 31
0.0
  0
LINE
  5
1261
  8
TITLE
 10
312.51453102872688
 20
75.325179611918927
 30
0.0
 11
314.50536248940421
 21
77.316011072588495
 31
0.0
  0
LINE
  5
1262
  8
TITLE
 10
312.51453102872688
 20
75.150609866624336
 30
0.0
 11
314.50536248940421
 21
77.14144132729561
 31
0.0
  0
LINE
  5
1263
  8
TITLE
 10
312.51453102872688
 20
74.452330885447751
 30
0.0
 11
314.50536248940421
 21
76.443162346124069
 31
0.0
  0
LINE
  5
1264
  8
TITLE
 10
312.51453102872688
 20
74.277761140152904
 30
0.0
 11
314.50536248940421
 21
76.268592600830416
 31
0.0
  0
LINE
  5
1265
  8
TITLE
 10
312.51453102872688
 20
74.976040121330385
 30
0.0
 11
314.50536248940421
 21
76.966871582007784
 31
0.0
  0
LINE
  5
1266
  8
TITLE
 10
312.51453102872688
 20
74.80147037603578
 30
0.0
 11
314.50536248940421
 21
76.792301836713818
 31
0.0
  0
LINE
  5
1267
  8
TITLE
 10
312.51453102872688
 20
74.626900630741503
 30
0.0
 11
314.50536248940421
 21
76.617732091418944
 31
0.0
  0
LINE
  5
1268
  8
TITLE
 10
312.51453102872688
 20
73.928621649571383
 30
0.0
 11
314.50536248940421
 21
75.919453110241491
 31
0.0
  0
LINE
  5
1269
  8
TITLE
 10
312.51453102872688
 20
73.754051904277659
 30
0.0
 11
314.50536248940421
 21
75.744883364954532
 31
0.0
  0
LINE
  5
126A
  8
TITLE
 10
312.51453102872688
 20
73.579482158990061
 30
0.0
 11
314.50536248940421
 21
75.570313619660496
 31
0.0
  0
LINE
  5
126B
  8
TITLE
 10
312.51453102872688
 20
74.103191394866215
 30
0.0
 11
314.50536248940421
 21
76.09402285553611
 31
0.0
  0
LINE
  5
126E
  8
TITLE
 10
295.29637492826532
 20
69.104917464898634
 30
0.0
 11
299.23841010028423
 21
73.046952636916885
 31
0.0
  0
LINE
  5
126F
  8
TITLE
 10
295.29637492826532
 20
68.930347719603787
 30
0.0
 11
299.14665345812608
 21
72.780626249466195
 31
0.0
  0
LINE
  5
1270
  8
TITLE
 10
295.29637492826532
 20
68.755777974309567
 30
0.0
 11
299.05489681596941
 21
72.514299862021304
 31
0.0
  0
LINE
  5
1271
  8
TITLE
 10
295.29649542742573
 20
68.581328728176373
 30
0.0
 11
298.96314017381229
 21
72.247973474569562
 31
0.0
  0
LINE
  5
1272
  8
TITLE
 10
295.47106517270572
 20
68.581328728176373
 30
0.0
 11
298.87138353165489
 21
71.981647087125495
 31
0.0
  0
LINE
  5
1273
  8
TITLE
 10
295.29637492826532
 20
69.628626700781496
 30
0.0
 11
299.51368002675611
 21
73.845931799271824
 31
0.0
  0
LINE
  5
1274
  8
TITLE
 10
295.29637492826532
 20
69.454056955486919
 30
0.0
 11
299.42192338459841
 21
73.579605411820594
 31
0.0
  0
LINE
  5
1275
  8
TITLE
 10
295.29637492826532
 20
69.2794872101924
 30
0.0
 11
299.33016674244101
 21
73.313279024369365
 31
0.0
  0
LINE
  5
1276
  8
TITLE
 10
295.29637492826532
 20
70.67604517253298
 30
0.0
 11
300.0642198796852
 21
75.443890123966895
 31
0.0
  0
LINE
  5
1277
  8
TITLE
 10
295.29637492826532
 20
70.501475427238091
 30
0.0
 11
299.97246323752779
 21
75.177563736515381
 31
0.0
  0
LINE
  5
1278
  8
TITLE
 10
295.29637492826532
 20
70.3269056819517
 30
0.0
 11
299.8807065953705
 21
74.911237349064322
 31
0.0
  0
LINE
  5
1279
  8
TITLE
 10
295.29637492826532
 20
70.152335936656812
 30
0.0
 11
299.7889499532132
 21
74.644910961612226
 31
0.0
  0
LINE
  5
127A
  8
TITLE
 10
295.29637492826532
 20
69.977766191362235
 30
0.0
 11
299.69719331107012
 21
74.378584574168499
 31
0.0
  0
LINE
  5
127B
  8
TITLE
 10
295.29637492826532
 20
69.803196446075532
 30
0.0
 11
299.60543666891351
 21
74.112258186716133
 31
0.0
  0
LINE
  5
127C
  8
TITLE
 10
295.64563491799993
 20
68.581328728176373
 30
0.0
 11
298.77962688949731
 21
71.715320699673626
 31
0.0
  0
LINE
  5
127D
  8
TITLE
 10
295.82020466329442
 20
68.581328728176373
 30
0.0
 11
298.68787024734007
 21
71.44899431222214
 31
0.0
  0
LINE
  5
127E
  8
TITLE
 10
296.51848364447142
 20
68.581328728176373
 30
0.0
 11
298.73807016890692
 21
70.800915252611532
 31
0.0
  0
LINE
  5
127F
  8
TITLE
 10
296.69305338976568
 20
68.581328728176373
 30
0.0
 11
298.91263991418708
 21
70.800915252611532
 31
0.0
  0
LINE
  5
1280
  8
TITLE
 10
296.86762313506028
 20
68.581328728176373
 30
0.0
 11
299.08720965948169
 21
70.800915252611532
 31
0.0
  0
LINE
  5
1281
  8
TITLE
 10
295.9947744085884
 20
68.581328728176373
 30
0.0
 11
298.59611360518289
 21
71.182667924770556
 31
0.0
  0
LINE
  5
1282
  8
TITLE
 10
296.16934415388312
 20
68.581328728176373
 30
0.0
 11
298.50435696302583
 21
70.916341537319326
 31
0.0
  0
LINE
  5
1283
  8
TITLE
 10
296.34391389917732
 20
68.581328728176373
 30
0.0
 11
298.56350042361322
 21
70.800915252611532
 31
0.0
  0
LINE
  5
1284
  8
TITLE
 10
296.82924996875732
 20
73.430908430085452
 30
0.0
 11
300.70651637478568
 21
77.308174836113864
 31
0.0
  0
LINE
  5
1285
  8
TITLE
 10
296.73749332660009
 20
73.164582042633938
 30
0.0
 11
300.61475973262918
 21
77.04184844866316
 31
0.0
  0
LINE
  5
1286
  8
TITLE
 10
296.16721242521947
 20
71.72145241478907
 30
0.0
 11
300.15597652184209
 21
75.71021651141929
 31
0.0
  0
LINE
  5
1287
  8
TITLE
 10
296.55398004228579
 20
72.631929267737775
 30
0.0
 11
300.43124644831448
 21
76.509195673759706
 31
0.0
  0
LINE
  5
1288
  8
TITLE
 10
296.46222340012832
 20
72.365602880293565
 30
0.0
 11
300.33948980615702
 21
76.242869286315184
 31
0.0
  0
LINE
  5
1289
  8
TITLE
 10
296.64573668444308
 20
72.898255655182595
 30
0.0
 11
300.52300309047132
 21
76.775522061210395
 31
0.0
  0
LINE
  5
128A
  8
TITLE
 10
296.37046675798609
 20
72.099276492841682
 30
0.0
 11
300.24773316399978
 21
75.976542898863883
 31
0.0
  0
LINE
  5
128B
  8
TITLE
 10
296.92100661091507
 20
73.697234817537279
 30
0.0
 11
300.79827301694331
 21
77.574501223566259
 31
0.0
  0
LINE
  5
128C
  8
TITLE
 10
287.32406524958441
 20
76.843884862576701
 30
0.0
 11
290.19075688971031
 21
79.71057650271635
 31
0.0
  0
LINE
  5
128D
  8
TITLE
 10
287.32406524958441
 20
76.66931511729004
 30
0.0
 11
290.36532663500452
 21
79.71057650271635
 31
0.0
  0
LINE
  5
128E
  8
TITLE
 10
287.32406524958441
 20
76.494745371995421
 30
0.0
 11
290.53989638029861
 21
79.71057650271635
 31
0.0
  0
LINE
  5
128F
  8
TITLE
 10
287.32406524958441
 20
76.320175626701456
 30
0.0
 11
290.71446612559288
 21
79.71057650271635
 31
0.0
  0
LINE
  5
1290
  8
TITLE
 10
287.32406524958441
 20
76.1456058814139
 30
0.0
 11
290.88903587088731
 21
79.71057650271635
 31
0.0
  0
LINE
  5
1291
  8
TITLE
 10
287.32406524958441
 20
75.971036136119295
 30
0.0
 11
291.06360561618192
 21
79.71057650271635
 31
0.0
  0
LINE
  5
1292
  8
TITLE
 10
287.32406524958441
 20
75.7964663908256
 30
0.0
 11
291.23817536147629
 21
79.71057650271635
 31
0.0
  0
LINE
  5
1293
  8
TITLE
 10
287.32406524958441
 20
75.621896645531564
 30
0.0
 11
291.4127451067701
 21
79.71057650271635
 31
0.0
  0
LINE
  5
1294
  8
TITLE
 10
287.32406524958441
 20
75.447326900236419
 30
0.0
 11
291.58731485206431
 21
79.71057650271635
 31
0.0
  0
LINE
  5
1295
  8
TITLE
 10
286.74452770714538
 20
77.486335537197036
 30
0.0
 11
288.96876867266428
 21
79.71057650271635
 31
0.0
  0
LINE
  5
1296
  8
TITLE
 10
286.91909745243908
 20
77.486335537197036
 30
0.0
 11
289.1433384179586
 21
79.71057650271635
 31
0.0
  0
LINE
  5
1297
  8
TITLE
 10
287.09366719773362
 20
77.486335537197036
 30
0.0
 11
289.31790816325309
 21
79.71057650271635
 31
0.0
  0
LINE
  5
1298
  8
TITLE
 10
287.26823694302749
 20
77.486335537197036
 30
0.0
 11
289.49247790854707
 21
79.71057650271635
 31
0.0
  0
LINE
  5
1299
  8
TITLE
 10
287.32406524958441
 20
77.367594098459605
 30
0.0
 11
289.66704765384202
 21
79.71057650271635
 31
0.0
  0
LINE
  5
129A
  8
TITLE
 10
287.32406524958441
 20
77.193024353165896
 30
0.0
 11
289.84161739913611
 21
79.71057650271635
 31
0.0
  0
LINE
  5
129B
  8
TITLE
 10
287.32406524958441
 20
77.018454607871021
 30
0.0
 11
290.01618714441611
 21
79.71057650271635
 31
0.0
  0
LINE
  5
129C
  8
TITLE
 10
287.96456612512208
 20
68.581328728176373
 30
0.0
 11
290.22161787795949
 21
70.838380481013843
 31
0.0
  0
LINE
  5
129D
  8
TITLE
 10
288.13913587040207
 20
68.581328728176373
 30
0.0
 11
290.39618762323948
 21
70.838380481013843
 31
0.0
  0
LINE
  5
129E
  8
TITLE
 10
288.31370561569639
 20
68.581328728176373
 30
0.0
 11
290.57075736853398
 21
70.838380481013843
 31
0.0
  0
LINE
  5
129F
  8
TITLE
 10
288.48827536099049
 20
68.581328728176373
 30
0.0
 11
290.74532711382921
 21
70.838380481013843
 31
0.0
  0
LINE
  5
12A0
  8
TITLE
 10
288.66284510628532
 20
68.581328728176373
 30
0.0
 11
290.9198968591233
 21
70.838380481013843
 31
0.0
  0
LINE
  5
12A1
  8
TITLE
 10
285.17145020042761
 20
68.581328728176373
 30
0.0
 11
289.81260457541691
 21
73.22248310317265
 31
0.0
  0
LINE
  5
12A2
  8
TITLE
 10
285.34601994572199
 20
68.581328728176373
 30
0.0
 11
289.81260457541691
 21
73.047913357878343
 31
0.0
  0
LINE
  5
12A3
  8
TITLE
 10
285.52058969101608
 20
68.581328728176373
 30
0.0
 11
289.81260457541691
 21
72.873343612584677
 31
0.0
  0
LINE
  5
12A4
  8
TITLE
 10
285.69515943631052
 20
68.581328728176373
 30
0.0
 11
289.81260457541691
 21
72.698773867297632
 31
0.0
  0
LINE
  5
12A5
  8
TITLE
 10
285.8697291816045
 20
68.581328728176373
 30
0.0
 11
289.81260457541691
 21
72.524204122002459
 31
0.0
  0
LINE
  5
12A6
  8
TITLE
 10
286.04429892689927
 20
68.581328728176373
 30
0.0
 11
289.81260457541691
 21
72.349634376707598
 31
0.0
  0
LINE
  5
12A7
  8
TITLE
 10
286.21886867217972
 20
68.581328728176373
 30
0.0
 11
289.81260457541691
 21
72.175064631414202
 31
0.0
  0
LINE
  5
12A8
  8
TITLE
 10
286.39343841747382
 20
68.581328728176373
 30
0.0
 11
289.81260457541691
 21
72.000494886119597
 31
0.0
  0
LINE
  5
12A9
  8
TITLE
 10
286.56800816276808
 20
68.581328728176373
 30
0.0
 11
289.81260457541691
 21
71.825925140825603
 31
0.0
  0
LINE
  5
12AA
  8
TITLE
 10
286.74257790806212
 20
68.581328728176373
 30
0.0
 11
289.81260457541691
 21
71.651355395531056
 31
0.0
  0
LINE
  5
12AB
  8
TITLE
 10
287.32406524958441
 20
71.955931994379839
 30
0.0
 11
289.81260457541691
 21
74.444471320225631
 31
0.0
  0
LINE
  5
12AC
  8
TITLE
 10
287.32406524958441
 20
71.781362249085007
 30
0.0
 11
289.81260457541691
 21
74.269901574931282
 31
0.0
  0
LINE
  5
12AD
  8
TITLE
 10
287.32406524958441
 20
71.606792503790388
 30
0.0
 11
289.81260457541691
 21
74.095331829637104
 31
0.0
  0
LINE
  5
12AE
  8
TITLE
 10
287.32406524958441
 20
71.432222758495513
 30
0.0
 11
289.81260457541691
 21
73.920762084342783
 31
0.0
  0
LINE
  5
12AF
  8
TITLE
 10
287.32406524958441
 20
71.257653013208554
 30
0.0
 11
289.81260457541691
 21
73.746192339049102
 31
0.0
  0
LINE
  5
12B0
  8
TITLE
 10
287.32406524958441
 20
71.083083267915441
 30
0.0
 11
289.81260457541691
 21
73.571622593754228
 31
0.0
  0
LINE
  5
12B1
  8
TITLE
 10
287.32406524958441
 20
70.908513522620552
 30
0.0
 11
289.81260457541691
 21
73.397052848459609
 31
0.0
  0
LINE
  5
12B2
  8
TITLE
 10
286.91714765335678
 20
68.581328728176373
 30
0.0
 11
289.81260457541691
 21
71.476785650236465
 31
0.0
  0
LINE
  5
12B3
  8
TITLE
 10
287.09171739865047
 20
68.581328728176373
 30
0.0
 11
289.81260457541691
 21
71.30221590494952
 31
0.0
  0
LINE
  5
12B4
  8
TITLE
 10
287.26628714394542
 20
68.581328728176373
 30
0.0
 11
289.81260457541691
 21
71.1276461596552
 31
0.0
  0
LINE
  5
12B5
  8
TITLE
 10
287.44085688923923
 20
68.581328728176373
 30
0.0
 11
289.81260457541691
 21
70.953076414368496
 31
0.0
  0
LINE
  5
12B6
  8
TITLE
 10
287.61542663453338
 20
68.581328728176373
 30
0.0
 11
289.87247838737147
 21
70.838380481013843
 31
0.0
  0
LINE
  5
12B7
  8
TITLE
 10
287.78999637982758
 20
68.581328728176373
 30
0.0
 11
290.04704813266568
 21
70.838380481013843
 31
0.0
  0
LINE
  5
12B8
  8
TITLE
 10
287.32406524958441
 20
72.305071484967584
 30
0.0
 11
289.81260457541691
 21
74.793610810808104
 31
0.0
  0
LINE
  5
12B9
  8
TITLE
 10
287.32406524958441
 20
72.130501739673477
 30
0.0
 11
289.81260457541691
 21
74.6190410655135
 31
0.0
  0
LINE
  5
12BA
  8
TITLE
 10
287.32406524958441
 20
72.828780720843724
 30
0.0
 11
289.81260457541691
 21
75.317320046683037
 31
0.0
  0
LINE
  5
12BB
  8
TITLE
 10
287.32406524958441
 20
72.654210975549404
 30
0.0
 11
289.81260457541691
 21
75.142750301388801
 31
0.0
  0
LINE
  5
12BC
  8
TITLE
 10
287.32406524958441
 20
72.479641230261521
 30
0.0
 11
289.81260457541691
 21
74.968180556101771
 31
0.0
  0
LINE
  5
12BD
  8
TITLE
 10
287.32406524958441
 20
75.27275715494244
 30
0.0
 11
291.76188459734459
 21
79.71057650271635
 31
0.0
  0
LINE
  5
12BE
  8
TITLE
 10
287.32406524958441
 20
75.098187409648133
 30
0.0
 11
291.93645434263908
 21
79.71057650271635
 31
0.0
  0
LINE
  5
12BF
  8
TITLE
 10
287.32406524958441
 20
74.923617664354211
 30
0.0
 11
289.81260457541691
 21
77.412156990200245
 31
0.0
  0
LINE
  5
12C0
  8
TITLE
 10
287.32406524958441
 20
74.749047919067124
 30
0.0
 11
289.81260457541691
 21
77.23758724490564
 31
0.0
  0
LINE
  5
12C1
  8
TITLE
 10
287.32406524958441
 20
74.574478173771993
 30
0.0
 11
289.81260457541691
 21
77.063017499611703
 31
0.0
  0
LINE
  5
12C2
  8
TITLE
 10
287.32406524958441
 20
74.399908428484963
 30
0.0
 11
289.81260457541691
 21
76.888447754317639
 31
0.0
  0
LINE
  5
12C3
  8
TITLE
 10
287.32406524958441
 20
74.225338683190444
 30
0.0
 11
289.81260457541691
 21
76.713878009030324
 31
0.0
  0
LINE
  5
12C4
  8
TITLE
 10
287.32406524958441
 20
74.050768937896393
 30
0.0
 11
289.81260457541691
 21
76.539308263735805
 31
0.0
  0
LINE
  5
12C5
  8
TITLE
 10
287.32406524958441
 20
73.876199192602741
 30
0.0
 11
289.81260457541691
 21
76.364738518449343
 31
0.0
  0
LINE
  5
12C6
  8
TITLE
 10
287.32406524958441
 20
73.701629447307596
 30
0.0
 11
289.81260457541691
 21
76.190168773154454
 31
0.0
  0
LINE
  5
12C7
  8
TITLE
 10
287.32406524958441
 20
73.527059702013901
 30
0.0
 11
289.81260457541691
 21
76.015599027860546
 31
0.0
  0
LINE
  5
12C8
  8
TITLE
 10
287.32406524958441
 20
73.35248995671904
 30
0.0
 11
289.81260457541691
 21
75.841029282566197
 31
0.0
  0
LINE
  5
12C9
  8
TITLE
 10
287.32406524958441
 20
73.177920211424706
 30
0.0
 11
289.81260457541691
 21
75.666459537271663
 31
0.0
  0
LINE
  5
12CA
  8
TITLE
 10
287.32406524958441
 20
73.003350466138031
 30
0.0
 11
289.81260457541691
 21
75.491889791977641
 31
0.0
  0
LINE
  5
12CB
  8
TITLE
 10
285.5225394900994
 20
77.486335537197036
 30
0.0
 11
287.74678045561808
 21
79.71057650271635
 31
0.0
  0
LINE
  5
12CC
  8
TITLE
 10
285.6971092353794
 20
77.486335537197036
 30
0.0
 11
287.92135020091291
 21
79.71057650271635
 31
0.0
  0
LINE
  5
12CD
  8
TITLE
 10
285.87167898067412
 20
77.486335537197036
 30
0.0
 11
288.09591994619228
 21
79.71057650271635
 31
0.0
  0
LINE
  5
12CE
  8
TITLE
 10
286.04624872596833
 20
77.486335537197036
 30
0.0
 11
288.27048969148728
 21
79.71057650271635
 31
0.0
  0
LINE
  5
12CF
  8
TITLE
 10
286.22081847126219
 20
77.486335537197036
 30
0.0
 11
288.44505943678132
 21
79.71057650271635
 31
0.0
  0
LINE
  5
12D0
  8
TITLE
 10
286.39538821655651
 20
77.486335537197036
 30
0.0
 11
288.61962918207553
 21
79.71057650271635
 31
0.0
  0
LINE
  5
12D1
  8
TITLE
 10
286.56995796185089
 20
77.486335537197036
 30
0.0
 11
288.79419892737019
 21
79.71057650271635
 31
0.0
  0
LINE
  5
12D2
  8
TITLE
 10
284.64969076362809
 20
77.486335537197036
 30
0.0
 11
286.87393172914727
 21
79.71057650271635
 31
0.0
  0
LINE
  5
12D3
  8
TITLE
 10
284.82426050892252
 20
77.486335537197036
 30
0.0
 11
287.04850147444131
 21
79.71057650271635
 31
0.0
  0
LINE
  5
12D4
  8
TITLE
 10
284.99883025421622
 20
77.486335537197036
 30
0.0
 11
287.2230712197358
 21
79.71057650271635
 31
0.0
  0
LINE
  5
12D5
  8
TITLE
 10
285.17339999951059
 20
77.486335537197036
 30
0.0
 11
287.39764096503001
 21
79.71057650271635
 31
0.0
  0
LINE
  5
12D6
  8
TITLE
 10
285.34796974480429
 20
77.486335537197036
 30
0.0
 11
287.5722107103245
 21
79.71057650271635
 31
0.0
  0
LINE
  5
12D7
  8
TITLE
 10
284.47512101833331
 20
77.486335537197036
 30
0.0
 11
286.69936198385312
 21
79.71057650271635
 31
0.0
  0
LINE
  5
12D8
  8
TITLE
 10
284.30055127303882
 20
77.486335537197036
 30
0.0
 11
286.52479223855858
 21
79.71057650271635
 31
0.0
  0
LINE
  5
12D9
  8
TITLE
 10
280.735765226117
 20
76.889235160249896
 30
0.0
 11
282.72026749676428
 21
78.873737430904939
 31
0.0
  0
LINE
  5
12DA
  8
TITLE
 10
280.99447498955448
 20
76.973375178393709
 30
0.0
 11
282.72026749676428
 21
78.699167685610377
 31
0.0
  0
LINE
  5
12DB
  8
TITLE
 10
281.24436931332508
 20
77.048699756883849
 30
0.0
 11
282.72026749676428
 21
78.524597940322764
 31
0.0
  0
LINE
  5
12DC
  8
TITLE
 10
281.48643733543821
 20
77.116198033694346
 30
0.0
 11
282.72026749676428
 21
78.350028195029068
 31
0.0
  0
LINE
  5
12DD
  8
TITLE
 10
281.72148745045598
 20
77.176678403418919
 30
0.0
 11
282.72026749676428
 21
78.175458449734506
 31
0.0
  0
LINE
  5
12DE
  8
TITLE
 10
282.60345523203131
 20
77.36036720381739
 30
0.0
 11
282.72026749676428
 21
77.477179468556784
 31
0.0
  0
LINE
  5
12DF
  8
TITLE
 10
282.39072833712311
 20
77.322210054202927
 30
0.0
 11
282.72026749676428
 21
77.65174921385136
 31
0.0
  0
LINE
  5
12E0
  8
TITLE
 10
281.95019056978009
 20
77.230811777440664
 30
0.0
 11
282.72026749676428
 21
78.000888704440541
 31
0.0
  0
LINE
  5
12E1
  8
TITLE
 10
282.17311089308947
 20
77.279162355470817
 30
0.0
 11
282.72026749676428
 21
77.826318959145681
 31
0.0
  0
LINE
  5
12E2
  8
TITLE
 10
283.6268068226122
 20
79.256567520869808
 30
0.0
 11
284.08081580446651
 21
79.71057650271635
 31
0.0
  0
LINE
  5
12E3
  8
TITLE
 10
283.6268068226122
 20
79.081997775574948
 30
0.0
 11
284.25538554976129
 21
79.71057650271635
 31
0.0
  0
LINE
  5
12E4
  8
TITLE
 10
283.6268068226122
 20
79.605707011451372
 30
0.0
 11
283.7316763138781
 21
79.71057650271635
 31
0.0
  0
LINE
  5
12E5
  8
TITLE
 10
283.6268068226122
 20
79.431137266156483
 30
0.0
 11
283.90624605917191
 21
79.71057650271635
 31
0.0
  0
LINE
  5
12E6
  8
TITLE
 10
283.6268068226122
 20
78.034579303816216
 30
0.0
 11
285.30280402151249
 21
79.71057650271635
 31
0.0
  0
LINE
  5
12E7
  8
TITLE
 10
283.6268068226122
 20
77.86000955852252
 30
0.0
 11
285.47737376680732
 21
79.71057650271635
 31
0.0
  0
LINE
  5
12E8
  8
TITLE
 10
283.6268068226122
 20
77.68543981322766
 30
0.0
 11
285.65194351210113
 21
79.71057650271635
 31
0.0
  0
LINE
  5
12E9
  8
TITLE
 10
283.6268068226122
 20
77.510870067933354
 30
0.0
 11
285.82651325739567
 21
79.71057650271635
 31
0.0
  0
LINE
  5
12EA
  8
TITLE
 10
283.7768420371562
 20
77.486335537197036
 30
0.0
 11
286.00108300268948
 21
79.71057650271635
 31
0.0
  0
LINE
  5
12EB
  8
TITLE
 10
283.95141178245029
 20
77.486335537197036
 30
0.0
 11
286.17565274798397
 21
79.71057650271635
 31
0.0
  0
LINE
  5
12EC
  8
TITLE
 10
284.12598152774513
 20
77.486335537197036
 30
0.0
 11
286.35022249326403
 21
79.71057650271635
 31
0.0
  0
LINE
  5
12ED
  8
TITLE
 10
283.6268068226122
 20
78.209149049110451
 30
0.0
 11
285.12823427621788
 21
79.71057650271635
 31
0.0
  0
LINE
  5
12EE
  8
TITLE
 10
283.6268068226122
 20
78.907428030281551
 30
0.0
 11
284.42995529504128
 21
79.71057650271635
 31
0.0
  0
LINE
  5
12EF
  8
TITLE
 10
283.6268068226122
 20
78.732858284993597
 30
0.0
 11
284.60452504033492
 21
79.71057650271635
 31
0.0
  0
LINE
  5
12F0
  8
TITLE
 10
283.6268068226122
 20
78.558288539699916
 30
0.0
 11
284.7790947856297
 21
79.71057650271635
 31
0.0
  0
LINE
  5
12F1
  8
TITLE
 10
283.6268068226122
 20
78.383718794405311
 30
0.0
 11
284.95366453092407
 21
79.71057650271635
 31
0.0
  0
LINE
  5
12F2
  8
TITLE
 10
284.64774096454448
 20
68.581328728176373
 30
0.0
 11
286.90479271738252
 21
70.838380481013843
 31
0.0
  0
LINE
  5
12F3
  8
TITLE
 10
284.8223107098388
 20
68.581328728176373
 30
0.0
 11
287.07936246267622
 21
70.838380481013843
 31
0.0
  0
LINE
  5
12F4
  8
TITLE
 10
284.99688045513398
 20
68.581328728176373
 30
0.0
 11
287.25393220797127
 21
70.838380481013843
 31
0.0
  0
LINE
  5
12F5
  8
TITLE
 10
284.47317121925062
 20
68.581328728176373
 30
0.0
 11
286.73022297210173
 21
70.838380481013843
 31
0.0
  0
LINE
  5
12F6
  8
TITLE
 10
284.29860147397062
 20
68.581328728176373
 30
0.0
 11
286.55565322680809
 21
70.838380481013843
 31
0.0
  0
LINE
  5
12F7
  8
TITLE
 10
282.72026749676428
 20
69.621540930377478
 30
0.0
 11
283.93710704740772
 21
70.838380481013843
 31
0.0
  0
LINE
  5
12F8
  8
TITLE
 10
282.72026749676428
 20
69.446971185090675
 30
0.0
 11
284.11167679270193
 21
70.838380481013843
 31
0.0
  0
LINE
  5
12F9
  8
TITLE
 10
282.72026749676428
 20
69.79611067567204
 30
0.0
 11
283.76253730211329
 21
70.838380481013843
 31
0.0
  0
LINE
  5
12FA
  8
TITLE
 10
282.72026749676428
 20
70.319819911547924
 30
0.0
 11
283.2388280662301
 21
70.838380481013843
 31
0.0
  0
LINE
  5
12FB
  8
TITLE
 10
282.72026749676428
 20
70.145250166253874
 30
0.0
 11
283.41339781152487
 21
70.838380481013843
 31
0.0
  0
LINE
  5
12FC
  8
TITLE
 10
282.72026749676428
 20
69.970680420959638
 30
0.0
 11
283.58796755681948
 21
70.838380481013843
 31
0.0
  0
LINE
  5
12FD
  8
TITLE
 10
282.72026749676428
 20
70.668959402136494
 30
0.0
 11
282.88968857565629
 21
70.838380481013843
 31
0.0
  0
LINE
  5
12FE
  8
TITLE
 10
282.72026749676428
 20
70.494389656842429
 30
0.0
 11
283.06425832093618
 21
70.838380481013843
 31
0.0
  0
LINE
  5
12FF
  8
TITLE
 10
282.72026749676428
 20
69.272401439796454
 30
0.0
 11
284.28624653799687
 21
70.838380481013843
 31
0.0
  0
LINE
  5
1300
  8
TITLE
 10
282.72026749676428
 20
69.097831694502133
 30
0.0
 11
284.46081628329102
 21
70.838380481013843
 31
0.0
  0
LINE
  5
1301
  8
TITLE
 10
282.72026749676428
 20
68.923261949207543
 30
0.0
 11
284.63538602858512
 21
70.838380481013843
 31
0.0
  0
LINE
  5
1302
  8
TITLE
 10
282.72026749676428
 20
68.748692203914146
 30
0.0
 11
284.80995577386511
 21
70.838380481013843
 31
0.0
  0
LINE
  5
1303
  8
TITLE
 10
282.72747376632202
 20
68.581328728176373
 30
0.0
 11
284.9845255191596
 21
70.838380481013843
 31
0.0
  0
LINE
  5
1304
  8
TITLE
 10
282.90204351161572
 20
68.581328728176373
 30
0.0
 11
285.1590952644533
 21
70.838380481013843
 31
0.0
  0
LINE
  5
1305
  8
TITLE
 10
283.07661325690992
 20
68.581328728176373
 30
0.0
 11
285.33366500974768
 21
70.838380481013843
 31
0.0
  0
LINE
  5
1306
  8
TITLE
 10
283.25118300220453
 20
68.581328728176373
 30
0.0
 11
285.50823475504188
 21
70.838380481013843
 31
0.0
  0
LINE
  5
1307
  8
TITLE
 10
283.42575274749902
 20
68.581328728176373
 30
0.0
 11
285.6828045003362
 21
70.838380481013843
 31
0.0
  0
LINE
  5
1308
  8
TITLE
 10
283.60032249279311
 20
68.581328728176373
 30
0.0
 11
285.85737424563041
 21
70.838380481013843
 31
0.0
  0
LINE
  5
1309
  8
TITLE
 10
283.77489223808811
 20
68.581328728176373
 30
0.0
 11
286.0319439909249
 21
70.838380481013843
 31
0.0
  0
LINE
  5
130A
  8
TITLE
 10
283.94946198338152
 20
68.581328728176373
 30
0.0
 11
286.20651373621962
 21
70.838380481013843
 31
0.0
  0
LINE
  5
130B
  8
TITLE
 10
284.12403172867653
 20
68.581328728176373
 30
0.0
 11
286.38108348151422
 21
70.838380481013843
 31
0.0
  0
LINE
  5
130C
  8
TITLE
 10
292.50532930181402
 20
77.486335537197036
 30
0.0
 11
293.50986300238912
 21
78.490869237772543
 31
0.0
  0
LINE
  5
130D
  8
TITLE
 10
292.67989904710839
 20
77.486335537197036
 30
0.0
 11
293.50986300238912
 21
78.316299492478507
 31
0.0
  0
LINE
  5
130E
  8
TITLE
 10
292.8544687923881
 20
77.486335537197036
 30
0.0
 11
293.50986300238912
 21
78.141729747184257
 31
0.0
  0
LINE
  5
130F
  8
TITLE
 10
293.37817802827198
 20
77.486335537197036
 30
0.0
 11
293.50986300238912
 21
77.618020511308018
 31
0.0
  0
LINE
  5
1310
  8
TITLE
 10
293.02903853768339
 20
77.486335537197036
 30
0.0
 11
293.50986300238912
 21
77.967160001896289
 31
0.0
  0
LINE
  5
1311
  8
TITLE
 10
293.20360828297692
 20
77.486335537197036
 30
0.0
 11
293.50986300238912
 21
77.792590256602054
 31
0.0
  0
LINE
  5
1312
  8
TITLE
 10
295.29637492826532
 20
70.850614917826391
 30
0.0
 11
295.3234261644003
 21
70.877666153963446
 31
0.0
  0
LINE
  5
1313
  8
TITLE
 10
292.50337950273121
 20
68.581328728176373
 30
0.0
 11
294.41640232823721
 21
70.494351553682662
 31
0.0
  0
LINE
  5
1314
  8
TITLE
 10
292.6779492480257
 20
68.581328728176373
 30
0.0
 11
294.41640232823721
 21
70.319781808388143
 31
0.0
  0
LINE
  5
1315
  8
TITLE
 10
292.85251899331962
 20
68.581328728176373
 30
0.0
 11
294.41640232823721
 21
70.145212063093595
 31
0.0
  0
LINE
  5
1316
  8
TITLE
 10
293.02708873861388
 20
68.581328728176373
 30
0.0
 11
294.41640232823721
 21
69.9706423177999
 31
0.0
  0
LINE
  5
1317
  8
TITLE
 10
293.20165848390832
 20
68.581328728176373
 30
0.0
 11
294.41640232823721
 21
69.796072572505039
 31
0.0
  0
LINE
  5
1318
  8
TITLE
 10
293.37622822920332
 20
68.581328728176373
 30
0.0
 11
294.41640232823721
 21
69.621502827210435
 31
0.0
  0
LINE
  5
1319
  8
TITLE
 10
293.55079797448332
 20
68.581328728176373
 30
0.0
 11
294.41640232823721
 21
69.446933081916114
 31
0.0
  0
LINE
  5
131A
  8
TITLE
 10
293.72536771977673
 20
68.581328728176373
 30
0.0
 11
294.41640232823721
 21
69.272363336621893
 31
0.0
  0
LINE
  5
131B
  8
TITLE
 10
293.89993746507139
 20
68.581328728176373
 30
0.0
 11
294.41640232823721
 21
69.097793591335403
 31
0.0
  0
LINE
  5
131C
  8
TITLE
 10
294.07450721036571
 20
68.581328728176373
 30
0.0
 11
294.41640232823721
 21
68.923223846040514
 31
0.0
  0
LINE
  5
131D
  8
TITLE
 10
294.24907695565952
 20
68.581328728176373
 30
0.0
 11
294.41640232823721
 21
68.748654100746279
 31
0.0
  0
LINE
  5
131E
  8
TITLE
 10
289.8867831224141
 20
77.486335537197036
 30
0.0
 11
292.1110240879334
 21
79.71057650271635
 31
0.0
  0
LINE
  5
131F
  8
TITLE
 10
290.06135286770791
 20
77.486335537197036
 30
0.0
 11
292.28559383322772
 21
79.71057650271635
 31
0.0
  0
LINE
  5
1320
  8
TITLE
 10
290.23592261300229
 20
77.486335537197036
 30
0.0
 11
292.46016357852187
 21
79.71057650271635
 31
0.0
  0
LINE
  5
1321
  8
TITLE
 10
288.83741485157952
 20
68.581328728176373
 30
0.0
 11
291.09446660441699
 21
70.838380481013843
 31
0.0
  0
LINE
  5
1322
  8
TITLE
 10
289.01198459687367
 20
68.581328728176373
 30
0.0
 11
291.26903634971131
 21
70.838380481013843
 31
0.0
  0
LINE
  5
1323
  8
TITLE
 10
289.18655434216788
 20
68.581328728176373
 30
0.0
 11
291.44360609500558
 21
70.838380481013843
 31
0.0
  0
LINE
  5
1324
  8
TITLE
 10
289.361124087463
 20
68.581328728176373
 30
0.0
 11
291.61817584030018
 21
70.838380481013843
 31
0.0
  0
LINE
  5
1325
  8
TITLE
 10
289.53569383275669
 20
68.581328728176373
 30
0.0
 11
291.79274558559428
 21
70.838380481013843
 31
0.0
  0
LINE
  5
1326
  8
TITLE
 10
289.71026357805113
 20
68.581328728176373
 30
0.0
 11
291.9673153308886
 21
70.838380481013843
 31
0.0
  0
LINE
  5
1327
  8
TITLE
 10
289.88483332333033
 20
68.581328728176373
 30
0.0
 11
292.14188507616859
 21
70.838380481013843
 31
0.0
  0
LINE
  5
1328
  8
TITLE
 10
290.05940306862499
 20
68.581328728176373
 30
0.0
 11
292.31645482146291
 21
70.838380481013843
 31
0.0
  0
LINE
  5
1329
  8
TITLE
 10
291.10877133946002
 20
77.486335537197036
 30
0.0
 11
293.33301230499319
 21
79.71057650271635
 31
0.0
  0
LINE
  5
132A
  8
TITLE
 10
291.2833410847536
 20
77.486335537197036
 30
0.0
 11
293.50758205028819
 21
79.71057650271635
 31
0.0
  0
LINE
  5
132B
  8
TITLE
 10
291.45791083004792
 20
77.486335537197036
 30
0.0
 11
293.50986300238912
 21
79.538287709531545
 31
0.0
  0
LINE
  5
132C
  8
TITLE
 10
291.63248057534219
 20
77.486335537197036
 30
0.0
 11
293.50986300238912
 21
79.363717964243577
 31
0.0
  0
LINE
  5
132D
  8
TITLE
 10
291.80705032063707
 20
77.486335537197036
 30
0.0
 11
293.50986300238912
 21
79.189148218949342
 31
0.0
  0
LINE
  5
132E
  8
TITLE
 10
291.9816200659306
 20
77.486335537197036
 30
0.0
 11
293.50986300238912
 21
79.01457847365505
 31
0.0
  0
LINE
  5
132F
  8
TITLE
 10
292.15618981122589
 20
77.486335537197036
 30
0.0
 11
293.50986300238912
 21
78.840008728360445
 31
0.0
  0
LINE
  5
1330
  8
TITLE
 10
292.33075955652021
 20
77.486335537197036
 30
0.0
 11
293.50986300238912
 21
78.665438983066736
 31
0.0
  0
LINE
  5
1331
  8
TITLE
 10
290.93420159417968
 20
77.486335537197036
 30
0.0
 11
293.15844255969932
 21
79.71057650271635
 31
0.0
  0
LINE
  5
1332
  8
TITLE
 10
290.41049235829701
 20
77.486335537197036
 30
0.0
 11
292.63473332381608
 21
79.71057650271635
 31
0.0
  0
LINE
  5
1333
  8
TITLE
 10
290.58506210359178
 20
77.486335537197036
 30
0.0
 11
292.80930306911029
 21
79.71057650271635
 31
0.0
  0
LINE
  5
1334
  8
TITLE
 10
290.7596318488861
 20
77.486335537197036
 30
0.0
 11
292.98387281440432
 21
79.71057650271635
 31
0.0
  0
LINE
  5
1335
  8
TITLE
 10
291.10682154039091
 20
68.581328728176373
 30
0.0
 11
293.36387329322861
 21
70.838380481013843
 31
0.0
  0
LINE
  5
1336
  8
TITLE
 10
291.2813912856854
 20
68.581328728176373
 30
0.0
 11
293.53844303852293
 21
70.838380481013843
 31
0.0
  0
LINE
  5
1337
  8
TITLE
 10
291.45596103097978
 20
68.581328728176373
 30
0.0
 11
293.7130127838177
 21
70.838380481013843
 31
0.0
  0
LINE
  5
1338
  8
TITLE
 10
291.6305307762741
 20
68.581328728176373
 30
0.0
 11
293.88758252911163
 21
70.838380481013843
 31
0.0
  0
LINE
  5
1339
  8
TITLE
 10
291.80510052155358
 20
68.581328728176373
 30
0.0
 11
294.06215227439139
 21
70.838380481013843
 31
0.0
  0
LINE
  5
133A
  8
TITLE
 10
291.97967026684802
 20
68.581328728176373
 30
0.0
 11
294.23672201968549
 21
70.838380481013843
 31
0.0
  0
LINE
  5
133B
  8
TITLE
 10
292.15424001214251
 20
68.581328728176373
 30
0.0
 11
294.41129176497998
 21
70.838380481013843
 31
0.0
  0
LINE
  5
133C
  8
TITLE
 10
292.3288097574366
 20
68.581328728176373
 30
0.0
 11
294.41640232823721
 21
70.668921298969735
 31
0.0
  0
LINE
  5
133D
  8
TITLE
 10
290.23397281391959
 20
68.581328728176373
 30
0.0
 11
292.49102456675752
 21
70.838380481013843
 31
0.0
  0
LINE
  5
133E
  8
TITLE
 10
290.40854255921369
 20
68.581328728176373
 30
0.0
 11
292.66559431205133
 21
70.838380481013843
 31
0.0
  0
LINE
  5
133F
  8
TITLE
 10
290.58311230450852
 20
68.581328728176373
 30
0.0
 11
292.84016405734548
 21
70.838380481013843
 31
0.0
  0
LINE
  5
1340
  8
TITLE
 10
290.75768204980233
 20
68.581328728176373
 30
0.0
 11
293.01473380264019
 21
70.838380481013843
 31
0.0
  0
LINE
  5
1341
  8
TITLE
 10
290.93225179509722
 20
68.581328728176373
 30
0.0
 11
293.18930354793451
 21
70.838380481013843
 31
0.0
  0
LINE
  5
1343
  8
TITLE
 10
301.93014574855209
 20
68.581328728176373
 30
0.0
 11
306.09967917879447
 21
72.75086215842552
 31
0.0
  0
LINE
  5
1344
  8
TITLE
 10
302.10471549384579
 20
68.581328728176373
 30
0.0
 11
306.13204066576691
 21
72.608653900104429
 31
0.0
  0
LINE
  5
1345
  8
TITLE
 10
302.27928523914039
 20
68.581328728176373
 30
0.0
 11
306.16440215274002
 21
72.466445641783423
 31
0.0
  0
LINE
  5
1346
  8
TITLE
 10
302.45385498443488
 20
68.581328728176373
 30
0.0
 11
306.1967636397128
 21
72.324237383461565
 31
0.0
  0
LINE
  5
1347
  8
TITLE
 10
302.62842472972932
 20
68.581328728176373
 30
0.0
 11
306.2291251266858
 21
72.18202912513928
 31
0.0
  0
LINE
  5
1348
  8
TITLE
 10
302.80299447500983
 20
68.581328728176373
 30
0.0
 11
306.26148661365812
 21
72.039820866818843
 31
0.0
  0
LINE
  5
1349
  8
TITLE
 10
303.99689855364892
 20
71.171790769149482
 30
0.0
 11
306.00259471789042
 21
73.177486933390384
 31
0.0
  0
LINE
  5
134A
  8
TITLE
 10
304.02926004060708
 20
71.02958251082751
 30
0.0
 11
306.03495620484961
 21
73.035278675068483
 31
0.0
  0
LINE
  5
134B
  8
TITLE
 10
304.06162152758031
 20
70.887374252505595
 30
0.0
 11
306.0673176918217
 21
72.89307041674806
 31
0.0
  0
LINE
  5
134C
  8
TITLE
 10
303.83509111878578
 20
71.882832060756414
 30
0.0
 11
305.84078728302688
 21
73.888528224997955
 31
0.0
  0
LINE
  5
134D
  8
TITLE
 10
303.86745260575799
 20
71.740623802435067
 30
0.0
 11
305.87314876999972
 21
73.746319966676353
 31
0.0
  0
LINE
  5
134E
  8
TITLE
 10
303.89981409273111
 20
71.59841554411399
 30
0.0
 11
305.905510256973
 21
73.604111708354964
 31
0.0
  0
LINE
  5
134F
  8
TITLE
 10
303.93217557970331
 20
71.456207285792374
 30
0.0
 11
305.93787174394561
 21
73.461903450033915
 31
0.0
  0
LINE
  5
1350
  8
TITLE
 10
303.96453706667648
 20
71.313999027470473
 30
0.0
 11
305.97023323091798
 21
73.319695191712285
 31
0.0
  0
LINE
  5
1351
  8
TITLE
 10
302.97756422030352
 20
68.581328728176373
 30
0.0
 11
306.29384810063129
 21
71.897612608489396
 31
0.0
  0
LINE
  5
1352
  8
TITLE
 10
303.15213396559813
 20
68.581328728176373
 30
0.0
 11
306.32620958758957
 21
71.755404350167723
 31
0.0
  0
LINE
  5
1353
  8
TITLE
 10
303.32670371089188
 20
68.581328728176373
 30
0.0
 11
306.35857107456241
 21
71.613196091846419
 31
0.0
  0
LINE
  5
1354
  8
TITLE
 10
303.5012734561862
 20
68.581328728176373
 30
0.0
 11
306.39093256153541
 21
71.470987833524504
 31
0.0
  0
LINE
  5
1355
  8
TITLE
 10
303.67584320148097
 20
68.581328728176373
 30
0.0
 11
306.42329404850801
 21
71.328779575203725
 31
0.0
  0
LINE
  5
1356
  8
TITLE
 10
303.85041294677512
 20
68.581328728176373
 30
0.0
 11
306.4556555354809
 21
71.18657131688181
 31
0.0
  0
LINE
  5
1357
  8
TITLE
 10
304.02498269206927
 20
68.581328728176373
 30
0.0
 11
306.48801702245402
 21
71.044363058560464
 31
0.0
  0
LINE
  5
1358
  8
TITLE
 10
304.19955243736399
 20
68.581328728176373
 30
0.0
 11
306.52037850942588
 21
70.902154800238819
 31
0.0
  0
LINE
  5
1359
  8
TITLE
 10
304.37412218265808
 20
68.581328728176373
 30
0.0
 11
306.5527399963994
 21
70.759946541917856
 31
0.0
  0
LINE
  5
135A
  8
TITLE
 10
304.54869192793808
 20
68.581328728176373
 30
0.0
 11
306.58510148335751
 21
70.6177382835956
 31
0.0
  0
LINE
  5
135B
  8
TITLE
 10
304.723261673232
 20
68.581328728176373
 30
0.0
 11
306.61746297033028
 21
70.475530025274594
 31
0.0
  0
LINE
  5
135C
  8
TITLE
 10
304.89783141852649
 20
68.581328728176373
 30
0.0
 11
306.64982445730362
 21
70.333321766952992
 31
0.0
  0
LINE
  5
135D
  8
TITLE
 10
305.07240116382093
 20
68.581328728176373
 30
0.0
 11
306.68218594427651
 21
70.191113508630991
 31
0.0
  0
LINE
  5
135E
  8
TITLE
 10
303.44675327512653
 20
73.589331160622564
 30
0.0
 11
305.29083845475532
 21
75.433416340251298
 31
0.0
  0
LINE
  5
135F
  8
TITLE
 10
303.47911476209879
 20
73.447122902300904
 30
0.0
 11
305.46540820004952
 21
75.433416340251298
 31
0.0
  0
LINE
  5
1360
  8
TITLE
 10
303.51147624907151
 20
73.30491464397906
 30
0.0
 11
305.5171724133138
 21
75.310610808220858
 31
0.0
  0
LINE
  5
1361
  8
TITLE
 10
303.54383773604559
 20
73.162706385658055
 30
0.0
 11
305.54953390028601
 21
75.168402549898971
 31
0.0
  0
LINE
  5
1362
  8
TITLE
 10
303.57619922301723
 20
73.020498127335784
 30
0.0
 11
305.58189538725901
 21
75.02619429157761
 31
0.0
  0
LINE
  5
1363
  8
TITLE
 10
303.60856070999012
 20
72.878289869014139
 30
0.0
 11
305.6142568742315
 21
74.883986033255724
 31
0.0
  0
LINE
  5
1364
  8
TITLE
 10
303.640922196963
 20
72.736081610693716
 30
0.0
 11
305.6466183612045
 21
74.741777774934619
 31
0.0
  0
LINE
  5
1365
  8
TITLE
 10
303.67328368393561
 20
72.593873352371773
 30
0.0
 11
305.67897984817722
 21
74.599569516613002
 31
0.0
  0
LINE
  5
1366
  8
TITLE
 10
303.7056451709085
 20
72.451665094049915
 30
0.0
 11
305.71134133514948
 21
74.457361258291741
 31
0.0
  0
LINE
  5
1367
  8
TITLE
 10
303.73800665786712
 20
72.309456835728284
 30
0.0
 11
305.74370282210788
 21
74.31515299996974
 31
0.0
  0
LINE
  5
1368
  8
TITLE
 10
303.77036814483989
 20
72.167248577406923
 30
0.0
 11
305.77606430908099
 21
74.172944741641743
 31
0.0
  0
LINE
  5
1369
  8
TITLE
 10
303.80272963181261
 20
72.025040319085321
 30
0.0
 11
305.80842579605383
 21
74.030736483319885
 31
0.0
  0
LINE
  5
136A
  8
TITLE
 10
298.38911288541709
 20
77.958457016726641
 30
0.0
 11
300.14123237141388
 21
79.71057650271635
 31
0.0
  0
LINE
  5
136B
  8
TITLE
 10
298.29735624325951
 20
77.692130629282701
 30
0.0
 11
300.31580211670808
 21
79.71057650271635
 31
0.0
  0
LINE
  5
136C
  8
TITLE
 10
298.20559960110251
 20
77.425804241831443
 30
0.0
 11
300.49037186200241
 21
79.71057650271635
 31
0.0
  0
LINE
  5
136D
  8
TITLE
 10
298.11384295896022
 20
77.159477854378963
 30
0.0
 11
300.6649416072969
 21
79.71057650271635
 31
0.0
  0
LINE
  5
136E
  8
TITLE
 10
298.66438281188903
 20
78.757436179074304
 30
0.0
 11
299.61752313553069
 21
79.71057650271635
 31
0.0
  0
LINE
  5
136F
  8
TITLE
 10
298.57262616973151
 20
78.491109791622563
 30
0.0
 11
299.79209288082552
 21
79.71057650271635
 31
0.0
  0
LINE
  5
1370
  8
TITLE
 10
298.48086952757433
 20
78.224783404178211
 30
0.0
 11
299.96666262611973
 21
79.71057650271635
 31
0.0
  0
LINE
  5
1371
  8
TITLE
 10
298.8478960962039
 20
79.290088953977516
 30
0.0
 11
299.26838364494262
 21
79.71057650271635
 31
0.0
  0
LINE
  5
1372
  8
TITLE
 10
298.75613945404621
 20
79.023762566526443
 30
0.0
 11
299.44295339023688
 21
79.71057650271635
 31
0.0
  0
LINE
  5
1373
  8
TITLE
 10
298.93965273836108
 20
79.556415341429002
 30
0.0
 11
299.09381389964813
 21
79.71057650271635
 31
0.0
  0
LINE
  5
1374
  8
TITLE
 10
297.74681639033059
 20
76.094172304580326
 30
0.0
 11
301.3632205884598
 21
79.71057650271635
 31
0.0
  0
LINE
  5
1375
  8
TITLE
 10
297.65505974817307
 20
75.827845917135477
 30
0.0
 11
301.53232615418761
 21
79.705112323156598
 31
0.0
  0
LINE
  5
1376
  8
TITLE
 10
297.56330310601612
 20
75.561519529683963
 30
0.0
 11
301.44056951204419
 21
79.438785935705283
 31
0.0
  0
LINE
  5
1377
  8
TITLE
 10
298.02208631680247
 20
76.893151466927463
 30
0.0
 11
300.83951135257712
 21
79.71057650271635
 31
0.0
  0
LINE
  5
1378
  8
TITLE
 10
297.93032967464529
 20
76.626825079476475
 30
0.0
 11
301.01408109787133
 21
79.71057650271635
 31
0.0
  0
LINE
  5
1379
  8
TITLE
 10
297.838573032488
 20
76.360498692031939
 30
0.0
 11
301.18865084316548
 21
79.71057650271635
 31
0.0
  0
LINE
  5
137A
  8
TITLE
 10
300.70815753150629
 20
68.581328728176373
 30
0.0
 11
302.92774405592741
 21
70.800915252611532
 31
0.0
  0
LINE
  5
137B
  8
TITLE
 10
300.88272727678623
 20
68.581328728176373
 30
0.0
 11
303.10231380122201
 21
70.800915252611532
 31
0.0
  0
LINE
  5
137C
  8
TITLE
 10
301.05729702208032
 20
68.581328728176373
 30
0.0
 11
303.27688354651559
 21
70.800915252611532
 31
0.0
  0
LINE
  5
137D
  8
TITLE
 10
301.23186676737492
 20
68.581328728176373
 30
0.0
 11
303.45145329181059
 21
70.800915252611532
 31
0.0
  0
LINE
  5
137E
  8
TITLE
 10
301.40643651266919
 20
68.581328728176373
 30
0.0
 11
303.62602303710491
 21
70.800915252611532
 31
0.0
  0
LINE
  5
137F
  8
TITLE
 10
301.58100625796328
 20
68.581328728176373
 30
0.0
 11
303.80059278239912
 21
70.800915252611532
 31
0.0
  0
LINE
  5
1380
  8
TITLE
 10
301.75557600325811
 20
68.581328728176373
 30
0.0
 11
303.9751625276935
 21
70.800915252611532
 31
0.0
  0
LINE
  5
1381
  8
TITLE
 10
303.34966881422218
 20
74.015955935586874
 30
0.0
 11
304.76712921888702
 21
75.433416340251298
 31
0.0
  0
LINE
  5
1382
  8
TITLE
 10
303.3820303011953
 20
73.873747677265001
 30
0.0
 11
304.94169896416639
 21
75.433416340251298
 31
0.0
  0
LINE
  5
1383
  8
TITLE
 10
303.41439178816739
 20
73.73153941894364
 30
0.0
 11
305.11626870946088
 21
75.433416340251298
 31
0.0
  0
LINE
  5
1384
  8
TITLE
 10
303.25258435330352
 20
74.442580710551724
 30
0.0
 11
304.24341998300378
 21
75.433416340251298
 31
0.0
  0
LINE
  5
1385
  8
TITLE
 10
303.28494584027629
 20
74.30037245222988
 30
0.0
 11
304.41798972829838
 21
75.433416340251298
 31
0.0
  0
LINE
  5
1386
  8
TITLE
 10
303.31730732724952
 20
74.158164193907623
 30
0.0
 11
304.59255947359202
 21
75.433416340251298
 31
0.0
  0
LINE
  5
1387
  8
TITLE
 10
303.12313840542731
 20
75.01141374383738
 30
0.0
 11
303.54514100182632
 21
75.433416340251298
 31
0.0
  0
LINE
  5
1388
  8
TITLE
 10
303.15549989238571
 20
74.869205485516645
 30
0.0
 11
303.7197107471211
 21
75.433416340251298
 31
0.0
  0
LINE
  5
1389
  8
TITLE
 10
303.18786137935859
 20
74.726997227194474
 30
0.0
 11
303.89428049241519
 21
75.433416340251298
 31
0.0
  0
LINE
  5
138A
  8
TITLE
 10
303.22022286633143
 20
74.584788968872843
 30
0.0
 11
304.06885023770928
 21
75.433416340251298
 31
0.0
  0
LINE
  5
138B
  8
TITLE
 10
303.05841543148199
 20
75.295830260481253
 30
0.0
 11
303.1960015112378
 21
75.433416340251298
 31
0.0
  0
LINE
  5
138C
  8
TITLE
 10
303.09077691845408
 20
75.153622002158713
 30
0.0
 11
303.37057125653212
 21
75.433416340251298
 31
0.0
  0
LINE
  5
138D
  8
TITLE
 10
297.04219288035461
 20
68.581328728176373
 30
0.0
 11
299.26177940477629
 21
70.800915252611532
 31
0.0
  0
LINE
  5
138E
  8
TITLE
 10
297.2167626256346
 20
68.581328728176373
 30
0.0
 11
299.4363491500701
 21
70.800915252611532
 31
0.0
  0
LINE
  5
138F
  8
TITLE
 10
297.39133237092932
 20
68.581328728176373
 30
0.0
 11
299.61091889536448
 21
70.800915252611532
 31
0.0
  0
LINE
  5
1390
  8
TITLE
 10
297.5659021162233
 20
68.581328728176373
 30
0.0
 11
299.78548864065851
 21
70.800915252611532
 31
0.0
  0
LINE
  5
1391
  8
TITLE
 10
297.74047186151739
 20
68.581328728176373
 30
0.0
 11
299.96005838595329
 21
70.800915252611532
 31
0.0
  0
LINE
  5
1392
  8
TITLE
 10
297.91504160681143
 20
68.581328728176373
 30
0.0
 11
300.13462813124721
 21
70.800915252611532
 31
0.0
  0
LINE
  5
1393
  8
TITLE
 10
298.08961135210632
 20
68.581328728176373
 30
0.0
 11
300.30919787654148
 21
70.800915252611532
 31
0.0
  0
LINE
  5
1394
  8
TITLE
 10
298.26418109740018
 20
68.581328728176373
 30
0.0
 11
300.48376762183648
 21
70.800915252611532
 31
0.0
  0
LINE
  5
1395
  8
TITLE
 10
298.4387508426953
 20
68.581328728176373
 30
0.0
 11
300.65833736711579
 21
70.800915252611532
 31
0.0
  0
LINE
  5
1396
  8
TITLE
 10
298.61332058798888
 20
68.581328728176373
 30
0.0
 11
300.83290711241028
 21
70.800915252611532
 31
0.0
  0
LINE
  5
1397
  8
TITLE
 10
300.35901804091822
 20
68.581328728176373
 30
0.0
 11
302.57860456533859
 21
70.800915252611532
 31
0.0
  0
LINE
  5
1398
  8
TITLE
 10
300.53358778621168
 20
68.581328728176373
 30
0.0
 11
302.75317431063331
 21
70.800915252611532
 31
0.0
  0
LINE
  5
1399
  8
TITLE
 10
298.78789033328309
 20
68.581328728176373
 30
0.0
 11
301.00747685770432
 21
70.800915252611532
 31
0.0
  0
LINE
  5
139A
  8
TITLE
 10
298.96246007857758
 20
68.581328728176373
 30
0.0
 11
301.18204660299932
 21
70.800915252611532
 31
0.0
  0
LINE
  5
139B
  8
TITLE
 10
299.13702982385797
 20
68.581328728176373
 30
0.0
 11
301.35661634829302
 21
70.800915252611532
 31
0.0
  0
LINE
  5
139C
  8
TITLE
 10
299.31159956915189
 20
68.581328728176373
 30
0.0
 11
301.53118609358722
 21
70.800915252611532
 31
0.0
  0
LINE
  5
139D
  8
TITLE
 10
299.48616931444548
 20
68.581328728176373
 30
0.0
 11
301.70575583888223
 21
70.800915252611532
 31
0.0
  0
LINE
  5
139E
  8
TITLE
 10
299.66073905974031
 20
68.581328728176373
 30
0.0
 11
301.88032558417592
 21
70.800915252611532
 31
0.0
  0
LINE
  5
139F
  8
TITLE
 10
299.83530880503451
 20
68.581328728176373
 30
0.0
 11
302.05489532947013
 21
70.800915252611532
 31
0.0
  0
LINE
  5
13A0
  8
TITLE
 10
300.00987855032929
 20
68.581328728176373
 30
0.0
 11
302.22946507476541
 21
70.800915252611532
 31
0.0
  0
LINE
  5
13A1
  8
TITLE
 10
300.18444829562321
 20
68.581328728176373
 30
0.0
 11
302.40403482004427
 21
70.800915252611532
 31
0.0
  0
LINE
  5
13A2
  8
TITLE
 10
297.47154646385832
 20
75.295193142232918
 30
0.0
 11
301.3488128698869
 21
79.17245954826042
 31
0.0
  0
LINE
  5
13A3
  8
TITLE
 10
297.37978982170108
 20
75.028866754780225
 30
0.0
 11
301.25705622773012
 21
78.90613316080946
 31
0.0
  0
LINE
  5
13A4
  8
TITLE
 10
297.28803317954339
 20
74.762540367329805
 30
0.0
 11
301.1652995855722
 21
78.639806773357563
 31
0.0
  0
LINE
  5
13A5
  8
TITLE
 10
297.1962765373874
 20
74.496213979885241
 30
0.0
 11
301.07354294341508
 21
78.373480385906092
 31
0.0
  0
LINE
  5
13A6
  8
TITLE
 10
297.10451989522932
 20
74.229887592440093
 30
0.0
 11
300.98178630125813
 21
78.107153998454265
 31
0.0
  0
LINE
  5
13A7
  8
TITLE
 10
297.01276325307248
 20
73.963561204988892
 30
0.0
 11
300.89002965910021
 21
77.840827611010582
 31
0.0
  0
LINE
  5
13A8
  8
TITLE
 10
308.96334103186967
 20
78.058500445599876
 30
0.0
 11
310.61541708898648
 21
79.71057650271635
 31
0.0
  0
LINE
  5
13A9
  8
TITLE
 10
309.13791077716388
 20
78.058500445599876
 30
0.0
 11
310.78998683428102
 21
79.71057650271635
 31
0.0
  0
LINE
  5
13AA
  8
TITLE
 10
309.31248052245792
 20
78.058500445599876
 30
0.0
 11
310.96455657957517
 21
79.71057650271635
 31
0.0
  0
LINE
  5
13AB
  8
TITLE
 10
309.48705026775229
 20
78.058500445599876
 30
0.0
 11
311.1391263248691
 21
79.71057650271635
 31
0.0
  0
LINE
  5
13AC
  8
TITLE
 10
309.66162001304701
 20
78.058500445599876
 30
0.0
 11
311.31369607016421
 21
79.71057650271635
 31
0.0
  0
LINE
  5
13AD
  8
TITLE
 10
309.83618975834088
 20
78.058500445599876
 30
0.0
 11
311.48826581545768
 21
79.71057650271635
 31
0.0
  0
LINE
  5
13AE
  8
TITLE
 10
310.01075950363543
 20
78.058500445599876
 30
0.0
 11
311.662835560752
 21
79.71057650271635
 31
0.0
  0
LINE
  5
13AF
  8
TITLE
 10
310.18532924892969
 20
78.058500445599876
 30
0.0
 11
311.837405306032
 21
79.71057650271635
 31
0.0
  0
LINE
  5
13B0
  8
TITLE
 10
310.35989899420969
 20
78.058500445599876
 30
0.0
 11
312.0119750513266
 21
79.71057650271635
 31
0.0
  0
LINE
  5
13B1
  8
TITLE
 10
310.53446873950418
 20
78.058500445599876
 30
0.0
 11
312.18654479662132
 21
79.71057650271635
 31
0.0
  0
LINE
  5
13B2
  8
TITLE
 10
310.7090384847985
 20
78.058500445599876
 30
0.0
 11
312.36111454191519
 21
79.71057650271635
 31
0.0
  0
LINE
  5
13B3
  8
TITLE
 10
310.88360823009288
 20
78.058500445599876
 30
0.0
 11
312.53568428720968
 21
79.71057650271635
 31
0.0
  0
LINE
  5
13B4
  8
TITLE
 10
311.05817797538703
 20
78.058500445599876
 30
0.0
 11
312.71025403250349
 21
79.71057650271635
 31
0.0
  0
LINE
  5
13B5
  8
TITLE
 10
311.2327477206818
 20
78.058500445599876
 30
0.0
 11
312.88482377779837
 21
79.71057650271635
 31
0.0
  0
LINE
  5
13B6
  8
TITLE
 10
311.40731746597589
 20
78.058500445599876
 30
0.0
 11
313.05939352309252
 21
79.71057650271635
 31
0.0
  0
LINE
  5
13B7
  8
TITLE
 10
311.58188721127021
 20
78.058500445599876
 30
0.0
 11
313.23396326838701
 21
79.71057650271635
 31
0.0
  0
LINE
  5
13B8
  8
TITLE
 10
308.91293556026699
 20
68.581328728176373
 30
0.0
 11
310.61779968699273
 21
70.28619285490953
 31
0.0
  0
LINE
  5
13B9
  8
TITLE
 10
309.08750530556148
 20
68.581328728176373
 30
0.0
 11
310.79236943228688
 21
70.28619285490953
 31
0.0
  0
LINE
  5
13BA
  8
TITLE
 10
309.26207505085608
 20
68.581328728176373
 30
0.0
 11
310.96693917758171
 21
70.28619285490953
 31
0.0
  0
LINE
  5
13BB
  8
TITLE
 10
309.43664479615018
 20
68.581328728176373
 30
0.0
 11
311.14150892287603
 21
70.28619285490953
 31
0.0
  0
LINE
  5
13BC
  8
TITLE
 10
309.6112145414441
 20
68.581328728176373
 30
0.0
 11
311.3160786681695
 21
70.28619285490953
 31
0.0
  0
LINE
  5
13BD
  8
TITLE
 10
309.78578428673848
 20
68.581328728176373
 30
0.0
 11
311.49064841346399
 21
70.28619285490953
 31
0.0
  0
LINE
  5
13BE
  8
TITLE
 10
309.9603540320179
 20
68.581328728176373
 30
0.0
 11
311.66521815875939
 21
70.28619285490953
 31
0.0
  0
LINE
  5
13BF
  8
TITLE
 10
310.13492377731291
 20
68.581328728176373
 30
0.0
 11
311.83978790405303
 21
70.28619285490953
 31
0.0
  0
LINE
  5
13C0
  8
TITLE
 10
310.30949352260751
 20
68.581328728176373
 30
0.0
 11
312.0143576493474
 21
70.28619285490953
 31
0.0
  0
LINE
  5
13C1
  8
TITLE
 10
310.48406326790177
 20
68.581328728176373
 30
0.0
 11
312.18892739464201
 21
70.28619285490953
 31
0.0
  0
LINE
  5
13C2
  8
TITLE
 10
310.65863301319553
 20
68.581328728176373
 30
0.0
 11
312.36349713992149
 21
70.28619285490953
 31
0.0
  0
LINE
  5
13C3
  8
TITLE
 10
308.40766447691482
 20
79.248521343573543
 30
0.0
 11
308.86971963605743
 21
79.71057650271635
 31
0.0
  0
LINE
  5
13C4
  8
TITLE
 10
308.40766447691482
 20
79.597660834155207
 30
0.0
 11
308.52058014546901
 21
79.71057650271635
 31
0.0
  0
LINE
  5
13C5
  8
TITLE
 10
308.40766447691482
 20
79.423091088861483
 30
0.0
 11
308.69514989076328
 21
79.71057650271635
 31
0.0
  0
LINE
  5
13C6
  8
TITLE
 10
308.05215885893728
 20
69.640819225068896
 30
0.0
 11
308.69753248876953
 21
70.28619285490953
 31
0.0
  0
LINE
  5
13C7
  8
TITLE
 10
308.05215885893728
 20
69.466249479774916
 30
0.0
 11
308.8721022340635
 21
70.28619285490953
 31
0.0
  0
LINE
  5
13C8
  8
TITLE
 10
308.05215885893728
 20
69.815388970363472
 30
0.0
 11
308.52296274347532
 21
70.28619285490953
 31
0.0
  0
LINE
  5
13C9
  8
TITLE
 10
305.24697090911559
 20
68.581328728176373
 30
0.0
 11
306.7145474312486
 21
70.048905250309716
 31
0.0
  0
LINE
  5
13CA
  8
TITLE
 10
305.4215406544098
 20
68.581328728176373
 30
0.0
 11
306.74690891822218
 21
69.906696991988099
 31
0.0
  0
LINE
  5
13CB
  8
TITLE
 10
305.596110399704
 20
68.581328728176373
 30
0.0
 11
306.77927040519421
 21
69.764488733666738
 31
0.0
  0
LINE
  5
13CC
  8
TITLE
 10
305.7706801449981
 20
68.581328728176373
 30
0.0
 11
306.8116318921671
 21
69.622280475345661
 31
0.0
  0
LINE
  5
13CD
  8
TITLE
 10
305.94524989029242
 20
68.581328728176373
 30
0.0
 11
306.84399337913948
 21
69.480072217023775
 31
0.0
  0
LINE
  5
13CE
  8
TITLE
 10
306.11981963558702
 20
68.581328728176373
 30
0.0
 11
306.87635486609918
 21
69.337863958701888
 31
0.0
  0
LINE
  5
13CF
  8
TITLE
 10
306.2943893808669
 20
68.581328728176373
 30
0.0
 11
306.90871635307121
 21
69.195655700380243
 31
0.0
  0
LINE
  5
13D0
  8
TITLE
 10
306.46895912616151
 20
68.581328728176373
 30
0.0
 11
306.9410778400445
 21
69.053447442058896
 31
0.0
  0
LINE
  5
13D1
  8
TITLE
 10
306.64352887145537
 20
68.581328728176373
 30
0.0
 11
306.97343932701688
 21
68.91123918373782
 31
0.0
  0
LINE
  5
13D2
  8
TITLE
 10
306.81809861674952
 20
68.581328728176373
 30
0.0
 11
307.00580081398931
 21
68.76903092541616
 31
0.0
  0
LINE
  5
13D3
  8
TITLE
 10
306.99266836204401
 20
68.581328728176373
 30
0.0
 11
307.03816230096169
 21
68.626822667094288
 31
0.0
  0
LINE
  5
13D4
  8
TITLE
 10
308.05215885893728
 20
70.164528460945661
 30
0.0
 11
308.17382325290168
 21
70.28619285490953
 31
0.0
  0
LINE
  5
13D5
  8
TITLE
 10
308.05215885893728
 20
69.989958715657792
 30
0.0
 11
308.34839299819561
 21
70.28619285490953
 31
0.0
  0
LINE
  5
13D6
  8
TITLE
 10
308.21465657908948
 20
68.581328728176373
 30
0.0
 11
309.91952070583011
 21
70.28619285490953
 31
0.0
  0
LINE
  5
13D7
  8
TITLE
 10
308.38922632438403
 20
68.581328728176373
 30
0.0
 11
310.09409045112398
 21
70.28619285490953
 31
0.0
  0
LINE
  5
13D8
  8
TITLE
 10
308.56379606967789
 20
68.581328728176373
 30
0.0
 11
310.2686601964183
 21
70.28619285490953
 31
0.0
  0
LINE
  5
13D9
  8
TITLE
 10
308.73836581497289
 20
68.581328728176373
 30
0.0
 11
310.44322994169852
 21
70.28619285490953
 31
0.0
  0
LINE
  5
13DA
  8
TITLE
 10
308.05215885893728
 20
68.593400753310505
 30
0.0
 11
309.74495096053579
 21
70.28619285490953
 31
0.0
  0
LINE
  5
13DB
  8
TITLE
 10
308.05215885893728
 20
69.29167973448034
 30
0.0
 11
309.04667197935851
 21
70.28619285490953
 31
0.0
  0
LINE
  5
13DC
  8
TITLE
 10
308.05215885893728
 20
69.117109989186105
 30
0.0
 11
309.22124172465249
 21
70.28619285490953
 31
0.0
  0
LINE
  5
13DD
  8
TITLE
 10
308.05215885893728
 20
68.942540243891784
 30
0.0
 11
309.39581146994692
 21
70.28619285490953
 31
0.0
  0
LINE
  5
13DE
  8
TITLE
 10
308.05215885893728
 20
68.767970498598373
 30
0.0
 11
309.57038121524153
 21
70.28619285490953
 31
0.0
  0
LINE
  5
13DF
  8
TITLE
 10
308.40766447691482
 20
78.37567261710214
 30
0.0
 11
309.74256836252971
 21
79.71057650271635
 31
0.0
  0
LINE
  5
13E0
  8
TITLE
 10
308.40766447691482
 20
78.201102871807635
 30
0.0
 11
309.91713810780931
 21
79.71057650271635
 31
0.0
  0
LINE
  5
13E1
  8
TITLE
 10
308.43963179600081
 20
78.058500445599876
 30
0.0
 11
310.09170785310363
 21
79.71057650271635
 31
0.0
  0
LINE
  5
13E2
  8
TITLE
 10
308.61420154128132
 20
78.058500445599876
 30
0.0
 11
310.26627759839738
 21
79.71057650271635
 31
0.0
  0
LINE
  5
13E3
  8
TITLE
 10
308.78877128657552
 20
78.058500445599876
 30
0.0
 11
310.44084734369221
 21
79.71057650271635
 31
0.0
  0
LINE
  5
13E4
  8
TITLE
 10
308.40766447691482
 20
79.073951598279834
 30
0.0
 11
309.04428938135152
 21
79.71057650271635
 31
0.0
  0
LINE
  5
13E5
  8
TITLE
 10
308.40766447691482
 20
78.899381852985016
 30
0.0
 11
309.2188591266459
 21
79.71057650271635
 31
0.0
  0
LINE
  5
13E6
  8
TITLE
 10
308.40766447691482
 20
78.724812107690781
 30
0.0
 11
309.39342887194039
 21
79.71057650271635
 31
0.0
  0
LINE
  5
13E7
  8
TITLE
 10
308.40766447691482
 20
78.55024236239646
 30
0.0
 11
309.56799861723522
 21
79.71057650271635
 31
0.0
  0
LINE
  5
13E9
  8
TITLE
 10
329.20378012589379
 20
77.525139849766603
 30
0.0
 11
330.50807049346349
 21
78.829430217329374
 31
0.0
  0
LINE
  5
13EA
  8
TITLE
 10
329.37834987118799
 20
77.525139849766603
 30
0.0
 11
330.6826402387581
 21
78.829430217329374
 31
0.0
  0
LINE
  5
13EB
  8
TITLE
 10
329.55291961648197
 20
77.525139849766603
 30
0.0
 11
330.85720998403798
 21
78.829430217329374
 31
0.0
  0
LINE
  5
13EC
  8
TITLE
 10
329.72748936177618
 20
77.525139849766603
 30
0.0
 11
331.0317797293319
 21
78.829430217329374
 31
0.0
  0
LINE
  5
13ED
  8
TITLE
 10
326.6975495804918
 20
75.542618540239374
 30
0.0
 11
329.98436125758099
 21
78.829430217329374
 31
0.0
  0
LINE
  5
13EE
  8
TITLE
 10
326.87211932578538
 20
75.542618540239374
 30
0.0
 11
330.15893100287491
 21
78.829430217329374
 31
0.0
  0
LINE
  5
13EF
  8
TITLE
 10
327.04668907108021
 20
75.542618540239374
 30
0.0
 11
330.3335007481694
 21
78.829430217329374
 31
0.0
  0
LINE
  5
13F0
  8
TITLE
 10
327.38431151611741
 20
76.927659457042552
 30
0.0
 11
330.16722856179172
 21
79.71057650271635
 31
0.0
  0
LINE
  5
13F1
  8
TITLE
 10
327.34059912783408
 20
76.709377323450497
 30
0.0
 11
330.32766814272208
 21
79.696446338353354
 31
0.0
  0
LINE
  5
13F2
  8
TITLE
 10
327.47173629271128
 20
77.364223724211698
 30
0.0
 11
329.8180890712174
 21
79.71057650271635
 31
0.0
  0
LINE
  5
13F3
  8
TITLE
 10
327.42802390441352
 20
77.145941590626364
 30
0.0
 11
329.99265881649688
 21
79.71057650271635
 31
0.0
  0
LINE
  5
13F4
  8
TITLE
 10
328.79238652400852
 20
75.542618540239374
 30
0.0
 11
329.94016209663118
 21
76.690394112862521
 31
0.0
  0
LINE
  5
13F5
  8
TITLE
 10
328.96695626928903
 20
75.542618540239374
 30
0.0
 11
330.11473184191118
 21
76.690394112862521
 31
0.0
  0
LINE
  5
13F6
  8
TITLE
 10
329.14152601458318
 20
75.542618540239374
 30
0.0
 11
330.2893015872055
 21
76.690394112862521
 31
0.0
  0
LINE
  5
13F7
  8
TITLE
 10
329.31609575987699
 20
75.542618540239374
 30
0.0
 11
330.46387133249988
 21
76.690394112862521
 31
0.0
  0
LINE
  5
13F8
  8
TITLE
 10
329.49066550517148
 20
75.542618540239374
 30
0.0
 11
330.63844107779391
 21
76.690394112862521
 31
0.0
  0
LINE
  5
13F9
  8
TITLE
 10
329.66523525046551
 20
75.542618540239374
 30
0.0
 11
330.81301082308801
 21
76.690394112862521
 31
0.0
  0
LINE
  5
13FA
  8
TITLE
 10
328.84244804668128
 20
71.577575921171643
 30
0.0
 11
329.83370857852577
 21
72.568836453022996
 31
0.0
  0
LINE
  5
13FB
  8
TITLE
 10
329.01701779197577
 20
71.577575921171643
 30
0.0
 11
330.00827832381913
 21
72.568836453022996
 31
0.0
  0
LINE
  5
13FC
  8
TITLE
 10
329.1915875372697
 20
71.577575921171643
 30
0.0
 11
330.18284806911379
 21
72.568836453022996
 31
0.0
  0
LINE
  5
13FD
  8
TITLE
 10
329.36615728256402
 20
71.577575921171643
 30
0.0
 11
330.35741781440828
 21
72.568836453022996
 31
0.0
  0
LINE
  5
13FE
  8
TITLE
 10
329.54072702785862
 20
71.577575921171643
 30
0.0
 11
330.53198755970197
 21
72.568836453022996
 31
0.0
  0
LINE
  5
13FF
  8
TITLE
 10
329.71529677313788
 20
71.577575921171643
 30
0.0
 11
330.70655730499732
 21
72.568836453022996
 31
0.0
  0
LINE
  5
1400
  8
TITLE
 10
328.82318729634022
 20
69.114338736732691
 30
0.0
 11
329.88442937897958
 21
70.175580819378411
 31
0.0
  0
LINE
  5
1401
  8
TITLE
 10
328.94111944391108
 20
69.057701139015904
 30
0.0
 11
330.00600758689211
 21
70.122589281988382
 31
0.0
  0
LINE
  5
1402
  8
TITLE
 10
329.06158909446179
 20
69.003601044271818
 30
0.0
 11
330.13360187798111
 21
70.075613827791614
 31
0.0
  0
LINE
  5
1403
  8
TITLE
 10
329.18467198365738
 20
68.952114188166206
 30
0.0
 11
330.26772739039529
 21
70.035169594910485
 31
0.0
  0
LINE
  5
1404
  8
TITLE
 10
329.31045323193803
 20
68.903325691167922
 30
0.0
 11
330.40905980513048
 21
70.001932264352632
 31
0.0
  0
LINE
  5
1405
  8
TITLE
 10
329.43902855610497
 20
68.857331270032262
 30
0.0
 11
330.55850059699992
 21
69.976803310927721
 31
0.0
  0
LINE
  5
1406
  8
TITLE
 10
329.57050572434702
 20
68.814238692979643
 30
0.0
 11
330.71728408406102
 21
69.961017052694302
 31
0.0
  0
LINE
  5
1407
  8
TITLE
 10
329.70500631462619
 20
68.774169537964923
 30
0.0
 11
330.88716414520701
 21
69.956327368545516
 31
0.0
  0
LINE
  5
1408
  8
TITLE
 10
328.85253064161998
 20
73.507925714333865
 30
0.0
 11
329.89596293566802
 21
74.551358008388263
 31
0.0
  0
LINE
  5
1409
  8
TITLE
 10
329.0271003869143
 20
73.507925714333865
 30
0.0
 11
330.070532680962
 21
74.551358008388263
 31
0.0
  0
LINE
  5
140A
  8
TITLE
 10
329.2016701322093
 20
73.507925714333865
 30
0.0
 11
330.24510242625649
 21
74.551358008388263
 31
0.0
  0
LINE
  5
140B
  8
TITLE
 10
329.37623987750351
 20
73.507925714333865
 30
0.0
 11
330.4196721715503
 21
74.551358008388263
 31
0.0
  0
LINE
  5
140C
  8
TITLE
 10
329.55080962279771
 20
73.507925714333865
 30
0.0
 11
330.59424191684531
 21
74.551358008388263
 31
0.0
  0
LINE
  5
140D
  8
TITLE
 10
329.72537936807771
 20
73.507925714333865
 30
0.0
 11
330.76881166213889
 21
74.551358008388263
 31
0.0
  0
LINE
  5
140E
  8
TITLE
 10
324.31371726399698
 20
73.507925714333865
 30
0.0
 11
330.17211867032489
 21
79.366327120654503
 31
0.0
  0
LINE
  5
140F
  8
TITLE
 10
324.48828700929153
 20
73.507925714333865
 30
0.0
 11
330.0165691979139
 21
79.036207902956846
 31
0.0
  0
LINE
  5
1410
  8
TITLE
 10
320.30072311595598
 20
77.525139849766603
 30
0.0
 11
322.47625409677488
 21
79.700670830585693
 31
0.0
  0
LINE
  5
1411
  8
TITLE
 10
320.47529286124973
 20
77.525139849766603
 30
0.0
 11
322.53216511664152
 21
79.582012105151094
 31
0.0
  0
LINE
  5
1412
  8
TITLE
 10
320.64986260654427
 20
77.525139849766603
 30
0.0
 11
322.58807613649418
 21
79.4633533797236
 31
0.0
  0
LINE
  5
1413
  8
TITLE
 10
320.8244323518386
 20
77.525139849766603
 30
0.0
 11
322.64398715636088
 21
79.344694654288858
 31
0.0
  0
LINE
  5
1414
  8
TITLE
 10
320.99900209713292
 20
77.525139849766603
 30
0.0
 11
322.69989817621399
 21
79.226035928854003
 31
0.0
  0
LINE
  5
1415
  8
TITLE
 10
321.17357184241251
 20
77.525139849766603
 30
0.0
 11
322.75580919608092
 21
79.107377203426793
 31
0.0
  0
LINE
  5
1416
  8
TITLE
 10
321.34814158770752
 20
77.525139849766603
 30
0.0
 11
322.8117202159475
 21
78.988718478000152
 31
0.0
  0
LINE
  5
1417
  8
TITLE
 10
321.52271133300178
 20
77.525139849766603
 30
0.0
 11
322.8676312358001
 21
78.870059752557808
 31
0.0
  0
LINE
  5
1418
  8
TITLE
 10
321.46045722170493
 20
75.542618540239374
 30
0.0
 11
324.97201344760549
 21
79.054174766139241
 31
0.0
  0
LINE
  5
1419
  8
TITLE
 10
320.58760849523361
 20
75.542618540239374
 30
0.0
 11
321.73538406785701
 21
76.690394112862521
 31
0.0
  0
LINE
  5
141A
  8
TITLE
 10
320.76217824052787
 20
75.542618540239374
 30
0.0
 11
321.90995381315048
 21
76.690394112862521
 31
0.0
  0
LINE
  5
141B
  8
TITLE
 10
320.93674798582219
 20
75.542618540239374
 30
0.0
 11
322.08452355844531
 21
76.690394112862521
 31
0.0
  0
LINE
  5
141C
  8
TITLE
 10
321.11131773111651
 20
75.542618540239374
 30
0.0
 11
322.25909330373952
 21
76.690394112862521
 31
0.0
  0
LINE
  5
141D
  8
TITLE
 10
321.28588747641112
 20
75.542618540239374
 30
0.0
 11
322.43366304903338
 21
76.690394112862521
 31
0.0
  0
LINE
  5
141E
  8
TITLE
 10
321.23229975625799
 20
79.329565216533425
 30
0.0
 11
321.61331104244209
 21
79.71057650271635
 31
0.0
  0
LINE
  5
141F
  8
TITLE
 10
321.28821077611047
 20
79.210906491091691
 30
0.0
 11
321.7878807877359
 21
79.71057650271635
 31
0.0
  0
LINE
  5
1420
  8
TITLE
 10
321.34412179597763
 20
79.092247765663785
 30
0.0
 11
321.96245053303022
 21
79.71057650271635
 31
0.0
  0
LINE
  5
1421
  8
TITLE
 10
321.40003281583017
 20
78.973589040236064
 30
0.0
 11
322.13702027832443
 21
79.71057650271635
 31
0.0
  0
LINE
  5
1422
  8
TITLE
 10
321.45594383569733
 20
78.854930314794217
 30
0.0
 11
322.31159002361909
 21
79.71057650271635
 31
0.0
  0
LINE
  5
1423
  8
TITLE
 10
320.25996869010561
 20
68.581328413985673
 30
0.0
 11
324.24747672915009
 21
72.568836453022996
 31
0.0
  0
LINE
  5
1424
  8
TITLE
 10
320.4357694152514
 20
68.58255939382164
 30
0.0
 11
324.42204647444453
 21
72.568836453022996
 31
0.0
  0
LINE
  5
1425
  8
TITLE
 10
320.61898082360398
 20
68.591201056880294
 30
0.0
 11
324.59661621973902
 21
72.568836453022996
 31
0.0
  0
LINE
  5
1426
  8
TITLE
 10
320.80953248260749
 20
68.607182970597165
 30
0.0
 11
324.77118596503351
 21
72.568836453022996
 31
0.0
  0
LINE
  5
1427
  8
TITLE
 10
320.63767001790598
 20
71.577575921171643
 30
0.0
 11
321.62893054976439
 21
72.568836453022996
 31
0.0
  0
LINE
  5
1428
  8
TITLE
 10
320.81223976320052
 20
71.577575921171643
 30
0.0
 11
321.80350029505888
 21
72.568836453022996
 31
0.0
  0
LINE
  5
1429
  8
TITLE
 10
320.98680950849501
 20
71.577575921171643
 30
0.0
 11
321.97807004033899
 21
72.568836453022996
 31
0.0
  0
LINE
  5
142A
  8
TITLE
 10
321.16137925378939
 20
71.577575921171643
 30
0.0
 11
322.15263978563371
 21
72.568836453022996
 31
0.0
  0
LINE
  5
142B
  8
TITLE
 10
321.3359489990832
 20
71.577575921171643
 30
0.0
 11
322.32720953092758
 21
72.568836453022996
 31
0.0
  0
LINE
  5
142C
  8
TITLE
 10
321.5105187443778
 20
71.577575921171643
 30
0.0
 11
322.5017792762219
 21
72.568836453022996
 31
0.0
  0
LINE
  5
142D
  8
TITLE
 10
320.08539918291171
 20
68.581328652086114
 30
0.0
 11
321.9832981118638
 21
70.479227581022784
 31
0.0
  0
LINE
  5
142E
  8
TITLE
 10
320.64775261284558
 20
73.507925714333865
 30
0.0
 11
321.69118490690698
 21
74.551358008388263
 31
0.0
  0
LINE
  5
142F
  8
TITLE
 10
320.8223223581395
 20
73.507925714333865
 30
0.0
 11
321.8657546522013
 21
74.551358008388263
 31
0.0
  0
LINE
  5
1430
  8
TITLE
 10
320.99689210343411
 20
73.507925714333865
 30
0.0
 11
322.0403243974813
 21
74.551358008388263
 31
0.0
  0
LINE
  5
1431
  8
TITLE
 10
321.1714618487278
 20
73.507925714333865
 30
0.0
 11
322.21489414277488
 21
74.551358008388263
 31
0.0
  0
LINE
  5
1432
  8
TITLE
 10
321.34603159402229
 20
73.507925714333865
 30
0.0
 11
322.38946388807022
 21
74.551358008388263
 31
0.0
  0
LINE
  5
1433
  8
TITLE
 10
321.5206013393165
 20
73.507925714333865
 30
0.0
 11
322.5640336333642
 21
74.551358008388263
 31
0.0
  0
LINE
  5
1434
  8
TITLE
 10
321.00846907452387
 20
68.631549817219295
 30
0.0
 11
326.92827726569323
 21
74.551358008388263
 31
0.0
  0
LINE
  5
1435
  8
TITLE
 10
321.21715696544948
 20
68.665667962856929
 30
0.0
 11
327.1028470109872
 21
74.551358008388263
 31
0.0
  0
LINE
  5
1436
  8
TITLE
 10
321.43744325825418
 20
68.711384510367694
 30
0.0
 11
327.27741675628181
 21
74.551358008388263
 31
0.0
  0
LINE
  5
1437
  8
TITLE
 10
320.0296075890933
 20
77.952303304074803
 30
0.0
 11
320.90673450234902
 21
78.829430217329374
 31
0.0
  0
LINE
  5
1438
  8
TITLE
 10
320.0296075890933
 20
77.777733558780184
 30
0.0
 11
321.08130424764209
 21
78.829430217329374
 31
0.0
  0
LINE
  5
1439
  8
TITLE
 10
320.0296075890933
 20
77.603163813485324
 30
0.0
 11
321.2558739929375
 21
78.829430217329374
 31
0.0
  0
LINE
  5
143A
  8
TITLE
 10
320.12615337066131
 20
77.525139849766603
 30
0.0
 11
321.43044373823142
 21
78.829430217329374
 31
0.0
  0
LINE
  5
143B
  8
TITLE
 10
320.38511320707153
 20
76.038402233240816
 30
0.0
 11
321.03710508667928
 21
76.690394112862521
 31
0.0
  0
LINE
  5
143C
  8
TITLE
 10
320.38511320707153
 20
75.863832487946297
 30
0.0
 11
321.2116748319736
 21
76.690394112862521
 31
0.0
  0
LINE
  5
143D
  8
TITLE
 10
320.38511320707153
 20
75.689262742652517
 30
0.0
 11
321.38624457726792
 21
76.690394112862521
 31
0.0
  0
LINE
  5
143E
  8
TITLE
 10
320.41303874993901
 20
75.542618540239374
 30
0.0
 11
321.56081432256201
 21
76.690394112862521
 31
0.0
  0
LINE
  5
143F
  8
TITLE
 10
320.38511320707153
 20
76.212971978535109
 30
0.0
 11
320.8625353413845
 21
76.690394112862521
 31
0.0
  0
LINE
  5
1440
  8
TITLE
 10
320.38511320707153
 20
76.562111469123707
 30
0.0
 11
320.51339585081053
 21
76.690394112862521
 31
0.0
  0
LINE
  5
1441
  8
TITLE
 10
320.38511320707153
 20
76.387541723829059
 30
0.0
 11
320.68796559610502
 21
76.690394112862521
 31
0.0
  0
LINE
  5
1442
  8
TITLE
 10
317.16811906064532
 20
78.058500445599876
 30
0.0
 11
318.61222904123002
 21
79.502610426184901
 31
0.0
  0
LINE
  5
1443
  8
TITLE
 10
317.34268880593942
 20
78.058500445599876
 30
0.0
 11
318.61222904123002
 21
79.328040680890282
 31
0.0
  0
LINE
  5
1444
  8
TITLE
 10
317.51725855123379
 20
78.058500445599876
 30
0.0
 11
318.61222904123002
 21
79.153470935603309
 31
0.0
  0
LINE
  5
1445
  8
TITLE
 10
317.69182829651299
 20
78.058500445599876
 30
0.0
 11
318.61222904123002
 21
78.978901190308477
 31
0.0
  0
LINE
  5
1446
  8
TITLE
 10
317.86639804180749
 20
78.058500445599876
 30
0.0
 11
318.61222904123002
 21
78.804331445014142
 31
0.0
  0
LINE
  5
1447
  8
TITLE
 10
318.04096778710198
 20
78.058500445599876
 30
0.0
 11
318.61222904123002
 21
78.629761699727453
 31
0.0
  0
LINE
  5
1448
  8
TITLE
 10
318.21553753239618
 20
78.058500445599876
 30
0.0
 11
318.61222904123002
 21
78.455191954433786
 31
0.0
  0
LINE
  5
1449
  8
TITLE
 10
320.0296075890933
 20
78.126873049368456
 30
0.0
 11
320.73216475705379
 21
78.829430217329374
 31
0.0
  0
LINE
  5
144A
  8
TITLE
 10
318.3901072776905
 20
78.058500445599876
 30
0.0
 11
318.61222904123002
 21
78.280622209139224
 31
0.0
  0
LINE
  5
144B
  8
TITLE
 10
318.56467702298522
 20
78.058500445599876
 30
0.0
 11
318.61222904123002
 21
78.106052463845501
 31
0.0
  0
LINE
  5
144C
  8
TITLE
 10
320.0296075890933
 20
78.825152030538916
 30
0.0
 11
320.03388577587702
 21
78.829430217329374
 31
0.0
  0
LINE
  5
144D
  8
TITLE
 10
320.0296075890933
 20
78.65058228524434
 30
0.0
 11
320.2084555211714
 21
78.829430217329374
 31
0.0
  0
LINE
  5
144E
  8
TITLE
 10
320.0296075890933
 20
78.476012539949821
 30
0.0
 11
320.38302526646538
 21
78.829430217329374
 31
0.0
  0
LINE
  5
144F
  8
TITLE
 10
320.0296075890933
 20
78.301442794663075
 30
0.0
 11
320.5575950117597
 21
78.829430217329374
 31
0.0
  0
LINE
  5
1450
  8
TITLE
 10
321.06456669667159
 20
79.685541392822429
 30
0.0
 11
321.08960180655907
 21
79.71057650271635
 31
0.0
  0
LINE
  5
1451
  8
TITLE
 10
321.12047771653852
 20
79.566882667387603
 30
0.0
 11
321.26417155185328
 21
79.71057650271635
 31
0.0
  0
LINE
  5
1452
  8
TITLE
 10
321.17638873639078
 20
79.448223941960364
 30
0.0
 11
321.43874129714732
 21
79.71057650271635
 31
0.0
  0
LINE
  5
1453
  8
TITLE
 10
314.54957288124501
 20
78.058500445599876
 30
0.0
 11
316.20164893836107
 21
79.71057650271635
 31
0.0
  0
LINE
  5
1454
  8
TITLE
 10
314.72414262653911
 20
78.058500445599876
 30
0.0
 11
316.37621868365591
 21
79.71057650271635
 31
0.0
  0
LINE
  5
1455
  8
TITLE
 10
314.89871237183303
 20
78.058500445599876
 30
0.0
 11
316.55078842895
 21
79.71057650271635
 31
0.0
  0
LINE
  5
1456
  8
TITLE
 10
315.07328211712729
 20
78.058500445599876
 30
0.0
 11
316.72535817424398
 21
79.71057650271635
 31
0.0
  0
LINE
  5
1457
  8
TITLE
 10
315.24785186242173
 20
78.058500445599876
 30
0.0
 11
316.89992791953853
 21
79.71057650271635
 31
0.0
  0
LINE
  5
1458
  8
TITLE
 10
315.42242160771588
 20
78.058500445599876
 30
0.0
 11
317.0744976648333
 21
79.71057650271635
 31
0.0
  0
LINE
  5
1459
  8
TITLE
 10
316.8189795700564
 20
78.058500445599876
 30
0.0
 11
318.47105562717331
 21
79.71057650271635
 31
0.0
  0
LINE
  5
145A
  8
TITLE
 10
316.99354931535049
 20
78.058500445599876
 30
0.0
 11
318.61222904123002
 21
79.677180171479478
 31
0.0
  0
LINE
  5
145B
  8
TITLE
 10
315.59699135300991
 20
78.058500445599876
 30
0.0
 11
317.24906741011301
 21
79.71057650271635
 31
0.0
  0
LINE
  5
145C
  8
TITLE
 10
315.77156109829087
 20
78.058500445599876
 30
0.0
 11
317.42363715540711
 21
79.71057650271635
 31
0.0
  0
LINE
  5
145D
  8
TITLE
 10
315.94613084358389
 20
78.058500445599876
 30
0.0
 11
317.59820690070143
 21
79.71057650271635
 31
0.0
  0
LINE
  5
145E
  8
TITLE
 10
316.12070058887889
 20
78.058500445599876
 30
0.0
 11
317.77277664599552
 21
79.71057650271635
 31
0.0
  0
LINE
  5
145F
  8
TITLE
 10
316.29527033417298
 20
78.058500445599876
 30
0.0
 11
317.94734639129001
 21
79.71057650271635
 31
0.0
  0
LINE
  5
1460
  8
TITLE
 10
316.46984007946747
 20
78.058500445599876
 30
0.0
 11
318.1219161365841
 21
79.71057650271635
 31
0.0
  0
LINE
  5
1461
  8
TITLE
 10
316.64440982476168
 20
78.058500445599876
 30
0.0
 11
318.29648588187843
 21
79.71057650271635
 31
0.0
  0
LINE
  5
1462
  8
TITLE
 10
320.0296075890933
 20
71.84236221881622
 30
0.0
 11
320.75608182329302
 21
72.568836453022996
 31
0.0
  0
LINE
  5
1463
  8
TITLE
 10
320.0296075890933
 20
71.667792473522454
 30
0.0
 11
320.93065156858688
 21
72.568836453022996
 31
0.0
  0
LINE
  5
1464
  8
TITLE
 10
320.11396078203802
 20
71.577575921171643
 30
0.0
 11
321.10522131388132
 21
72.568836453022996
 31
0.0
  0
LINE
  5
1465
  8
TITLE
 10
320.28853052733211
 20
71.577575921171643
 30
0.0
 11
321.27979105917598
 21
72.568836453022996
 31
0.0
  0
LINE
  5
1466
  8
TITLE
 10
320.46310027262649
 20
71.577575921171643
 30
0.0
 11
321.45436080447001
 21
72.568836453022996
 31
0.0
  0
LINE
  5
1467
  8
TITLE
 10
320.0296075890933
 20
69.049246294136196
 30
0.0
 11
320.98337974185779
 21
70.003018446900882
 31
0.0
  0
LINE
  5
1468
  8
TITLE
 10
320.0296075890933
 20
68.87467654884162
 30
0.0
 11
321.21942391419401
 21
70.064492873942456
 31
0.0
  0
LINE
  5
1469
  8
TITLE
 10
320.0296075890933
 20
68.700106803547925
 30
0.0
 11
321.50723776929499
 21
70.177736983749526
 31
0.0
  0
LINE
  5
146A
  8
TITLE
 10
317.11771358904218
 20
68.581328728176373
 30
0.0
 11
318.82257771576752
 21
70.28619285490953
 31
0.0
  0
LINE
  5
146B
  8
TITLE
 10
317.29228333432218
 20
68.581328728176373
 30
0.0
 11
318.96773465920819
 21
70.256780053055024
 31
0.0
  0
LINE
  5
146C
  8
TITLE
 10
317.4668530796165
 20
68.581328728176373
 30
0.0
 11
318.96773465920819
 21
70.082210307760434
 31
0.0
  0
LINE
  5
146D
  8
TITLE
 10
317.64142282491048
 20
68.581328728176373
 30
0.0
 11
318.96773465920819
 21
69.907640562466739
 31
0.0
  0
LINE
  5
146E
  8
TITLE
 10
320.0296075890933
 20
69.572955530012294
 30
0.0
 11
320.41531818672729
 21
69.958666127653316
 31
0.0
  0
LINE
  5
146F
  8
TITLE
 10
320.0296075890933
 20
69.398385784717732
 30
0.0
 11
320.58842691552792
 21
69.957205111158899
 31
0.0
  0
LINE
  5
1470
  8
TITLE
 10
320.0296075890933
 20
69.223816039430432
 30
0.0
 11
320.77615060825201
 21
69.970359058588883
 31
0.0
  0
LINE
  5
1471
  8
TITLE
 10
320.0296075890933
 20
69.747525275306032
 30
0.0
 11
320.2423380316846
 21
69.960255717897468
 31
0.0
  0
LINE
  5
1472
  8
TITLE
 10
317.81599257020508
 20
68.581328728176373
 30
0.0
 11
318.96773465920819
 21
69.733070817179424
 31
0.0
  0
LINE
  5
1473
  8
TITLE
 10
317.9905623154998
 20
68.581328728176373
 30
0.0
 11
318.96773465920819
 21
69.558501071884933
 31
0.0
  0
LINE
  5
1474
  8
TITLE
 10
318.16513206079338
 20
68.581328728176373
 30
0.0
 11
318.96773465920819
 21
69.383931326590613
 31
0.0
  0
LINE
  5
1475
  8
TITLE
 10
318.33970180608799
 20
68.581328728176373
 30
0.0
 11
318.96773465920819
 21
69.209361581296264
 31
0.0
  0
LINE
  5
1476
  8
TITLE
 10
318.51427155138202
 20
68.581328728176373
 30
0.0
 11
318.96773465920819
 21
69.034791836002313
 31
0.0
  0
LINE
  5
1477
  8
TITLE
 10
318.68884129667617
 20
68.581328728176373
 30
0.0
 11
318.96773465920819
 21
68.860222090707708
 31
0.0
  0
LINE
  5
1478
  8
TITLE
 10
318.86341104197169
 20
68.581328728176373
 30
0.0
 11
318.96773465920819
 21
68.685652345414326
 31
0.0
  0
LINE
  5
1479
  8
TITLE
 10
320.0296075890933
 20
69.922095020593616
 30
0.0
 11
320.06776828639022
 21
69.960255717897468
 31
0.0
  0
LINE
  5
147A
  8
TITLE
 10
320.38511320707153
 20
74.118135035017659
 30
0.0
 11
320.81833618043493
 21
74.551358008388263
 31
0.0
  0
LINE
  5
147B
  8
TITLE
 10
320.38511320707153
 20
73.943565289723693
 30
0.0
 11
320.99290592572947
 21
74.551358008388263
 31
0.0
  0
LINE
  5
147C
  8
TITLE
 10
320.38511320707153
 20
73.768995544429345
 30
0.0
 11
321.16747567102448
 21
74.551358008388263
 31
0.0
  0
LINE
  5
147D
  8
TITLE
 10
320.38511320707153
 20
73.594425799141504
 30
0.0
 11
321.34204541631789
 21
74.551358008388263
 31
0.0
  0
LINE
  5
147E
  8
TITLE
 10
320.47318286755132
 20
73.507925714333865
 30
0.0
 11
321.51661516161238
 21
74.551358008388263
 31
0.0
  0
LINE
  5
147F
  8
TITLE
 10
320.0296075890933
 20
72.366071454699366
 30
0.0
 11
320.23237258740988
 21
72.568836453022996
 31
0.0
  0
LINE
  5
1480
  8
TITLE
 10
320.0296075890933
 20
72.191501709405344
 30
0.0
 11
320.40694233270369
 21
72.568836453022996
 31
0.0
  0
LINE
  5
1481
  8
TITLE
 10
320.0296075890933
 20
72.016931964110441
 30
0.0
 11
320.58151207799841
 21
72.568836453022996
 31
0.0
  0
LINE
  5
1482
  8
TITLE
 10
320.0296075890933
 20
72.540641199993601
 30
0.0
 11
320.05780284212977
 21
72.568836453022996
 31
0.0
  0
LINE
  5
1483
  8
TITLE
 10
320.38511320707153
 20
74.46727452560566
 30
0.0
 11
320.46919668984702
 21
74.551358008388263
 31
0.0
  0
LINE
  5
1484
  8
TITLE
 10
320.38511320707153
 20
74.292704780311695
 30
0.0
 11
320.64376643514129
 21
74.551358008388263
 31
0.0
  0
LINE
  5
1485
  8
TITLE
 10
313.45174893788999
 20
68.581328728176373
 30
0.0
 11
315.1566130646159
 21
70.28619285490953
 31
0.0
  0
LINE
  5
1486
  8
TITLE
 10
313.62631868317021
 20
68.581328728176373
 30
0.0
 11
315.33118280991101
 21
70.28619285490953
 31
0.0
  0
LINE
  5
1487
  8
TITLE
 10
313.8008884284643
 20
68.581328728176373
 30
0.0
 11
315.50575255520448
 21
70.28619285490953
 31
0.0
  0
LINE
  5
1488
  8
TITLE
 10
313.97545817375931
 20
68.581328728176373
 30
0.0
 11
315.68032230049931
 21
70.28619285490953
 31
0.0
  0
LINE
  5
1489
  8
TITLE
 10
314.15002791905317
 20
68.581328728176373
 30
0.0
 11
315.85489204577948
 21
70.28619285490953
 31
0.0
  0
LINE
  5
148A
  8
TITLE
 10
314.32459766434772
 20
68.581328728176373
 30
0.0
 11
316.0294617910734
 21
70.28619285490953
 31
0.0
  0
LINE
  5
148B
  8
TITLE
 10
314.49916740964193
 20
68.581328728176373
 30
0.0
 11
316.20403153636738
 21
70.28619285490953
 31
0.0
  0
LINE
  5
148C
  8
TITLE
 10
314.67373715493591
 20
68.581328728176373
 30
0.0
 11
316.37860128166147
 21
70.28619285490953
 31
0.0
  0
LINE
  5
148D
  8
TITLE
 10
314.8483069002304
 20
68.581328728176373
 30
0.0
 11
316.55317102695648
 21
70.28619285490953
 31
0.0
  0
LINE
  5
148E
  8
TITLE
 10
315.02287664552551
 20
68.581328728176373
 30
0.0
 11
316.7277407722504
 21
70.28619285490953
 31
0.0
  0
LINE
  5
148F
  8
TITLE
 10
315.19744639081932
 20
68.581328728176373
 30
0.0
 11
316.90231051754552
 21
70.28619285490953
 31
0.0
  0
LINE
  5
1490
  8
TITLE
 10
315.37201613609932
 20
68.581328728176373
 30
0.0
 11
317.07688026283932
 21
70.28619285490953
 31
0.0
  0
LINE
  5
1491
  8
TITLE
 10
316.76857409845343
 20
68.581328728176373
 30
0.0
 11
318.47343822518002
 21
70.28619285490953
 31
0.0
  0
LINE
  5
1492
  8
TITLE
 10
316.94314384374781
 20
68.581328728176373
 30
0.0
 11
318.64800797047383
 21
70.28619285490953
 31
0.0
  0
LINE
  5
1493
  8
TITLE
 10
315.54658588139341
 20
68.581328728176373
 30
0.0
 11
317.25145000813382
 21
70.28619285490953
 31
0.0
  0
LINE
  5
1494
  8
TITLE
 10
315.72115562668768
 20
68.581328728176373
 30
0.0
 11
317.42601975342751
 21
70.28619285490953
 31
0.0
  0
LINE
  5
1495
  8
TITLE
 10
315.89572537198188
 20
68.581328728176373
 30
0.0
 11
317.60058949872149
 21
70.28619285490953
 31
0.0
  0
LINE
  5
1496
  8
TITLE
 10
316.07029511727592
 20
68.581328728176373
 30
0.0
 11
317.77515924400183
 21
70.28619285490953
 31
0.0
  0
LINE
  5
1497
  8
TITLE
 10
316.24486486257052
 20
68.581328728176373
 30
0.0
 11
317.94972898929598
 21
70.28619285490953
 31
0.0
  0
LINE
  5
1498
  8
TITLE
 10
316.41943460786501
 20
68.581328728176373
 30
0.0
 11
318.12429873459041
 21
70.28619285490953
 31
0.0
  0
LINE
  5
1499
  8
TITLE
 10
316.59400435315911
 20
68.581328728176373
 30
0.0
 11
318.2988684798845
 21
70.28619285490953
 31
0.0
  0
LINE
  5
149A
  8
TITLE
 10
325.36324572944773
 20
77.525139849766603
 30
0.0
 11
327.54868238240499
 21
79.71057650271635
 31
0.0
  0
LINE
  5
149B
  8
TITLE
 10
325.53781547474199
 20
77.525139849766603
 30
0.0
 11
327.72325212769942
 21
79.71057650271635
 31
0.0
  0
LINE
  5
149C
  8
TITLE
 10
325.71238522003591
 20
77.525139849766603
 30
0.0
 11
327.755076425688
 21
79.567831055411119
 31
0.0
  0
LINE
  5
149D
  8
TITLE
 10
325.88695496533018
 20
77.525139849766603
 30
0.0
 11
327.755076425688
 21
79.39326131011714
 31
0.0
  0
LINE
  5
149E
  8
TITLE
 10
326.06152471062461
 20
77.525139849766603
 30
0.0
 11
327.755076425688
 21
79.218691564822819
 31
0.0
  0
LINE
  5
149F
  8
TITLE
 10
327.45808267296502
 20
77.525139849766603
 30
0.0
 11
329.64351932592251
 21
79.71057650271635
 31
0.0
  0
LINE
  5
14A0
  8
TITLE
 10
326.23609445591927
 20
77.525139849766603
 30
0.0
 11
327.755076425688
 21
79.044121819527703
 31
0.0
  0
LINE
  5
14A1
  8
TITLE
 10
326.41066420121382
 20
77.525139849766603
 30
0.0
 11
327.755076425688
 21
78.869552074241
 31
0.0
  0
LINE
  5
14A2
  8
TITLE
 10
326.5852339464933
 20
77.525139849766603
 30
0.0
 11
327.88952431406352
 21
78.829430217329374
 31
0.0
  0
LINE
  5
14A3
  8
TITLE
 10
326.75980369178802
 20
77.525139849766603
 30
0.0
 11
328.06409405935801
 21
78.829430217329374
 31
0.0
  0
LINE
  5
14A4
  8
TITLE
 10
326.93437343708177
 20
77.525139849766603
 30
0.0
 11
328.23866380465182
 21
78.829430217329374
 31
0.0
  0
LINE
  5
14A5
  8
TITLE
 10
327.10894318237592
 20
77.525139849766603
 30
0.0
 11
328.41323354994603
 21
78.829430217329374
 31
0.0
  0
LINE
  5
14A6
  8
TITLE
 10
327.28351292767047
 20
77.525139849766603
 30
0.0
 11
329.46894958062802
 21
79.71057650271635
 31
0.0
  0
LINE
  5
14A7
  8
TITLE
 10
327.2212588163602
 20
75.542618540239374
 30
0.0
 11
328.99873864884648
 21
77.320098372718576
 31
0.0
  0
LINE
  5
14A8
  8
TITLE
 10
327.3958285616535
 20
75.542618540239374
 30
0.0
 11
328.95502626054889
 21
77.10181623913499
 31
0.0
  0
LINE
  5
14A9
  8
TITLE
 10
327.5703983069485
 20
75.542618540239374
 30
0.0
 11
328.91131387226591
 21
76.883534105542395
 31
0.0
  0
LINE
  5
14AA
  8
TITLE
 10
327.74496805224288
 20
75.542618540239374
 30
0.0
 11
328.892743624866
 21
76.690394112862521
 31
0.0
  0
LINE
  5
14AB
  8
TITLE
 10
327.91953779753698
 20
75.542618540239374
 30
0.0
 11
329.06731337015981
 21
76.690394112862521
 31
0.0
  0
LINE
  5
14AC
  8
TITLE
 10
328.09410754283141
 20
75.542618540239374
 30
0.0
 11
329.24188311545458
 21
76.690394112862521
 31
0.0
  0
LINE
  5
14AD
  8
TITLE
 10
328.2686772881259
 20
75.542618540239374
 30
0.0
 11
329.41645286074879
 21
76.690394112862521
 31
0.0
  0
LINE
  5
14AE
  8
TITLE
 10
328.44324703341948
 20
75.542618540239374
 30
0.0
 11
329.59102260604232
 21
76.690394112862521
 31
0.0
  0
LINE
  5
14AF
  8
TITLE
 10
328.61781677871448
 20
75.542618540239374
 30
0.0
 11
329.76559235133732
 21
76.690394112862521
 31
0.0
  0
LINE
  5
14B0
  8
TITLE
 10
328.7334692550325
 20
79.324235667709516
 30
0.0
 11
329.11981009003932
 21
79.71057650271635
 31
0.0
  0
LINE
  5
14B1
  8
TITLE
 10
328.57791978262122
 20
78.994116450003659
 30
0.0
 11
329.29437983533381
 21
79.71057650271635
 31
0.0
  0
LINE
  5
14B2
  8
TITLE
 10
326.4150830707535
 20
79.27525617224228
 30
0.0
 11
326.85040340122788
 21
79.71057650271635
 31
0.0
  0
LINE
  5
14B3
  8
TITLE
 10
326.4150830707535
 20
79.100686426948272
 30
0.0
 11
327.02497314652192
 21
79.71057650271635
 31
0.0
  0
LINE
  5
14B4
  8
TITLE
 10
326.4150830707535
 20
78.926116681653397
 30
0.0
 11
327.19954289181692
 21
79.71057650271635
 31
0.0
  0
LINE
  5
14B5
  8
TITLE
 10
326.4150830707535
 20
79.624395662823545
 30
0.0
 11
326.50126391063941
 21
79.71057650271635
 31
0.0
  0
LINE
  5
14B6
  8
TITLE
 10
326.4150830707535
 20
79.449825917529921
 30
0.0
 11
326.6758336559335
 21
79.71057650271635
 31
0.0
  0
LINE
  5
14B7
  8
TITLE
 10
328.88901872743003
 20
79.654354885401361
 30
0.0
 11
328.94524034474563
 21
79.71057650271635
 31
0.0
  0
LINE
  5
14B8
  8
TITLE
 10
326.59935967101188
 20
71.254754743732747
 30
0.0
 11
327.9134413803024
 21
72.568836453022996
 31
0.0
  0
LINE
  5
14B9
  8
TITLE
 10
326.6620943527638
 20
71.142919680196286
 30
0.0
 11
328.08801112559621
 21
72.568836453022996
 31
0.0
  0
LINE
  5
14BA
  8
TITLE
 10
326.7271614860054
 20
71.033417068144303
 30
0.0
 11
328.26258087089087
 21
72.568836453022996
 31
0.0
  0
LINE
  5
14BB
  8
TITLE
 10
326.79451719750682
 20
70.926203034337703
 30
0.0
 11
328.43715061618491
 21
72.568836453022996
 31
0.0
  0
LINE
  5
14BC
  8
TITLE
 10
326.86412306521902
 20
70.821239156769337
 30
0.0
 11
328.61172036147968
 21
72.568836453022996
 31
0.0
  0
LINE
  5
14BD
  8
TITLE
 10
326.93594572239931
 20
70.718492068648644
 30
0.0
 11
328.78629010677361
 21
72.568836453022996
 31
0.0
  0
LINE
  5
14BE
  8
TITLE
 10
327.00995652522852
 20
70.617933126191616
 30
0.0
 11
328.96085985206793
 21
72.568836453022996
 31
0.0
  0
LINE
  5
14BF
  8
TITLE
 10
327.08613127611528
 20
70.519538131775704
 30
0.0
 11
329.13542959736219
 21
72.568836453022996
 31
0.0
  0
LINE
  5
14C0
  8
TITLE
 10
327.16444999585048
 20
70.423287106223896
 30
0.0
 11
329.30999934264202
 21
72.568836453022996
 31
0.0
  0
LINE
  5
14C1
  8
TITLE
 10
327.24489673981589
 20
70.329164104909665
 30
0.0
 11
329.48456908793651
 21
72.568836453022996
 31
0.0
  0
LINE
  5
14C2
  8
TITLE
 10
328.66787830138691
 20
71.577575921171643
 30
0.0
 11
329.659138833231
 21
72.568836453022996
 31
0.0
  0
LINE
  5
14C3
  8
TITLE
 10
327.96441601121751
 20
69.652125413955702
 30
0.0
 11
329.09635853896839
 21
70.784067941707718
 31
0.0
  0
LINE
  5
14C4
  8
TITLE
 10
328.06391942165601
 20
69.577059079100522
 30
0.0
 11
329.17813918659249
 21
70.691278844030279
 31
0.0
  0
LINE
  5
14C5
  8
TITLE
 10
328.16559866526148
 20
69.50416857741925
 30
0.0
 11
329.26460693732531
 21
70.603176849475545
 31
0.0
  0
LINE
  5
14C6
  8
TITLE
 10
328.26948019133027
 20
69.433480358200924
 30
0.0
 11
329.35575472359392
 21
70.519754890450614
 31
0.0
  0
LINE
  5
14C7
  8
TITLE
 10
328.37559503098061
 20
69.36502545254956
 30
0.0
 11
329.45161608329198
 21
70.441046504860324
 31
0.0
  0
LINE
  5
14C8
  8
TITLE
 10
328.4839791014997
 20
69.298839777781495
 30
0.0
 11
329.55226663528151
 21
70.367127311556061
 31
0.0
  0
LINE
  5
14C9
  8
TITLE
 10
328.59467357024278
 20
69.234964501222777
 30
0.0
 11
329.65782749369993
 21
70.298118424687488
 31
0.0
  0
LINE
  5
14CA
  8
TITLE
 10
328.70772528699251
 20
69.173446472685697
 30
0.0
 11
329.76847099199551
 21
70.234192177680995
 31
0.0
  0
LINE
  5
14CB
  8
TITLE
 10
327.7718523348193
 20
69.808701228146418
 30
0.0
 11
328.94709352109948
 21
70.983942414427702
 31
0.0
  0
LINE
  5
14CC
  8
TITLE
 10
327.86706631424772
 20
69.729345462273727
 30
0.0
 11
329.01931297649548
 21
70.881592124528339
 31
0.0
  0
LINE
  5
14CD
  8
TITLE
 10
325.32249161780322
 20
68.581328728176373
 30
0.0
 11
326.58231230411752
 21
69.841149414490843
 31
0.0
  0
LINE
  5
14CE
  8
TITLE
 10
325.49706136309737
 20
68.581328728176373
 30
0.0
 11
326.58231230411752
 21
69.666579669197432
 31
0.0
  0
LINE
  5
14CF
  8
TITLE
 10
325.67163110839152
 20
68.581328728176373
 30
0.0
 11
326.58231230411752
 21
69.492009923909563
 31
0.0
  0
LINE
  5
14D0
  8
TITLE
 10
325.84620085368562
 20
68.581328728176373
 30
0.0
 11
326.58231230411752
 21
69.317440178615868
 31
0.0
  0
LINE
  5
14D1
  8
TITLE
 10
326.02077059897988
 20
68.581328728176373
 30
0.0
 11
326.58231230411752
 21
69.142870433320994
 31
0.0
  0
LINE
  5
14D2
  8
TITLE
 10
326.19534034427443
 20
68.581328728176373
 30
0.0
 11
326.58231230411752
 21
68.968300688033665
 31
0.0
  0
LINE
  5
14D3
  8
TITLE
 10
326.36991008955459
 20
68.581328728176373
 30
0.0
 11
326.58231230411752
 21
68.793730942739472
 31
0.0
  0
LINE
  5
14D4
  8
TITLE
 10
326.54447983484852
 20
68.581328728176373
 30
0.0
 11
326.58231230411752
 21
68.619161197445379
 31
0.0
  0
LINE
  5
14D5
  8
TITLE
 10
327.32745945386392
 20
70.237157073655752
 30
0.0
 11
328.66535513314301
 21
71.575052752927647
 31
0.0
  0
LINE
  5
14D6
  8
TITLE
 10
327.41212986695581
 20
70.147257741453757
 30
0.0
 11
328.71011386319219
 21
71.445241737697899
 31
0.0
  0
LINE
  5
14D7
  8
TITLE
 10
327.49890341832179
 20
70.059461547524961
 30
0.0
 11
328.76105342292499
 21
71.32161155213582
 31
0.0
  0
LINE
  5
14D8
  8
TITLE
 10
327.5877792175238
 20
69.973767601439647
 30
0.0
 11
328.81773972023848
 21
71.203728104154948
 31
0.0
  0
LINE
  5
14D9
  8
TITLE
 10
327.67876003672518
 20
69.890178675332606
 30
0.0
 11
328.87983840110002
 21
71.091257039722137
 31
0.0
  0
LINE
  5
14DA
  8
TITLE
 10
327.45597267928019
 20
73.507925714333865
 30
0.0
 11
328.49940497332727
 21
74.551358008388263
 31
0.0
  0
LINE
  5
14DB
  8
TITLE
 10
327.63054242457451
 20
73.507925714333865
 30
0.0
 11
328.67397471862228
 21
74.551358008388263
 31
0.0
  0
LINE
  5
14DC
  8
TITLE
 10
327.80511216985423
 20
73.507925714333865
 30
0.0
 11
328.84854446391591
 21
74.551358008388263
 31
0.0
  0
LINE
  5
14DD
  8
TITLE
 10
327.97968191514951
 20
73.507925714333865
 30
0.0
 11
329.02311420921052
 21
74.551358008388263
 31
0.0
  0
LINE
  5
14DE
  8
TITLE
 10
326.58312395280859
 20
73.507925714333865
 30
0.0
 11
327.6265562468559
 21
74.551358008388263
 31
0.0
  0
LINE
  5
14DF
  8
TITLE
 10
326.75769369810359
 20
73.507925714333865
 30
0.0
 11
327.80112599215039
 21
74.551358008388263
 31
0.0
  0
LINE
  5
14E0
  8
TITLE
 10
326.9322634433978
 20
73.507925714333865
 30
0.0
 11
327.97569573744448
 21
74.551358008388263
 31
0.0
  0
LINE
  5
14E1
  8
TITLE
 10
327.10683318869133
 20
73.507925714333865
 30
0.0
 11
328.1502654827388
 21
74.551358008388263
 31
0.0
  0
LINE
  5
14E2
  8
TITLE
 10
327.28140293398548
 20
73.507925714333865
 30
0.0
 11
328.32483522803352
 21
74.551358008388263
 31
0.0
  0
LINE
  5
14E3
  8
TITLE
 10
328.15425166044321
 20
73.507925714333865
 30
0.0
 11
329.19768395450478
 21
74.551358008388263
 31
0.0
  0
LINE
  5
14E4
  8
TITLE
 10
328.3288214057377
 20
73.507925714333865
 30
0.0
 11
329.37225369978461
 21
74.551358008388263
 31
0.0
  0
LINE
  5
14E5
  8
TITLE
 10
328.50339115103151
 20
73.507925714333865
 30
0.0
 11
329.54682344507893
 21
74.551358008388263
 31
0.0
  0
LINE
  5
14E6
  8
TITLE
 10
328.67796089632583
 20
73.507925714333865
 30
0.0
 11
329.72139319037348
 21
74.551358008388263
 31
0.0
  0
LINE
  5
14E7
  8
TITLE
 10
321.69728107829559
 20
77.525139849766603
 30
0.0
 11
323.00157144586552
 21
78.829430217329374
 31
0.0
  0
LINE
  5
14E8
  8
TITLE
 10
321.87185082358991
 20
77.525139849766603
 30
0.0
 11
323.17614119116053
 21
78.829430217329374
 31
0.0
  0
LINE
  5
14E9
  8
TITLE
 10
322.04642056888451
 20
77.525139849766603
 30
0.0
 11
323.35071093645428
 21
78.829430217329374
 31
0.0
  0
LINE
  5
14EA
  8
TITLE
 10
322.22099031417838
 20
77.525139849766603
 30
0.0
 11
323.52528068173461
 21
78.829430217329374
 31
0.0
  0
LINE
  5
14EB
  8
TITLE
 10
322.35534943987398
 20
77.484929230173719
 30
0.0
 11
324.58099671241598
 21
79.71057650271635
 31
0.0
  0
LINE
  5
14EC
  8
TITLE
 10
323.96668776710771
 20
77.525139849766603
 30
0.0
 11
325.27097813466281
 21
78.829430217329374
 31
0.0
  0
LINE
  5
14ED
  8
TITLE
 10
321.63502696698492
 20
75.542618540239374
 30
0.0
 11
324.97201344760549
 21
78.87960502084556
 31
0.0
  0
LINE
  5
14EE
  8
TITLE
 10
321.80959671227902
 20
75.542618540239374
 30
0.0
 11
325.09640838938333
 21
78.829430217329374
 31
0.0
  0
LINE
  5
14EF
  8
TITLE
 10
322.47185356273133
 20
76.903154371854384
 30
0.0
 11
324.97201344760549
 21
79.403314256721416
 31
0.0
  0
LINE
  5
14F0
  8
TITLE
 10
322.50097959344578
 20
76.757710657274316
 30
0.0
 11
324.97201344760549
 21
79.22874451143413
 31
0.0
  0
LINE
  5
14F1
  8
TITLE
 10
322.38447547058831
 20
77.339485515594475
 30
0.0
 11
324.75556645771047
 21
79.71057650271635
 31
0.0
  0
LINE
  5
14F2
  8
TITLE
 10
322.41360150130259
 20
77.194041801014123
 30
0.0
 11
324.9301362030053
 21
79.71057650271635
 31
0.0
  0
LINE
  5
14F3
  8
TITLE
 10
322.44272753201727
 20
77.048598086435007
 30
0.0
 11
324.97201344760549
 21
79.57788400201629
 31
0.0
  0
LINE
  5
14F4
  8
TITLE
 10
321.98416645757402
 20
75.542618540239374
 30
0.0
 11
323.8970759550154
 21
77.455528037680239
 31
0.0
  0
LINE
  5
14F5
  8
TITLE
 10
322.15873620286749
 20
75.542618540239374
 30
0.0
 11
323.92620198572951
 21
77.310084323101137
 31
0.0
  0
LINE
  5
14F6
  8
TITLE
 10
322.33330594816221
 20
75.542618540239374
 30
0.0
 11
323.9553280164435
 21
77.164640608513778
 31
0.0
  0
LINE
  5
14F7
  8
TITLE
 10
322.50787569345653
 20
75.542618540239374
 30
0.0
 11
323.98445404715733
 21
77.019196893933469
 31
0.0
  0
LINE
  5
14F8
  8
TITLE
 10
322.68244543875068
 20
75.542618540239374
 30
0.0
 11
324.01358007787212
 21
76.873753179353429
 31
0.0
  0
LINE
  5
14F9
  8
TITLE
 10
322.85701518404522
 20
75.542618540239374
 30
0.0
 11
324.04270610857202
 21
76.728309464766099
 31
0.0
  0
LINE
  5
14FA
  8
TITLE
 10
323.0315849293392
 20
75.542618540239374
 30
0.0
 11
324.17936050196249
 21
76.690394112862521
 31
0.0
  0
LINE
  5
14FB
  8
TITLE
 10
323.20615467463381
 20
75.542618540239374
 30
0.0
 11
324.35393024725653
 21
76.690394112862521
 31
0.0
  0
LINE
  5
14FC
  8
TITLE
 10
323.38072441991409
 20
75.542618540239374
 30
0.0
 11
324.52849999255091
 21
76.690394112862521
 31
0.0
  0
LINE
  5
14FD
  8
TITLE
 10
323.5552941652079
 20
75.542618540239374
 30
0.0
 11
324.70306973782999
 21
76.690394112862521
 31
0.0
  0
LINE
  5
14FE
  8
TITLE
 10
323.72986391050239
 20
75.542618540239374
 30
0.0
 11
324.87763948312568
 21
76.690394112862521
 31
0.0
  0
LINE
  5
14FF
  8
TITLE
 10
323.90443365579648
 20
75.542618540239374
 30
0.0
 11
325.05220922841949
 21
76.690394112862521
 31
0.0
  0
LINE
  5
1500
  8
TITLE
 10
324.07900340109131
 20
75.542618540239374
 30
0.0
 11
325.22677897371352
 21
76.690394112862521
 31
0.0
  0
LINE
  5
1501
  8
TITLE
 10
323.63202009267121
 20
79.285309118840132
 30
0.0
 11
324.0572874765478
 21
79.71057650271635
 31
0.0
  0
LINE
  5
1502
  8
TITLE
 10
323.63202009267121
 20
79.110739373545599
 30
0.0
 11
324.23185722184189
 21
79.71057650271635
 31
0.0
  0
LINE
  5
1503
  8
TITLE
 10
323.63202009267121
 20
78.936169628251292
 30
0.0
 11
324.40642696713599
 21
79.71057650271635
 31
0.0
  0
LINE
  5
1504
  8
TITLE
 10
323.63202009267121
 20
79.634448609428404
 30
0.0
 11
323.7081479859599
 21
79.71057650271635
 31
0.0
  0
LINE
  5
1505
  8
TITLE
 10
323.63202009267121
 20
79.459878864134154
 30
0.0
 11
323.88271773125348
 21
79.71057650271635
 31
0.0
  0
LINE
  5
1506
  8
TITLE
 10
321.68508848967213
 20
71.577575921171643
 30
0.0
 11
322.67634902151599
 21
72.568836453022996
 31
0.0
  0
LINE
  5
1507
  8
TITLE
 10
321.85965823496662
 20
71.577575921171643
 30
0.0
 11
322.85091876680968
 21
72.568836453022996
 31
0.0
  0
LINE
  5
1508
  8
TITLE
 10
322.0342279802606
 20
71.577575921171643
 30
0.0
 11
323.02548851210452
 21
72.568836453022996
 31
0.0
  0
LINE
  5
1509
  8
TITLE
 10
322.20879772555497
 20
71.577575921171643
 30
0.0
 11
323.20005825739918
 21
72.568836453022996
 31
0.0
  0
LINE
  5
150A
  8
TITLE
 10
322.38336747083503
 20
71.577575921171643
 30
0.0
 11
323.37462800269287
 21
72.568836453022996
 31
0.0
  0
LINE
  5
150B
  8
TITLE
 10
322.55793721612991
 20
71.577575921171643
 30
0.0
 11
323.54919774798782
 21
72.568836453022996
 31
0.0
  0
LINE
  5
150C
  8
TITLE
 10
322.71795540750679
 20
71.563024367255068
 30
0.0
 11
323.7237674932818
 21
72.568836453022996
 31
0.0
  0
LINE
  5
150D
  8
TITLE
 10
322.60471129769968
 20
71.275210512153663
 30
0.0
 11
323.8983372385614
 21
72.568836453022996
 31
0.0
  0
LINE
  5
150E
  8
TITLE
 10
322.30322070042638
 20
70.799150169585886
 30
0.0
 11
324.072906983856
 21
72.568836453022996
 31
0.0
  0
LINE
  5
150F
  8
TITLE
 10
322.88996124723002
 20
69.291053772880161
 30
0.0
 11
324.70142084315103
 21
71.102513368793666
 31
0.0
  0
LINE
  5
1510
  8
TITLE
 10
323.43573681852592
 20
69.662259598873561
 30
0.0
 11
324.33021501715052
 21
70.556737797498698
 31
0.0
  0
LINE
  5
1511
  8
TITLE
 10
321.6951710846111
 20
73.507925714333865
 30
0.0
 11
322.73860337865813
 21
74.551358008388263
 31
0.0
  0
LINE
  5
1512
  8
TITLE
 10
321.86974082990542
 20
73.507925714333865
 30
0.0
 11
322.91317312395341
 21
74.551358008388263
 31
0.0
  0
LINE
  5
1513
  8
TITLE
 10
322.04431057519969
 20
73.507925714333865
 30
0.0
 11
323.08774286924699
 21
74.551358008388263
 31
0.0
  0
LINE
  5
1514
  8
TITLE
 10
322.21888032049401
 20
73.507925714333865
 30
0.0
 11
323.26231261454132
 21
74.551358008388263
 31
0.0
  0
LINE
  5
1515
  8
TITLE
 10
322.39345006577361
 20
73.507925714333865
 30
0.0
 11
323.43688235983598
 21
74.551358008388263
 31
0.0
  0
LINE
  5
1516
  8
TITLE
 10
322.56801981106793
 20
73.507925714333865
 30
0.0
 11
323.61145210513001
 21
74.551358008388263
 31
0.0
  0
LINE
  5
1517
  8
TITLE
 10
322.74258955636287
 20
73.507925714333865
 30
0.0
 11
323.78602185041052
 21
74.551358008388263
 31
0.0
  0
LINE
  5
1518
  8
TITLE
 10
322.91715930165731
 20
73.507925714333865
 30
0.0
 11
323.9605915957045
 21
74.551358008388263
 31
0.0
  0
LINE
  5
1519
  8
TITLE
 10
323.09172904695129
 20
73.507925714333865
 30
0.0
 11
324.13516134099859
 21
74.551358008388263
 31
0.0
  0
LINE
  5
151A
  8
TITLE
 10
323.26629879224578
 20
73.507925714333865
 30
0.0
 11
324.30973108629291
 21
74.551358008388263
 31
0.0
  0
LINE
  5
151B
  8
TITLE
 10
323.44086853753947
 20
73.507925714333865
 30
0.0
 11
324.48430083158701
 21
74.551358008388263
 31
0.0
  0
LINE
  5
151C
  8
TITLE
 10
323.61543828283408
 20
73.507925714333865
 30
0.0
 11
324.65887057688201
 21
74.551358008388263
 31
0.0
  0
LINE
  5
151D
  8
TITLE
 10
325.18867598415369
 20
77.525139849766603
 30
0.0
 11
327.37411263711101
 21
79.71057650271635
 31
0.0
  0
LINE
  5
151E
  8
TITLE
 10
324.83953649356431
 20
77.525139849766603
 30
0.0
 11
326.14382686113493
 21
78.829430217329374
 31
0.0
  0
LINE
  5
151F
  8
TITLE
 10
325.01410623885931
 20
77.525139849766603
 30
0.0
 11
326.31839660642908
 21
78.829430217329374
 31
0.0
  0
LINE
  5
1520
  8
TITLE
 10
324.14125751240181
 20
77.525139849766603
 30
0.0
 11
325.44554787995747
 21
78.829430217329374
 31
0.0
  0
LINE
  5
1521
  8
TITLE
 10
324.3158272576959
 20
77.525139849766603
 30
0.0
 11
325.62011762525208
 21
78.829430217329374
 31
0.0
  0
LINE
  5
1522
  8
TITLE
 10
324.4903970029909
 20
77.525139849766603
 30
0.0
 11
325.79468737054549
 21
78.829430217329374
 31
0.0
  0
LINE
  5
1523
  8
TITLE
 10
324.6649667482846
 20
77.525139849766603
 30
0.0
 11
325.96925711584049
 21
78.829430217329374
 31
0.0
  0
LINE
  5
1524
  8
TITLE
 10
321.67193381918912
 20
68.77130532600836
 30
0.0
 11
327.45198650156181
 21
74.551358008388263
 31
0.0
  0
LINE
  5
1525
  8
TITLE
 10
324.80478421422731
 20
69.634749032242439
 30
0.0
 11
327.73887163500791
 21
72.568836453022996
 31
0.0
  0
LINE
  5
1526
  8
TITLE
 10
321.9245217768937
 20
68.849323538419071
 30
0.0
 11
326.58231230411752
 21
73.507114065642909
 31
0.0
  0
LINE
  5
1527
  8
TITLE
 10
322.20151505770582
 20
68.951747073943665
 30
0.0
 11
326.58231230411752
 21
73.332544320349214
 31
0.0
  0
LINE
  5
1528
  8
TITLE
 10
322.51449125770569
 20
69.090153528641736
 30
0.0
 11
326.58231230411752
 21
73.157974575061644
 31
0.0
  0
LINE
  5
1529
  8
TITLE
 10
324.80478421422731
 20
69.983888522823719
 30
0.0
 11
327.38973214441899
 21
72.568836453022996
 31
0.0
  0
LINE
  5
152A
  8
TITLE
 10
324.80478421422731
 20
69.809318777536504
 30
0.0
 11
327.56430188971382
 21
72.568836453022996
 31
0.0
  0
LINE
  5
152B
  8
TITLE
 10
324.80478421422731
 20
71.205876739883792
 30
0.0
 11
326.58231230411752
 21
72.983404829767039
 31
0.0
  0
LINE
  5
152C
  8
TITLE
 10
324.80478421422731
 20
71.031306994589187
 30
0.0
 11
326.58231230411752
 21
72.808835084472463
 31
0.0
  0
LINE
  5
152D
  8
TITLE
 10
324.80478421422731
 20
70.85673724929552
 30
0.0
 11
326.58231230411752
 21
72.634265339185745
 31
0.0
  0
LINE
  5
152E
  8
TITLE
 10
324.80478421422731
 20
70.68216750400066
 30
0.0
 11
326.69145316325603
 21
72.568836453022996
 31
0.0
  0
LINE
  5
152F
  8
TITLE
 10
324.80478421422731
 20
70.507597758706055
 30
0.0
 11
326.86602290855058
 21
72.568836453022996
 31
0.0
  0
LINE
  5
1530
  8
TITLE
 10
324.80478421422731
 20
70.333028013412346
 30
0.0
 11
327.04059265384473
 21
72.568836453022996
 31
0.0
  0
LINE
  5
1531
  8
TITLE
 10
324.80478421422731
 20
70.158458268118324
 30
0.0
 11
327.2151623991395
 21
72.568836453022996
 31
0.0
  0
LINE
  5
1532
  8
TITLE
 10
324.80478421422731
 20
69.460179286955736
 30
0.0
 11
326.58231230411752
 21
71.237707376838472
 31
0.0
  0
LINE
  5
1533
  8
TITLE
 10
324.80478421422731
 20
69.285609541661444
 30
0.0
 11
326.58231230411752
 21
71.063137631544436
 31
0.0
  0
LINE
  5
1534
  8
TITLE
 10
324.80478421422731
 20
69.111039796366583
 30
0.0
 11
326.58231230411752
 21
70.888567886249845
 31
0.0
  0
LINE
  5
1535
  8
TITLE
 10
324.80478421422731
 20
68.936470051072007
 30
0.0
 11
326.58231230411752
 21
70.713998140962246
 31
0.0
  0
LINE
  5
1536
  8
TITLE
 10
324.80478421422731
 20
68.761900305777488
 30
0.0
 11
326.58231230411752
 21
70.539428395668565
 31
0.0
  0
LINE
  5
1537
  8
TITLE
 10
324.80478421422731
 20
68.587330560483423
 30
0.0
 11
326.58231230411752
 21
70.364858650373975
 31
0.0
  0
LINE
  5
1538
  8
TITLE
 10
324.97335212721453
 20
68.581328728176373
 30
0.0
 11
326.58231230411752
 21
70.19028890508028
 31
0.0
  0
LINE
  5
1539
  8
TITLE
 10
325.14792187250828
 20
68.581328728176373
 30
0.0
 11
326.58231230411752
 21
70.015719159785391
 31
0.0
  0
LINE
  5
153A
  8
TITLE
 10
324.80478421422731
 20
75.220980881617066
 30
0.0
 11
326.27419744548001
 21
76.690394112862521
 31
0.0
  0
LINE
  5
153B
  8
TITLE
 10
324.80478421422731
 20
75.046411136322817
 30
0.0
 11
326.44876719075978
 21
76.690394112862521
 31
0.0
  0
LINE
  5
153C
  8
TITLE
 10
324.80478421422731
 20
74.87184139103546
 30
0.0
 11
326.62333693605348
 21
76.690394112862521
 31
0.0
  0
LINE
  5
153D
  8
TITLE
 10
324.80478421422731
 20
74.697271645741822
 30
0.0
 11
326.79790668134802
 21
76.690394112862521
 31
0.0
  0
LINE
  5
153E
  8
TITLE
 10
323.79000802812863
 20
73.507925714333865
 30
0.0
 11
326.97247642664212
 21
76.690394112862521
 31
0.0
  0
LINE
  5
153F
  8
TITLE
 10
323.96457777342232
 20
73.507925714333865
 30
0.0
 11
327.14704617193649
 21
76.690394112862521
 31
0.0
  0
LINE
  5
1540
  8
TITLE
 10
324.13914751870249
 20
73.507925714333865
 30
0.0
 11
327.32161591723087
 21
76.690394112862521
 31
0.0
  0
LINE
  5
1541
  8
TITLE
 10
324.25357314638552
 20
75.542618540239374
 30
0.0
 11
325.4013487190079
 21
76.690394112862521
 31
0.0
  0
LINE
  5
1542
  8
TITLE
 10
324.42814289167973
 20
75.542618540239374
 30
0.0
 11
325.5759184643025
 21
76.690394112862521
 31
0.0
  0
LINE
  5
1543
  8
TITLE
 10
324.60271263697388
 20
75.542618540239374
 30
0.0
 11
325.75048820959643
 21
76.690394112862521
 31
0.0
  0
LINE
  5
1544
  8
TITLE
 10
324.7772823822686
 20
75.542618540239374
 30
0.0
 11
325.92505795489092
 21
76.690394112862521
 31
0.0
  0
LINE
  5
1545
  8
TITLE
 10
324.80478421422731
 20
75.395550626904111
 30
0.0
 11
326.09962770018552
 21
76.690394112862521
 31
0.0
  0
LINE
  5
1546
  8
TITLE
 10
324.6628567545855
 20
73.507925714333865
 30
0.0
 11
326.58231230411752
 21
75.427381263865783
 31
0.0
  0
LINE
  5
1547
  8
TITLE
 10
324.80478421422731
 20
73.475283428688215
 30
0.0
 11
326.58231230411752
 21
75.252811518572045
 31
0.0
  0
LINE
  5
1548
  8
TITLE
 10
324.80478421422731
 20
73.300713683393596
 30
0.0
 11
326.58231230411752
 21
75.078241773277497
 31
0.0
  0
LINE
  5
1549
  8
TITLE
 10
324.80478421422731
 20
73.126143938099929
 30
0.0
 11
326.58231230411752
 21
74.903672027990211
 31
0.0
  0
LINE
  5
154A
  8
TITLE
 10
324.80478421422731
 20
72.951574192812359
 30
0.0
 11
326.58231230411752
 21
74.729102282695607
 31
0.0
  0
LINE
  5
154B
  8
TITLE
 10
324.80478421422731
 20
72.777004447518635
 30
0.0
 11
326.58231230411752
 21
74.554532537401286
 31
0.0
  0
LINE
  5
154C
  8
TITLE
 10
324.80478421422731
 20
72.602434702223789
 30
0.0
 11
326.7537075203993
 21
74.551358008388263
 31
0.0
  0
LINE
  5
154D
  8
TITLE
 10
339.75
 20
105.0
 30
0.0
 11
339.75
 21
85.0
 31
0.0
  0
LINE
  5
154E
  8
TITLE
 10
336.84256335762979
 20
77.657424033897456
 30
0.0
 11
338.87986397059848
 21
79.694724646880474
 31
0.0
  0
LINE
  5
154F
  8
TITLE
 10
336.84256335762979
 20
77.482854288602937
 30
0.0
 11
338.87986397059848
 21
79.520154901586139
 31
0.0
  0
LINE
  5
1550
  8
TITLE
 10
336.84256335762979
 20
76.0862963262623
 30
0.0
 11
339.0118095852938
 21
78.25554255393341
 31
0.0
  0
LINE
  5
1551
  8
TITLE
 10
337.0023882202745
 20
76.071551443627399
 30
0.0
 11
339.1863793305879
 21
78.25554255393341
 31
0.0
  0
LINE
  5
1552
  8
TITLE
 10
336.84256335762979
 20
76.959145052726385
 30
0.0
 11
338.87986397059848
 21
78.996445665703277
 31
0.0
  0
LINE
  5
1553
  8
TITLE
 10
336.84256335762979
 20
76.784575307432746
 30
0.0
 11
338.87978303866697
 21
78.821794988476682
 31
0.0
  0
LINE
  5
1554
  8
TITLE
 10
336.84256335762979
 20
76.610005562145417
 30
0.0
 11
338.87218754539208
 21
78.639629749907556
 31
0.0
  0
LINE
  5
1555
  8
TITLE
 10
336.84256335762979
 20
76.435435816851751
 30
0.0
 11
338.85169019167802
 21
78.444562650906505
 31
0.0
  0
LINE
  5
1556
  8
TITLE
 10
336.84256335762979
 20
76.260866071556862
 30
0.0
 11
338.83723983999897
 21
78.25554255393341
 31
0.0
  0
LINE
  5
1557
  8
TITLE
 10
337.33683539989482
 20
76.231428877939223
 30
0.0
 11
339.36094907588148
 21
78.25554255393341
 31
0.0
  0
LINE
  5
1558
  8
TITLE
 10
336.84256335762979
 20
77.308284543308361
 30
0.0
 11
338.87986397059848
 21
79.345585156291506
 31
0.0
  0
LINE
  5
1559
  8
TITLE
 10
336.84256335762979
 20
77.133714798014282
 30
0.0
 11
338.87986397059848
 21
79.171015410998137
 31
0.0
  0
LINE
  5
155A
  8
TITLE
 10
337.30858649637389
 20
78.298016917942775
 30
0.0
 11
338.72114608115498
 21
79.71057650271635
 31
0.0
  0
LINE
  5
155B
  8
TITLE
 10
337.46942497692481
 20
79.157134379663376
 30
0.0
 11
338.02286709997719
 21
79.71057650271635
 31
0.0
  0
LINE
  5
155C
  8
TITLE
 10
337.46942497692481
 20
78.982564634369425
 30
0.0
 11
338.1974368452718
 21
79.71057650271635
 31
0.0
  0
LINE
  5
155D
  8
TITLE
 10
337.46082108222822
 20
78.799390994378271
 30
0.0
 11
338.37200659056589
 21
79.71057650271635
 31
0.0
  0
LINE
  5
155E
  8
TITLE
 10
337.41641158848103
 20
78.580411755344286
 30
0.0
 11
338.54657633586021
 21
79.71057650271635
 31
0.0
  0
LINE
  5
155F
  8
TITLE
 10
336.84256335762979
 20
69.103506514547917
 30
0.0
 11
339.43657324601099
 21
71.697516402928144
 31
0.0
  0
LINE
  5
1560
  8
TITLE
 10
337.12468325485531
 20
69.211056666486598
 30
0.0
 11
339.21397110786847
 21
71.300344519492427
 31
0.0
  0
LINE
  5
1561
  8
TITLE
 10
337.67992278905302
 20
69.591726455389704
 30
0.0
 11
338.83330131896491
 21
70.745104985294205
 31
0.0
  0
LINE
  5
1562
  8
TITLE
 10
337.33248025294279
 20
71.513690608090883
 30
0.0
 11
341.36140818509813
 21
75.542618540239374
 31
0.0
  0
LINE
  5
1563
  8
TITLE
 10
336.84256335762979
 20
70.849203967476257
 30
0.0
 11
341.53597793039251
 21
75.542618540239374
 31
0.0
  0
LINE
  5
1564
  8
TITLE
 10
337.93840549982929
 20
72.46875534555852
 30
0.0
 11
341.12611876803538
 21
75.656468613758094
 31
0.0
  0
LINE
  5
1565
  8
TITLE
 10
337.71314620553733
 20
72.068926305972596
 30
0.0
 11
341.18683843980398
 21
75.542618540239374
 31
0.0
  0
LINE
  5
1566
  8
TITLE
 10
336.84463593554051
 20
74.342671451244456
 30
0.0
 11
338.04458302452127
 21
75.542618540239374
 31
0.0
  0
LINE
  5
1567
  8
TITLE
 10
337.01920568083489
 20
74.342671451244456
 30
0.0
 11
338.21915276981531
 21
75.542618540239374
 31
0.0
  0
LINE
  5
1568
  8
TITLE
 10
337.19377542612892
 20
74.342671451244456
 30
0.0
 11
338.39372251510991
 21
75.542618540239374
 31
0.0
  0
LINE
  5
1569
  8
TITLE
 10
337.36834517140892
 20
74.342671451244456
 30
0.0
 11
338.5682922604035
 21
75.542618540239374
 31
0.0
  0
LINE
  5
156A
  8
TITLE
 10
337.5429149167033
 20
74.342671451244456
 30
0.0
 11
338.74286200569799
 21
75.542618540239374
 31
0.0
  0
LINE
  5
156B
  8
TITLE
 10
337.71748466199762
 20
74.342671451244456
 30
0.0
 11
338.91743175099242
 21
75.542618540239374
 31
0.0
  0
LINE
  5
156C
  8
TITLE
 10
337.89205440729188
 20
74.342671451244456
 30
0.0
 11
339.09200149628691
 21
75.542618540239374
 31
0.0
  0
LINE
  5
156D
  8
TITLE
 10
336.84256335762979
 20
69.976355241004768
 30
0.0
 11
342.4088266568495
 21
75.542618540239374
 31
0.0
  0
LINE
  5
156E
  8
TITLE
 10
336.84256335762979
 20
69.627215750423545
 30
0.0
 11
342.75796614743803
 21
75.542618540239374
 31
0.0
  0
LINE
  5
156F
  8
TITLE
 10
336.84256335762979
 20
69.452646005129594
 30
0.0
 11
342.93253589273252
 21
75.542618540239374
 31
0.0
  0
LINE
  5
1570
  8
TITLE
 10
336.84256335762979
 20
69.278076259842521
 30
0.0
 11
343.10710563802741
 21
75.542618540239374
 31
0.0
  0
LINE
  5
1571
  8
TITLE
 10
336.84256335762979
 20
69.80178549571815
 30
0.0
 11
342.58339640214439
 21
75.542618540239374
 31
0.0
  0
LINE
  5
1572
  8
TITLE
 10
336.84256335762979
 20
70.325494731593736
 30
0.0
 11
342.0596871662612
 21
75.542618540239374
 31
0.0
  0
LINE
  5
1573
  8
TITLE
 10
336.84256335762979
 20
70.15092498629943
 30
0.0
 11
342.23425691155529
 21
75.542618540239374
 31
0.0
  0
LINE
  5
1574
  8
TITLE
 10
336.84256335762979
 20
70.674634222182561
 30
0.0
 11
341.7105476756725
 21
75.542618540239374
 31
0.0
  0
LINE
  5
1575
  8
TITLE
 10
336.84256335762979
 20
70.500064476887701
 30
0.0
 11
341.88511742096722
 21
75.542618540239374
 31
0.0
  0
LINE
  5
1576
  8
TITLE
 10
333.76049275645801
 20
77.89217859329635
 30
0.0
 11
335.43212436394151
 21
79.563810200779443
 31
0.0
  0
LINE
  5
1577
  8
TITLE
 10
333.64223664847742
 20
76.377364522982134
 30
0.0
 11
335.43212436394151
 21
78.16725223843919
 31
0.0
  0
LINE
  5
1578
  8
TITLE
 10
335.5625038467
 20
76.377364522974872
 30
0.0
 11
336.3724170264
 21
77.18727770266743
 31
0.0
  0
LINE
  5
1579
  8
TITLE
 10
335.73707359199437
 20
76.377364522974872
 30
0.0
 11
336.3724170264
 21
77.012707957372854
 31
0.0
  0
LINE
  5
157A
  8
TITLE
 10
335.91164333728898
 20
76.377364522974872
 30
0.0
 11
336.3724170264
 21
76.838138212086079
 31
0.0
  0
LINE
  5
157B
  8
TITLE
 10
336.26078282787768
 20
76.377364522982134
 30
0.0
 11
336.3724170264
 21
76.488998721498461
 31
0.0
  0
LINE
  5
157C
  8
TITLE
 10
336.08621308258353
 20
76.377364522974872
 30
0.0
 11
336.3724170264
 21
76.663568466791574
 31
0.0
  0
LINE
  5
157D
  8
TITLE
 10
333.76049275645801
 20
75.622771904492467
 30
0.0
 11
335.87154725887632
 21
77.733826406909557
 31
0.0
  0
LINE
  5
157E
  8
TITLE
 10
333.76049275645801
 20
75.448202159198217
 30
0.0
 11
336.04611700417149
 21
77.733826406909557
 31
0.0
  0
LINE
  5
157F
  8
TITLE
 10
333.76049275645801
 20
75.971911395073818
 30
0.0
 11
335.52240776828802
 21
77.733826406909557
 31
0.0
  0
LINE
  5
1580
  8
TITLE
 10
333.76049275645801
 20
75.797341649779483
 30
0.0
 11
335.69697751358188
 21
77.733826406909557
 31
0.0
  0
LINE
  5
1581
  8
TITLE
 10
333.76049275645801
 20
76.14648114036747
 30
0.0
 11
335.43212436394151
 21
77.818112747850591
 31
0.0
  0
LINE
  5
1582
  8
TITLE
 10
333.76049275645801
 20
76.321050885654415
 30
0.0
 11
335.43212436394151
 21
77.992682493145495
 31
0.0
  0
LINE
  5
1583
  8
TITLE
 10
333.76049275645801
 20
78.241318083877573
 30
0.0
 11
335.22975117529728
 21
79.71057650271635
 31
0.0
  0
LINE
  5
1584
  8
TITLE
 10
333.76049275645801
 20
78.06674833858392
 30
0.0
 11
335.40432092057728
 21
79.71057650271635
 31
0.0
  0
LINE
  5
1585
  8
TITLE
 10
333.76049275645801
 20
79.114166810349403
 30
0.0
 11
334.35690244882602
 21
79.71057650271635
 31
0.0
  0
LINE
  5
1586
  8
TITLE
 10
333.76049275645801
 20
78.939597065055068
 30
0.0
 11
334.5314721941204
 21
79.71057650271635
 31
0.0
  0
LINE
  5
1587
  8
TITLE
 10
333.76049275645801
 20
78.765027319760449
 30
0.0
 11
334.70604193941449
 21
79.71057650271635
 31
0.0
  0
LINE
  5
1588
  8
TITLE
 10
333.76049275645801
 20
78.590457574466996
 30
0.0
 11
334.88061168470841
 21
79.71057650271635
 31
0.0
  0
LINE
  5
1589
  8
TITLE
 10
333.76049275645801
 20
78.415887829172192
 30
0.0
 11
335.0551814300033
 21
79.71057650271635
 31
0.0
  0
LINE
  5
158A
  8
TITLE
 10
333.76049275645801
 20
79.288736555643624
 30
0.0
 11
334.1823327035313
 21
79.71057650271635
 31
0.0
  0
LINE
  5
158B
  8
TITLE
 10
333.76049275645801
 20
79.637876046225543
 30
0.0
 11
333.83319321294289
 21
79.71057650271635
 31
0.0
  0
LINE
  5
158C
  8
TITLE
 10
333.76049275645801
 20
79.46330630093145
 30
0.0
 11
334.00776295823732
 21
79.71057650271635
 31
0.0
  0
LINE
  5
158D
  8
TITLE
 10
337.46942497692481
 20
79.331704124957696
 30
0.0
 11
337.84829735468321
 21
79.71057650271635
 31
0.0
  0
LINE
  5
158E
  8
TITLE
 10
337.46942497692481
 20
79.680843615539231
 30
0.0
 11
337.49915786409451
 21
79.71057650271635
 31
0.0
  0
LINE
  5
158F
  8
TITLE
 10
337.46942497692481
 20
79.506273870245565
 30
0.0
 11
337.67372760938889
 21
79.71057650271635
 31
0.0
  0
LINE
  5
1590
  8
TITLE
 10
329.90205910707027
 20
77.525139849766603
 30
0.0
 11
331.20634947462651
 21
78.829430217329374
 31
0.0
  0
LINE
  5
1591
  8
TITLE
 10
330.0766288523651
 20
77.525139849766603
 30
0.0
 11
331.35748892926591
 21
78.805999926659595
 31
0.0
  0
LINE
  5
1592
  8
TITLE
 10
330.2511985976455
 20
77.525139849766603
 30
0.0
 11
331.35748892926591
 21
78.631430181372025
 31
0.0
  0
LINE
  5
1593
  8
TITLE
 10
330.42576834293942
 20
77.525139849766603
 30
0.0
 11
331.35748892926591
 21
78.456860436078316
 31
0.0
  0
LINE
  5
1594
  8
TITLE
 10
330.6003380882338
 20
77.525139849766603
 30
0.0
 11
331.35748892926591
 21
78.282290690790731
 31
0.0
  0
LINE
  5
1595
  8
TITLE
 10
330.774907833528
 20
77.525139849766603
 30
0.0
 11
331.35748892926591
 21
78.107720945496496
 31
0.0
  0
LINE
  5
1596
  8
TITLE
 10
331.1240473241163
 20
77.525139849766603
 30
0.0
 11
331.35748892926591
 21
77.758581454907599
 31
0.0
  0
LINE
  5
1597
  8
TITLE
 10
331.29861706941102
 20
77.525139849766603
 30
0.0
 11
331.35748892926591
 21
77.584011709613904
 31
0.0
  0
LINE
  5
1598
  8
TITLE
 10
332.29781533341583
 20
77.651489387305659
 30
0.0
 11
332.3801523530193
 21
77.733826406909557
 31
0.0
  0
LINE
  5
1599
  8
TITLE
 10
332.29781533341583
 20
77.476919642011708
 30
0.0
 11
332.55472209831402
 21
77.733826406909557
 31
0.0
  0
LINE
  5
159A
  8
TITLE
 10
330.94947757882233
 20
77.525139849766603
 30
0.0
 11
331.35748892926591
 21
77.933151200202161
 31
0.0
  0
LINE
  5
159B
  8
TITLE
 10
330.0143747410541
 20
75.542618540239374
 30
0.0
 11
331.00198331128797
 21
76.530227110466271
 31
0.0
  0
LINE
  5
159C
  8
TITLE
 10
330.18894448634933
 20
75.542618540239374
 30
0.0
 11
331.00198331128797
 21
76.355657365171425
 31
0.0
  0
LINE
  5
159D
  8
TITLE
 10
329.83980499576012
 20
75.542618540239374
 30
0.0
 11
330.98758056838318
 21
76.690394112862521
 31
0.0
  0
LINE
  5
159E
  8
TITLE
 10
330.36351423164268
 20
75.542618540239374
 30
0.0
 11
331.00198331128797
 21
76.181087619883797
 31
0.0
  0
LINE
  5
159F
  8
TITLE
 10
330.53808397693803
 20
75.542618540239374
 30
0.0
 11
331.00198331128797
 21
76.006517874589235
 31
0.0
  0
LINE
  5
15A0
  8
TITLE
 10
330.71265372221779
 20
75.542618540239374
 30
0.0
 11
331.00198331128797
 21
75.831948129295498
 31
0.0
  0
LINE
  5
15A1
  8
TITLE
 10
330.88722346751149
 20
75.542618540239374
 30
0.0
 11
331.00198331128797
 21
75.65737838400095
 31
0.0
  0
LINE
  5
15A2
  8
TITLE
 10
332.29781533341583
 20
76.953210406136122
 30
0.0
 11
333.0784313341963
 21
77.733826406909557
 31
0.0
  0
LINE
  5
15A3
  8
TITLE
 10
332.29781533341583
 20
76.778640660841504
 30
0.0
 11
333.25300107947629
 21
77.733826406909557
 31
0.0
  0
LINE
  5
15A4
  8
TITLE
 10
332.29781533341583
 20
76.604070915554573
 30
0.0
 11
333.42757082477061
 21
77.733826406909557
 31
0.0
  0
LINE
  5
15A5
  8
TITLE
 10
332.29781533341583
 20
77.127780151422883
 30
0.0
 11
332.90386158890192
 21
77.733826406909557
 31
0.0
  0
LINE
  5
15A6
  8
TITLE
 10
332.29781533341583
 20
77.302349896717104
 30
0.0
 11
332.72929184360743
 21
77.733826406909557
 31
0.0
  0
LINE
  5
15A7
  8
TITLE
 10
332.42024843143139
 20
76.377364522982134
 30
0.0
 11
335.43212436394151
 21
79.389240455492512
 31
0.0
  0
LINE
  5
15A8
  8
TITLE
 10
332.59481817672548
 20
76.377364522982134
 30
0.0
 11
335.43212436394151
 21
79.214670710197638
 31
0.0
  0
LINE
  5
15A9
  8
TITLE
 10
332.76938792201997
 20
76.377364522974872
 30
0.0
 11
335.43212436394151
 21
79.040100964903317
 31
0.0
  0
LINE
  5
15AA
  8
TITLE
 10
332.94395766731418
 20
76.377364522974872
 30
0.0
 11
335.43212436394151
 21
78.865531219608712
 31
0.0
  0
LINE
  5
15AB
  8
TITLE
 10
333.11852741259469
 20
76.377364522974872
 30
0.0
 11
335.43212436394151
 21
78.690961474315046
 31
0.0
  0
LINE
  5
15AC
  8
TITLE
 10
333.29309715788929
 20
76.377364522974872
 30
0.0
 11
335.43212436394151
 21
78.516391729020441
 31
0.0
  0
LINE
  5
15AD
  8
TITLE
 10
333.4676669031835
 20
76.377364522974872
 30
0.0
 11
335.43212436394151
 21
78.341821983726433
 31
0.0
  0
LINE
  5
15AE
  8
TITLE
 10
332.29781533341583
 20
76.42950117026021
 30
0.0
 11
333.6021405700651
 21
77.733826406909557
 31
0.0
  0
LINE
  5
15AF
  8
TITLE
 10
333.76049275645801
 20
71.433098017457581
 30
0.0
 11
335.43212436394151
 21
73.104729624939523
 31
0.0
  0
LINE
  5
15B0
  8
TITLE
 10
333.76049275645801
 20
71.258528272162962
 30
0.0
 11
335.43212436394151
 21
72.930159879645572
 31
0.0
  0
LINE
  5
15B1
  8
TITLE
 10
333.76049275645801
 20
71.083958526869296
 30
0.0
 11
335.43212436394151
 21
72.755590134351237
 31
0.0
  0
LINE
  5
15B2
  8
TITLE
 10
333.76049275645801
 20
70.909388781574435
 30
0.0
 11
335.43212436394151
 21
72.581020389064321
 31
0.0
  0
LINE
  5
15B3
  8
TITLE
 10
333.76049275645801
 20
70.734819036287746
 30
0.0
 11
335.43212436394151
 21
72.406450643769716
 31
0.0
  0
LINE
  5
15B4
  8
TITLE
 10
333.76049275645801
 20
70.560249290992886
 30
0.0
 11
335.43212436394151
 21
72.231880898483539
 31
0.0
  0
LINE
  5
15B5
  8
TITLE
 10
333.76049275645801
 20
70.385679545698565
 30
0.0
 11
335.43212436394151
 21
72.057311153188422
 31
0.0
  0
LINE
  5
15B6
  8
TITLE
 10
333.76049275645801
 20
71.956807253340457
 30
0.0
 11
335.43212436394151
 21
73.628438860822399
 31
0.0
  0
LINE
  5
15B7
  8
TITLE
 10
333.76049275645801
 20
71.782237508046464
 30
0.0
 11
335.43212436394151
 21
73.453869115528434
 31
0.0
  0
LINE
  5
15B8
  8
TITLE
 10
333.76049275645801
 20
71.607667762752172
 30
0.0
 11
335.43212436394151
 21
73.279299370234099
 31
0.0
  0
LINE
  5
15B9
  8
TITLE
 10
333.76049275645801
 20
69.687400564528474
 30
0.0
 11
335.43212436394151
 21
71.359032172011624
 31
0.0
  0
LINE
  5
15BA
  8
TITLE
 10
333.76049275645801
 20
69.512830819234154
 30
0.0
 11
335.43212436394151
 21
71.184462426716749
 31
0.0
  0
LINE
  5
15BB
  8
TITLE
 10
333.76049275645801
 20
69.338261073940203
 30
0.0
 11
335.43212436394151
 21
71.009892681422443
 31
0.0
  0
LINE
  5
15BC
  8
TITLE
 10
333.76049275645801
 20
69.163691328645584
 30
0.0
 11
335.43212436394151
 21
70.835322936135384
 31
0.0
  0
LINE
  5
15BD
  8
TITLE
 10
333.76049275645801
 20
68.989121583351277
 30
0.0
 11
335.43212436394151
 21
70.660753190841646
 31
0.0
  0
LINE
  5
15BE
  8
TITLE
 10
333.76049275645801
 20
68.814551838064318
 30
0.0
 11
335.43212436394151
 21
70.486183445547454
 31
0.0
  0
LINE
  5
15BF
  8
TITLE
 10
333.76049275645801
 20
68.639982092769742
 30
0.0
 11
335.43212436394151
 21
70.311613700260395
 31
0.0
  0
LINE
  5
15C0
  8
TITLE
 10
333.876409137152
 20
68.581328728176373
 30
0.0
 11
335.43212436394151
 21
70.137043954965804
 31
0.0
  0
LINE
  5
15C1
  8
TITLE
 10
334.050978882447
 20
68.581328728176373
 30
0.0
 11
335.43212436394151
 21
69.962474209671214
 31
0.0
  0
LINE
  5
15C2
  8
TITLE
 10
334.22554862774052
 20
68.581328728176373
 30
0.0
 11
335.43212436394151
 21
69.787904464376737
 31
0.0
  0
LINE
  5
15C3
  8
TITLE
 10
334.40011837303467
 20
68.581328728176373
 30
0.0
 11
335.43212436394151
 21
69.613334719082957
 31
0.0
  0
LINE
  5
15C4
  8
TITLE
 10
334.57468811833002
 20
68.581328728176373
 30
0.0
 11
335.43212436394151
 21
69.438764973788054
 31
0.0
  0
LINE
  5
15C5
  8
TITLE
 10
334.7492578636236
 20
68.581328728176373
 30
0.0
 11
335.43212436394151
 21
69.264195228493605
 31
0.0
  0
LINE
  5
15C6
  8
TITLE
 10
334.92382760891792
 20
68.581328728176373
 30
0.0
 11
335.43212436394151
 21
69.089625483199825
 31
0.0
  0
LINE
  5
15C7
  8
TITLE
 10
335.09839735421241
 20
68.581328728176373
 30
0.0
 11
335.43212436394151
 21
68.91505573791224
 31
0.0
  0
LINE
  5
15C8
  8
TITLE
 10
335.27296709950662
 20
68.581328728176373
 30
0.0
 11
335.43212436394151
 21
68.740485992618815
 31
0.0
  0
LINE
  5
15C9
  8
TITLE
 10
333.76049275645801
 20
70.211109800411606
 30
0.0
 11
335.43212436394151
 21
71.882741407894343
 31
0.0
  0
LINE
  5
15CA
  8
TITLE
 10
333.76049275645801
 20
70.036540055117257
 30
0.0
 11
335.43212436394151
 21
71.708171662599881
 31
0.0
  0
LINE
  5
15CB
  8
TITLE
 10
333.76049275645801
 20
69.861970309823604
 30
0.0
 11
335.43212436394151
 21
71.53360191730529
 31
0.0
  0
LINE
  5
15CC
  8
TITLE
 10
335.50415706792228
 20
73.700471564797056
 30
0.0
 11
336.3724170264
 21
74.56873152328194
 31
0.0
  0
LINE
  5
15CD
  8
TITLE
 10
335.60147310302818
 20
73.623217854622396
 30
0.0
 11
336.3724170264
 21
74.394161777987705
 31
0.0
  0
LINE
  5
15CE
  8
TITLE
 10
335.7007176490954
 20
73.547892655387784
 30
0.0
 11
336.3724170264
 21
74.219592032693683
 31
0.0
  0
LINE
  5
15CF
  8
TITLE
 10
333.76049275645801
 20
72.305946743921737
 30
0.0
 11
336.3724170264
 21
74.917871013863802
 31
0.0
  0
LINE
  5
15D0
  8
TITLE
 10
333.76049275645801
 20
72.131376998634764
 30
0.0
 11
336.3724170264
 21
74.743301268568985
 31
0.0
  0
LINE
  5
15D1
  8
TITLE
 10
335.8019080570715
 20
73.47451331807018
 30
0.0
 11
336.3724170264
 21
74.045022287399419
 31
0.0
  0
LINE
  5
15D2
  8
TITLE
 10
335.90506476381353
 20
73.403100279525788
 30
0.0
 11
336.3724170264
 21
73.870452542104573
 31
0.0
  0
LINE
  5
15D3
  8
TITLE
 10
336.01021144748978
 20
73.333677217899563
 30
0.0
 11
336.3724170264
 21
73.695882796810267
 31
0.0
  0
LINE
  5
15D4
  8
TITLE
 10
336.11737521210171
 20
73.266271237217396
 30
0.0
 11
336.3724170264
 21
73.521313051516543
 31
0.0
  0
LINE
  5
15D5
  8
TITLE
 10
336.22658680463849
 20
73.200913084473683
 30
0.0
 11
336.3724170264
 21
73.346743306221683
 31
0.0
  0
LINE
  5
15D6
  8
TITLE
 10
336.3378808690718
 20
73.137637403612402
 30
0.0
 11
336.3724170264
 21
73.172173560934638
 31
0.0
  0
LINE
  5
15D7
  8
TITLE
 10
329.88986651843248
 20
71.577575921171643
 30
0.0
 11
330.88112705029152
 21
72.568836453022996
 31
0.0
  0
LINE
  5
15D8
  8
TITLE
 10
330.06443626372732
 20
71.577575921171643
 30
0.0
 11
331.0556967955709
 21
72.568836453022996
 31
0.0
  0
LINE
  5
15D9
  8
TITLE
 10
330.23900600902152
 20
71.577575921171643
 30
0.0
 11
331.23026654086522
 21
72.568836453022996
 31
0.0
  0
LINE
  5
15DA
  8
TITLE
 10
330.41357575431579
 20
71.577575921171643
 30
0.0
 11
331.35748892926591
 21
72.521489096121499
 31
0.0
  0
LINE
  5
15DB
  8
TITLE
 10
330.58814549960988
 20
71.577575921171643
 30
0.0
 11
331.35748892926591
 21
72.346919350827562
 31
0.0
  0
LINE
  5
15DC
  8
TITLE
 10
330.76271524490431
 20
71.577575921171643
 30
0.0
 11
331.35748892926591
 21
72.172349605533
 31
0.0
  0
LINE
  5
15DD
  8
TITLE
 10
330.93728499019858
 20
71.577575921171643
 30
0.0
 11
331.35748892926591
 21
71.997779860238381
 31
0.0
  0
LINE
  5
15DE
  8
TITLE
 10
329.84266785398222
 20
68.737261332026463
 30
0.0
 11
331.06566223984601
 21
69.960255717897468
 31
0.0
  0
LINE
  5
15DF
  8
TITLE
 10
329.98364644207032
 20
68.703670174834926
 30
0.0
 11
331.24023198513947
 21
69.960255717897468
 31
0.0
  0
LINE
  5
15E0
  8
TITLE
 10
330.1281199975229
 20
68.673573984984898
 30
0.0
 11
331.35748892926591
 21
69.902942916721287
 31
0.0
  0
LINE
  5
15E1
  8
TITLE
 10
330.27629231504642
 20
68.647176557221741
 30
0.0
 11
331.35748892926591
 21
69.728373171426426
 31
0.0
  0
LINE
  5
15E2
  8
TITLE
 10
330.42839819380117
 20
68.624712690683424
 30
0.0
 11
331.35748892926591
 21
69.553803426140036
 31
0.0
  0
LINE
  5
15E3
  8
TITLE
 10
330.58471000191929
 20
68.60645475351339
 30
0.0
 11
331.35748892926591
 21
69.379233680845431
 31
0.0
  0
LINE
  5
15E4
  8
TITLE
 10
330.74554620099218
 20
68.592721207285393
 30
0.0
 11
331.35748892926591
 21
69.204663935558386
 31
0.0
  0
LINE
  5
15E5
  8
TITLE
 10
330.9112825958353
 20
68.583887856833499
 30
0.0
 11
331.35748892926591
 21
69.030094190264435
 31
0.0
  0
LINE
  5
15E6
  8
TITLE
 10
331.0832932124722
 20
68.581328728176373
 30
0.0
 11
331.35748892926591
 21
68.85552444497047
 31
0.0
  0
LINE
  5
15E7
  8
TITLE
 10
331.25786295776652
 20
68.581328728176373
 30
0.0
 11
331.35748892926591
 21
68.680954699675596
 31
0.0
  0
LINE
  5
15E8
  8
TITLE
 10
331.1118547354933
 20
71.577575921171643
 30
0.0
 11
331.35748892926591
 21
71.823210114944459
 31
0.0
  0
LINE
  5
15E9
  8
TITLE
 10
331.28642448078762
 20
71.577575921171643
 30
0.0
 11
331.35748892926591
 21
71.648640369649854
 31
0.0
  0
LINE
  5
15EA
  8
TITLE
 10
329.8999491133718
 20
73.507925714333865
 30
0.0
 11
330.94338140743389
 21
74.551358008388263
 31
0.0
  0
LINE
  5
15EB
  8
TITLE
 10
330.0745188586659
 20
73.507925714333865
 30
0.0
 11
331.00198331128797
 21
74.435390166948224
 31
0.0
  0
LINE
  5
15EC
  8
TITLE
 10
330.24908860396039
 20
73.507925714333865
 30
0.0
 11
331.00198331128797
 21
74.260820421660384
 31
0.0
  0
LINE
  5
15ED
  8
TITLE
 10
330.42365834925528
 20
73.507925714333865
 30
0.0
 11
331.00198331128797
 21
74.086250676366447
 31
0.0
  0
LINE
  5
15EE
  8
TITLE
 10
330.59822809454931
 20
73.507925714333865
 30
0.0
 11
331.00198331128797
 21
73.911680931072098
 31
0.0
  0
LINE
  5
15EF
  8
TITLE
 10
330.77279783984329
 20
73.507925714333865
 30
0.0
 11
331.00198331128797
 21
73.737111185777522
 31
0.0
  0
LINE
  5
15F0
  8
TITLE
 10
330.94736758513773
 20
73.507925714333865
 30
0.0
 11
331.00198331128797
 21
73.562541440483812
 31
0.0
  0
LINE
  5
15F1
  8
TITLE
 10
332.29781533341583
 20
73.287245754984113
 30
0.0
 11
332.49069809517528
 21
73.480128516737423
 31
0.0
  0
LINE
  5
15F2
  8
TITLE
 10
332.29781533341583
 20
71.541548302055176
 30
0.0
 11
335.96080645678933
 21
75.204539425430212
 31
0.0
  0
LINE
  5
15F3
  8
TITLE
 10
332.29781533341583
 20
71.366978556761524
 30
0.0
 11
336.0646171040039
 21
75.133780327342464
 31
0.0
  0
LINE
  5
15F4
  8
TITLE
 10
332.62157149781348
 20
71.5161649758724
 30
0.0
 11
336.17595261806753
 21
75.070546096111457
 31
0.0
  0
LINE
  5
15F5
  8
TITLE
 10
333.10757897869013
 20
71.827602711440477
 30
0.0
 11
336.29534888555918
 21
75.015372618316619
 31
0.0
  0
LINE
  5
15F6
  8
TITLE
 10
332.29781533341583
 20
71.890687792636825
 30
0.0
 11
335.7745539267849
 21
75.367426386006457
 31
0.0
  0
LINE
  5
15F7
  8
TITLE
 10
332.29781533341583
 20
71.716118047342519
 30
0.0
 11
335.8641798993649
 21
75.282482613306811
 31
0.0
  0
LINE
  5
15F8
  8
TITLE
 10
333.2969796898393
 20
74.286410111400556
 30
0.0
 11
336.3724170264
 21
77.361847447962319
 31
0.0
  0
LINE
  5
15F9
  8
TITLE
 10
332.29781533341583
 20
73.112676009690077
 30
0.0
 11
335.43212436394151
 21
76.246985040216543
 31
0.0
  0
LINE
  5
15FA
  8
TITLE
 10
332.29781533341583
 20
72.938106264402464
 30
0.0
 11
335.43212436394151
 21
76.072415294921697
 31
0.0
  0
LINE
  5
15FB
  8
TITLE
 10
332.29781533341583
 20
72.763536519107944
 30
0.0
 11
335.43485018578372
 21
75.900571371463059
 31
0.0
  0
LINE
  5
15FC
  8
TITLE
 10
332.29781533341583
 20
72.588966773813937
 30
0.0
 11
335.48723542026647
 21
75.778386860651182
 31
0.0
  0
LINE
  5
15FD
  8
TITLE
 10
332.29781533341583
 20
72.414397028519716
 30
0.0
 11
335.5479087219037
 21
75.664490417008381
 31
0.0
  0
LINE
  5
15FE
  8
TITLE
 10
332.29781533341583
 20
72.239827283225623
 30
0.0
 11
335.61625780987578
 21
75.558269759678325
 31
0.0
  0
LINE
  5
15FF
  8
TITLE
 10
332.29781533341583
 20
72.065257537931444
 30
0.0
 11
335.69188353949198
 21
75.459325744015885
 31
0.0
  0
LINE
  5
1600
  8
TITLE
 10
336.84256335762979
 20
74.864308109209588
 30
0.0
 11
337.5208737886519
 21
75.542618540239374
 31
0.0
  0
LINE
  5
1601
  8
TITLE
 10
336.84256335762979
 20
74.689738363922501
 30
0.0
 11
337.69544353394639
 21
75.542618540239374
 31
0.0
  0
LINE
  5
1602
  8
TITLE
 10
336.84256335762979
 20
74.515168618628323
 30
0.0
 11
337.87001327924128
 21
75.542618540239374
 31
0.0
  0
LINE
  5
1603
  8
TITLE
 10
336.84256335762979
 20
75.038877854504179
 30
0.0
 11
337.34630404335809
 21
75.542618540239374
 31
0.0
  0
LINE
  5
1604
  8
TITLE
 10
336.84256335762979
 20
75.388017345085473
 30
0.0
 11
336.99716455276939
 21
75.542618540239374
 31
0.0
  0
LINE
  5
1605
  8
TITLE
 10
336.84256335762979
 20
75.213447599799053
 30
0.0
 11
337.17173429806348
 21
75.542618540239374
 31
0.0
  0
LINE
  5
1606
  8
TITLE
 10
333.74250229165932
 20
75.25564194911172
 30
0.0
 11
336.2206867494649
 21
77.733826406909557
 31
0.0
  0
LINE
  5
1607
  8
TITLE
 10
333.66350339235032
 20
75.002073304500698
 30
0.0
 11
336.3724170264
 21
77.71098693855059
 31
0.0
  0
LINE
  5
1608
  8
TITLE
 10
333.537764697478
 20
74.701764864341584
 30
0.0
 11
336.3724170264
 21
77.53641719325654
 31
0.0
  0
LINE
  5
1609
  8
TITLE
 10
344.58950772008711
 20
77.897869348770868
 30
0.0
 11
344.9471804335933
 21
78.255542062262279
 31
0.0
  0
LINE
  5
160A
  8
TITLE
 10
344.58950772008711
 20
77.723299603476505
 30
0.0
 11
345.1217501788733
 21
78.255542062262279
 31
0.0
  0
LINE
  5
160B
  8
TITLE
 10
344.58950772008711
 20
77.548729858182597
 30
0.0
 11
345.29631992416802
 21
78.255542062262279
 31
0.0
  0
LINE
  5
160C
  8
TITLE
 10
344.58950772008711
 20
76.850450877005414
 30
0.0
 11
345.99459890534462
 21
78.255542062262279
 31
0.0
  0
LINE
  5
160D
  8
TITLE
 10
344.7605352503399
 20
76.846908661963923
 30
0.0
 11
346.16916865063899
 21
78.255542062262279
 31
0.0
  0
LINE
  5
160E
  8
TITLE
 10
341.87913815441129
 20
77.10776698131032
 30
0.0
 11
343.02691372703367
 21
78.25554255393341
 31
0.0
  0
LINE
  5
160F
  8
TITLE
 10
341.7045684091168
 20
77.10776698131032
 30
0.0
 11
342.8523439817393
 21
78.25554255393341
 31
0.0
  0
LINE
  5
1610
  8
TITLE
 10
342.57741713558789
 20
77.10776698131032
 30
0.0
 11
343.68580460860738
 21
78.216154454337769
 31
0.0
  0
LINE
  5
1611
  8
TITLE
 10
342.05370789970488
 20
77.10776698131032
 30
0.0
 11
343.20148347232748
 21
78.25554255393341
 31
0.0
  0
LINE
  5
1612
  8
TITLE
 10
342.22827764499948
 20
77.10776698131032
 30
0.0
 11
343.37605321762197
 21
78.25554255393341
 31
0.0
  0
LINE
  5
1613
  8
TITLE
 10
342.4028473902938
 20
77.10776698131032
 30
0.0
 11
343.55062296291658
 21
78.25554255393341
 31
0.0
  0
LINE
  5
1614
  8
TITLE
 10
344.58950772008711
 20
77.199590367593657
 30
0.0
 11
345.64545941475598
 21
78.255542062262279
 31
0.0
  0
LINE
  5
1615
  8
TITLE
 10
344.58950772008711
 20
77.025020622299436
 30
0.0
 11
345.82002916005013
 21
78.255542062262279
 31
0.0
  0
LINE
  5
1616
  8
TITLE
 10
344.58950772008711
 20
77.374160112888546
 30
0.0
 11
345.47088966946171
 21
78.255542062262279
 31
0.0
  0
LINE
  5
1617
  8
TITLE
 10
343.45026586204489
 20
77.10776698131032
 30
0.0
 11
343.68580460860738
 21
77.343305727880235
 31
0.0
  0
LINE
  5
1618
  8
TITLE
 10
343.62483560733921
 20
77.10776698131032
 30
0.0
 11
343.68580460860738
 21
77.168735982585758
 31
0.0
  0
LINE
  5
1619
  8
TITLE
 10
343.10112637145647
 20
77.10776698131032
 30
0.0
 11
343.68580460860738
 21
77.692445218468464
 31
0.0
  0
LINE
  5
161A
  8
TITLE
 10
343.27569611675091
 20
77.10776698131032
 30
0.0
 11
343.68580460860738
 21
77.517875473174001
 31
0.0
  0
LINE
  5
161B
  8
TITLE
 10
342.75198688088199
 20
77.10776698131032
 30
0.0
 11
343.68580460860738
 21
78.041584709050696
 31
0.0
  0
LINE
  5
161C
  8
TITLE
 10
342.92655662616198
 20
77.10776698131032
 30
0.0
 11
343.68580460860738
 21
77.867014963756134
 31
0.0
  0
LINE
  5
161D
  8
TITLE
 10
344.58950772008711
 20
78.247008839352944
 30
0.0
 11
344.59804094300449
 21
78.255542062262279
 31
0.0
  0
LINE
  5
161E
  8
TITLE
 10
344.58950772008711
 20
78.072439094066013
 30
0.0
 11
344.77261068829932
 21
78.255542062262279
 31
0.0
  0
LINE
  5
161F
  8
TITLE
 10
341.72522269948189
 20
70.843910441131811
 30
0.0
 11
342.93131304360918
 21
72.050000785258121
 31
0.0
  0
LINE
  5
1620
  8
TITLE
 10
341.80017049279189
 20
70.744288489139592
 30
0.0
 11
342.99876560714529
 21
71.942883603500135
 31
0.0
  0
LINE
  5
1621
  8
TITLE
 10
341.876883841162
 20
70.646432092222454
 30
0.0
 11
343.06801084139948
 21
71.837559092460495
 31
0.0
  0
LINE
  5
1622
  8
TITLE
 10
341.9553500455649
 20
70.550328551331773
 30
0.0
 11
343.13902711316291
 21
71.734005618943499
 31
0.0
  0
LINE
  5
1623
  8
TITLE
 10
342.46251624989952
 20
70.01007628390019
 30
0.0
 11
343.60139655677131
 21
71.14895659077834
 31
0.0
  0
LINE
  5
1624
  8
TITLE
 10
342.5530752153893
 20
69.926065504108934
 30
0.0
 11
343.68439477402057
 21
71.057385062740423
 31
0.0
  0
LINE
  5
1625
  8
TITLE
 10
342.83513796402349
 20
69.684419016861426
 30
0.0
 11
343.68580460860738
 21
70.535085661452115
 31
0.0
  0
LINE
  5
1626
  8
TITLE
 10
342.64536089473648
 20
69.843781438162324
 30
0.0
 11
343.68580460860738
 21
70.884225152040955
 31
0.0
  0
LINE
  5
1627
  8
TITLE
 10
342.73937916097498
 20
69.76322995910688
 30
0.0
 11
343.68580460860738
 21
70.709655406746379
 31
0.0
  0
LINE
  5
1628
  8
TITLE
 10
342.0355586056059
 20
70.455967366084863
 30
0.0
 11
343.21179521071298
 21
71.632203971184865
 31
0.0
  0
LINE
  5
1629
  8
TITLE
 10
342.11750115615177
 20
70.36334017132944
 30
0.0
 11
343.28629822504428
 21
71.532137240229389
 31
0.0
  0
LINE
  5
162A
  8
TITLE
 10
342.20117141729003
 20
70.272440687173599
 30
0.0
 11
343.3625214477679
 21
71.433790717651533
 31
0.0
  0
LINE
  5
162B
  8
TITLE
 10
342.28656515724288
 20
70.183264681847419
 30
0.0
 11
343.44045228391133
 21
71.337151808499783
 31
0.0
  0
LINE
  5
162C
  8
TITLE
 10
342.37368016750662
 20
70.095809946815507
 30
0.0
 11
343.52008017865899
 21
71.242209957953719
 31
0.0
  0
LINE
  5
162D
  8
TITLE
 10
344.58950772008711
 20
69.518521574708316
 30
0.0
 11
345.3746091477139
 21
70.303623002328479
 31
0.0
  0
LINE
  5
162E
  8
TITLE
 10
344.58950772008711
 20
69.34395182941438
 30
0.0
 11
345.55977441036129
 21
70.314218519688126
 31
0.0
  0
LINE
  5
162F
  8
TITLE
 10
344.58950772008711
 20
69.169382084120045
 30
0.0
 11
345.7462089854975
 21
70.32608334952306
 31
0.0
  0
LINE
  5
1630
  8
TITLE
 10
344.58950772008711
 20
68.9948123388331
 30
0.0
 11
345.9339409463276
 21
70.339245565073583
 31
0.0
  0
LINE
  5
1631
  8
TITLE
 10
344.58950772008711
 20
68.820242593538495
 30
0.0
 11
346.12299958415019
 21
70.353734457587819
 31
0.0
  0
LINE
  5
1632
  8
TITLE
 10
344.58950772008711
 20
69.693091319995645
 30
0.0
 11
345.19068627266302
 21
70.294269872571789
 31
0.0
  0
LINE
  5
1633
  8
TITLE
 10
342.93264737814411
 20
69.607358685687387
 30
0.0
 11
343.68580460860738
 21
70.360515916165383
 31
0.0
  0
LINE
  5
1634
  8
TITLE
 10
343.03191966261812
 20
69.53206122486651
 30
0.0
 11
343.68580460860738
 21
70.185946170870736
 31
0.0
  0
LINE
  5
1635
  8
TITLE
 10
343.1329693367075
 20
69.458541153668875
 30
0.0
 11
343.68580460860738
 21
70.011376425576543
 31
0.0
  0
LINE
  5
1636
  8
TITLE
 10
343.34047078869622
 20
69.316903115068939
 30
0.0
 11
343.68580460860738
 21
69.662236934988243
 31
0.0
  0
LINE
  5
1637
  8
TITLE
 10
343.44696380199332
 20
69.248826383065904
 30
0.0
 11
343.68580460860738
 21
69.487667189693667
 31
0.0
  0
LINE
  5
1638
  8
TITLE
 10
343.66555775390162
 20
69.118280844391592
 30
0.0
 11
343.68580460860738
 21
69.138527699104856
 31
0.0
  0
LINE
  5
1639
  8
TITLE
 10
343.55531694629758
 20
69.182609782088903
 30
0.0
 11
343.68580460860738
 21
69.313097444399062
 31
0.0
  0
LINE
  5
163A
  8
TITLE
 10
343.23581326988727
 20
69.386815341547873
 30
0.0
 11
343.68580460860738
 21
69.836806680282223
 31
0.0
  0
LINE
  5
163B
  8
TITLE
 10
344.58950772008711
 20
70.216800555878535
 30
0.0
 11
344.64611862522599
 21
70.27341146101864
 31
0.0
  0
LINE
  5
163C
  8
TITLE
 10
344.58950772008711
 20
70.042230810584456
 30
0.0
 11
344.82646534470382
 21
70.279188435201135
 31
0.0
  0
LINE
  5
163D
  8
TITLE
 10
344.58950772008711
 20
69.867661065289951
 30
0.0
 11
345.0079799440918
 21
70.286133289301716
 31
0.0
  0
LINE
  5
163E
  8
TITLE
 10
342.60543753020988
 20
74.342671451244456
 30
0.0
 11
343.68580460860738
 21
75.423038529656779
 31
0.0
  0
LINE
  5
163F
  8
TITLE
 10
342.78000727548988
 20
74.342671451244456
 30
0.0
 11
343.68580460860738
 21
75.248468784363155
 31
0.0
  0
LINE
  5
1640
  8
TITLE
 10
344.90293876325052
 20
75.069044976652094
 30
0.0
 11
345.27216880241713
 21
75.438275015832644
 31
0.0
  0
LINE
  5
1641
  8
TITLE
 10
344.90293876325052
 20
74.894475231357546
 30
0.0
 11
345.44673854771179
 21
75.438275015832644
 31
0.0
  0
LINE
  5
1642
  8
TITLE
 10
344.90293876325052
 20
74.719905486062984
 30
0.0
 11
345.6213082930056
 21
75.438275015832644
 31
0.0
  0
LINE
  5
1643
  8
TITLE
 10
344.90293876325052
 20
74.545335740775712
 30
0.0
 11
345.79587803829997
 21
75.438275015832644
 31
0.0
  0
LINE
  5
1644
  8
TITLE
 10
344.90293876325052
 20
74.370765995482316
 30
0.0
 11
345.97044778359452
 21
75.438275015832644
 31
0.0
  0
LINE
  5
1645
  8
TITLE
 10
344.90293876325052
 20
74.196196250187427
 30
0.0
 11
346.14501752888901
 21
75.438275015832644
 31
0.0
  0
LINE
  5
1646
  8
TITLE
 10
342.95457702078397
 20
74.342671451244456
 30
0.0
 11
343.68580460860738
 21
75.073899039068564
 31
0.0
  0
LINE
  5
1647
  8
TITLE
 10
343.12914676607812
 20
74.342671451244456
 30
0.0
 11
343.68580460860738
 21
74.899329293773903
 31
0.0
  0
LINE
  5
1648
  8
TITLE
 10
343.3037165113725
 20
74.342671451244456
 30
0.0
 11
343.68580460860738
 21
74.724759548480264
 31
0.0
  0
LINE
  5
1649
  8
TITLE
 10
343.6528560019612
 20
74.342671451244456
 30
0.0
 11
343.68580460860738
 21
74.375620057898701
 31
0.0
  0
LINE
  5
164A
  8
TITLE
 10
343.47828625666688
 20
74.342671451244456
 30
0.0
 11
343.68580460860738
 21
74.55018980318566
 31
0.0
  0
LINE
  5
164B
  8
TITLE
 10
344.90293876325052
 20
75.418184467240422
 30
0.0
 11
344.92302931184292
 21
75.438275015832644
 31
0.0
  0
LINE
  5
164C
  8
TITLE
 10
344.90293876325052
 20
75.243614721946415
 30
0.0
 11
345.09759905713759
 21
75.438275015832644
 31
0.0
  0
LINE
  5
164D
  8
TITLE
 10
342.43086778491539
 20
74.342671451244456
 30
0.0
 11
343.63081487389559
 21
75.542618540239374
 31
0.0
  0
LINE
  5
164E
  8
TITLE
 10
342.08172829432692
 20
74.342671451244456
 30
0.0
 11
343.28167538332121
 21
75.542618540239374
 31
0.0
  0
LINE
  5
164F
  8
TITLE
 10
342.25629803962079
 20
74.342671451244456
 30
0.0
 11
343.45624512861559
 21
75.542618540239374
 31
0.0
  0
LINE
  5
1650
  8
TITLE
 10
339.50672605692648
 20
76.131912846158698
 30
0.0
 11
341.63035576469377
 21
78.25554255393341
 31
0.0
  0
LINE
  5
1651
  8
TITLE
 10
339.50672605692648
 20
77.004761572630414
 30
0.0
 11
341.12611876803538
 21
78.624154283739713
 31
0.0
  0
LINE
  5
1652
  8
TITLE
 10
339.50672605692648
 20
76.830191827336463
 30
0.0
 11
341.12611876803538
 21
78.449584538445393
 31
0.0
  0
LINE
  5
1653
  8
TITLE
 10
339.50672605692648
 20
76.655622082042484
 30
0.0
 11
341.12611876803538
 21
78.275014793151456
 31
0.0
  0
LINE
  5
1654
  8
TITLE
 10
339.50672605692648
 20
76.481052336748164
 30
0.0
 11
341.28121627410547
 21
78.25554255393341
 31
0.0
  0
LINE
  5
1655
  8
TITLE
 10
339.50672605692648
 20
76.306482591453843
 30
0.0
 11
341.4557860193998
 21
78.25554255393341
 31
0.0
  0
LINE
  5
1656
  8
TITLE
 10
338.38774324855331
 20
77.10776698131032
 30
0.0
 11
340.99055276995222
 21
79.71057650271635
 31
0.0
  0
LINE
  5
1657
  8
TITLE
 10
338.56231299384802
 20
77.10776698131032
 30
0.0
 11
341.12611876803538
 21
79.671572755491724
 31
0.0
  0
LINE
  5
1658
  8
TITLE
 10
338.73688273914172
 20
77.10776698131032
 30
0.0
 11
341.12611876803538
 21
79.497003010204125
 31
0.0
  0
LINE
  5
1659
  8
TITLE
 10
338.91145248443593
 20
77.10776698131032
 30
0.0
 11
341.12611876803538
 21
79.322433264909563
 31
0.0
  0
LINE
  5
165A
  8
TITLE
 10
339.08602222973059
 20
77.10776698131032
 30
0.0
 11
341.12611876803538
 21
79.147863519615854
 31
0.0
  0
LINE
  5
165B
  8
TITLE
 10
339.26059197501058
 20
77.10776698131032
 30
0.0
 11
341.12611876803538
 21
78.973293774328283
 31
0.0
  0
LINE
  5
165C
  8
TITLE
 10
339.4351617203053
 20
77.10776698131032
 30
0.0
 11
341.12611876803538
 21
78.798724029033707
 31
0.0
  0
LINE
  5
165D
  8
TITLE
 10
339.50672605692648
 20
79.274168261442483
 30
0.0
 11
339.94313429820039
 21
79.71057650271635
 31
0.0
  0
LINE
  5
165E
  8
TITLE
 10
339.50672605692648
 20
79.099598516148134
 30
0.0
 11
340.11770404349528
 21
79.71057650271635
 31
0.0
  0
LINE
  5
165F
  8
TITLE
 10
339.50672605692648
 20
78.925028770853913
 30
0.0
 11
340.29227378878949
 21
79.71057650271635
 31
0.0
  0
LINE
  5
1660
  8
TITLE
 10
339.50672605692648
 20
78.750459025559593
 30
0.0
 11
340.46684353408301
 21
79.71057650271635
 31
0.0
  0
LINE
  5
1661
  8
TITLE
 10
339.50672605692648
 20
78.575889280265912
 30
0.0
 11
340.64141327937818
 21
79.71057650271635
 31
0.0
  0
LINE
  5
1662
  8
TITLE
 10
339.50672605692648
 20
78.401319534971336
 30
0.0
 11
340.81598302467251
 21
79.71057650271635
 31
0.0
  0
LINE
  5
1663
  8
TITLE
 10
339.50672605692648
 20
79.623307752024019
 30
0.0
 11
339.59399480761198
 21
79.71057650271635
 31
0.0
  0
LINE
  5
1664
  8
TITLE
 10
339.50672605692648
 20
79.448738006730323
 30
0.0
 11
339.76856455290658
 21
79.71057650271635
 31
0.0
  0
LINE
  5
1665
  8
TITLE
 10
339.50672605692648
 20
69.672832270327504
 30
0.0
 11
341.12611876803538
 21
71.29222498143622
 31
0.0
  0
LINE
  5
1666
  8
TITLE
 10
339.50672605692648
 20
69.498262525032985
 30
0.0
 11
341.12611876803538
 21
71.117655236141616
 31
0.0
  0
LINE
  5
1667
  8
TITLE
 10
339.50672605692648
 20
69.323692779738423
 30
0.0
 11
341.12611876803538
 21
70.94308549084738
 31
0.0
  0
LINE
  5
1668
  8
TITLE
 10
339.50672605692648
 20
69.149123034444386
 30
0.0
 11
341.12611876803538
 21
70.76851574555306
 31
0.0
  0
LINE
  5
1669
  8
TITLE
 10
339.50672605692648
 20
68.974553289149895
 30
0.0
 11
341.12611876803538
 21
70.593946000258455
 31
0.0
  0
LINE
  5
166A
  8
TITLE
 10
339.50672605692648
 20
68.799983543863362
 30
0.0
 11
341.12611876803538
 21
70.41937625497124
 31
0.0
  0
LINE
  5
166B
  8
TITLE
 10
339.50672605692648
 20
68.62541379856853
 30
0.0
 11
341.12611876803538
 21
70.244806509677446
 31
0.0
  0
LINE
  5
166C
  8
TITLE
 10
339.63721073182182
 20
68.581328728176373
 30
0.0
 11
341.12611876803538
 21
70.070236764382969
 31
0.0
  0
LINE
  5
166D
  8
TITLE
 10
339.81178047711569
 20
68.581328728176373
 30
0.0
 11
341.12611876803538
 21
69.895667019096209
 31
0.0
  0
LINE
  5
166E
  8
TITLE
 10
339.50672605692648
 20
69.847402015622094
 30
0.0
 11
341.12611876803538
 21
71.466794726730257
 31
0.0
  0
LINE
  5
166F
  8
TITLE
 10
339.98635022240978
 20
68.581328728176373
 30
0.0
 11
341.12611876803538
 21
69.721097273802229
 31
0.0
  0
LINE
  5
1670
  8
TITLE
 10
340.16091996770388
 20
68.581328728176373
 30
0.0
 11
341.12611876803538
 21
69.546527528507653
 31
0.0
  0
LINE
  5
1671
  8
TITLE
 10
340.33548971299859
 20
68.581328728176373
 30
0.0
 11
341.12611876803538
 21
69.371957783213944
 31
0.0
  0
LINE
  5
1672
  8
TITLE
 10
340.51005945829331
 20
68.581328728176373
 30
0.0
 11
341.12611876803538
 21
69.197388037919382
 31
0.0
  0
LINE
  5
1673
  8
TITLE
 10
340.68462920358752
 20
68.581328728176373
 30
0.0
 11
341.12611876803538
 21
69.022818292623612
 31
0.0
  0
LINE
  5
1674
  8
TITLE
 10
340.85919894888173
 20
68.581328728176373
 30
0.0
 11
341.12611876803538
 21
68.848248547329916
 31
0.0
  0
LINE
  5
1675
  8
TITLE
 10
341.03376869416138
 20
68.581328728176373
 30
0.0
 11
341.12611876803538
 21
68.673678802035653
 31
0.0
  0
LINE
  5
1676
  8
TITLE
 10
339.50672605692648
 20
70.196541506202848
 30
0.0
 11
341.12611876803538
 21
71.815934217319622
 31
0.0
  0
LINE
  5
1677
  8
TITLE
 10
339.50672605692648
 20
70.021971760916145
 30
0.0
 11
341.12611876803538
 21
71.641364472024463
 31
0.0
  0
LINE
  5
1678
  8
TITLE
 10
338.41576364317513
 20
74.342671451244456
 30
0.0
 11
341.12611876803538
 21
77.053026576105395
 31
0.0
  0
LINE
  5
1679
  8
TITLE
 10
338.46740020170148
 20
73.870598773902216
 30
0.0
 11
341.12611876803538
 21
76.529317340222264
 31
0.0
  0
LINE
  5
167A
  8
TITLE
 10
338.40291941384999
 20
73.631548240756501
 30
0.0
 11
341.12611876803538
 21
76.354747594928284
 31
0.0
  0
LINE
  5
167B
  8
TITLE
 10
338.5614229172545
 20
74.313760980044435
 30
0.0
 11
341.12611876803538
 21
76.878456830811061
 31
0.0
  0
LINE
  5
167C
  8
TITLE
 10
338.51957817177748
 20
74.097346489259522
 30
0.0
 11
341.12611876803538
 21
76.70388708551657
 31
0.0
  0
LINE
  5
167D
  8
TITLE
 10
338.32337456128971
 20
73.377433642902204
 30
0.0
 11
341.12611876803538
 21
76.180177849633694
 31
0.0
  0
LINE
  5
167E
  8
TITLE
 10
338.22467541169948
 20
73.104164748003342
 30
0.0
 11
341.12611876803538
 21
76.005608104339686
 31
0.0
  0
LINE
  5
167F
  8
TITLE
 10
338.10027671128393
 20
72.805196302307962
 30
0.0
 11
341.12611876803538
 21
75.831038359052982
 31
0.0
  0
LINE
  5
1680
  8
TITLE
 10
338.06662415258643
 20
74.342671451244456
 30
0.0
 11
339.266571241581
 21
75.542618540239374
 31
0.0
  0
LINE
  5
1681
  8
TITLE
 10
338.24119389788052
 20
74.342671451244456
 30
0.0
 11
339.44114098687561
 21
75.542618540239374
 31
0.0
  0
LINE
  5
1682
  8
TITLE
 10
339.50672605692648
 20
75.957343100871782
 30
0.0
 11
341.80492550998792
 21
78.25554255393341
 31
0.0
  0
LINE
  5
1683
  8
TITLE
 10
339.50672605692648
 20
75.782773355577461
 30
0.0
 11
341.97949525528202
 21
78.25554255393341
 31
0.0
  0
LINE
  5
1684
  8
TITLE
 10
339.50672605692648
 20
75.608203610290417
 30
0.0
 11
342.15406500056201
 21
78.25554255393341
 31
0.0
  0
LINE
  5
1685
  8
TITLE
 10
341.52999866382243
 20
77.10776698131032
 30
0.0
 11
342.6777742364456
 21
78.25554255393341
 31
0.0
  0
LINE
  5
1686
  8
TITLE
 10
341.18085917323401
 20
77.10776698131032
 30
0.0
 11
342.3286347458565
 21
78.25554255393341
 31
0.0
  0
LINE
  5
1687
  8
TITLE
 10
341.35542891852788
 20
77.10776698131032
 30
0.0
 11
342.50320449115088
 21
78.25554255393341
 31
0.0
  0
LINE
  5
1688
  8
TITLE
 10
339.50672605692648
 20
71.767669213844457
 30
0.0
 11
342.06865957004197
 21
74.329602726960502
 31
0.0
  0
LINE
  5
1689
  8
TITLE
 10
339.50672605692648
 20
71.593099468550136
 30
0.0
 11
342.09592411641842
 21
74.182297528041559
 31
0.0
  0
LINE
  5
168A
  8
TITLE
 10
339.50672605692648
 20
71.418529723255844
 30
0.0
 11
342.12611034220231
 21
74.037914008531459
 31
0.0
  0
LINE
  5
168B
  8
TITLE
 10
339.50672605692648
 20
71.243959977961595
 30
0.0
 11
342.15908970408651
 21
73.896323625121781
 31
0.0
  0
LINE
  5
168C
  8
TITLE
 10
339.50672605692648
 20
71.069390232666962
 30
0.0
 11
342.19474685531787
 21
73.757411031074056
 31
0.0
  0
LINE
  5
168D
  8
TITLE
 10
339.50672605692648
 20
70.894820487373039
 30
0.0
 11
342.23297795673352
 21
73.621072387186913
 31
0.0
  0
LINE
  5
168E
  8
TITLE
 10
339.50672605692648
 20
70.720250742078434
 30
0.0
 11
342.27368926525747
 21
73.487213950423495
 31
0.0
  0
LINE
  5
168F
  8
TITLE
 10
339.50672605692648
 20
70.545680996791674
 30
0.0
 11
342.31679594671829
 21
73.355750886590457
 31
0.0
  0
LINE
  5
1690
  8
TITLE
 10
341.31362384351712
 20
71.479730056917504
 30
0.0
 11
342.56579946347051
 21
72.731905676871278
 31
0.0
  0
LINE
  5
1691
  8
TITLE
 10
341.37757660237958
 20
71.369113070499822
 30
0.0
 11
342.62188602992842
 21
72.613422498035135
 31
0.0
  0
LINE
  5
1692
  8
TITLE
 10
341.44342281847997
 20
71.260389541292469
 30
0.0
 11
342.67995517857958
 21
72.496921901391502
 31
0.0
  0
LINE
  5
1693
  8
TITLE
 10
341.51113436583353
 20
71.153531343366211
 30
0.0
 11
342.73996705438572
 21
72.382364031917334
 31
0.0
  0
LINE
  5
1694
  8
TITLE
 10
341.58068605032781
 20
71.048513282565494
 30
0.0
 11
342.80188541135448
 21
72.269712643592257
 31
0.0
  0
LINE
  5
1695
  8
TITLE
 10
341.65205543682151
 20
70.945312923766352
 30
0.0
 11
342.8656773424625
 21
72.158934829398405
 31
0.0
  0
LINE
  5
1696
  8
TITLE
 10
339.50672605692648
 20
70.371111251497183
 30
0.0
 11
342.36222107098121
 21
73.226606265559738
 31
0.0
  0
LINE
  5
1697
  8
TITLE
 10
341.133455934415
 20
71.823271383699122
 30
0.0
 11
342.40989475703321
 21
73.099710206324062
 31
0.0
  0
LINE
  5
1698
  8
TITLE
 10
341.19152708308752
 20
71.706772787076844
 30
0.0
 11
342.45975344185251
 21
72.974999145842517
 31
0.0
  0
LINE
  5
1699
  8
TITLE
 10
341.25159579849401
 20
71.592271757188826
 30
0.0
 11
342.51173925228818
 21
72.852415210983352
 31
0.0
  0
LINE
  5
169B
  8
TITLE
 10
378.27695378374938
 20
75.449378136790813
 30
0.0
 11
379.96521422783388
 21
77.137638580875716
 31
0.0
  0
LINE
  5
169C
  8
TITLE
 10
378.80066301963188
 20
75.449378136790813
 30
0.0
 11
379.96521422783388
 21
76.613929345000116
 31
0.0
  0
LINE
  5
169D
  8
TITLE
 10
378.97523276492649
 20
75.449378136790813
 30
0.0
 11
379.96521422783388
 21
76.439359599705497
 31
0.0
  0
LINE
  5
169E
  8
TITLE
 10
378.45152352904353
 20
75.449378136790813
 30
0.0
 11
379.96521422783388
 21
76.963068835582035
 31
0.0
  0
LINE
  5
169F
  8
TITLE
 10
378.62609327433802
 20
75.449378136790813
 30
0.0
 11
379.96521422783388
 21
76.788499090294422
 31
0.0
  0
LINE
  5
16A0
  8
TITLE
 10
377.34427571510508
 20
68.581328728176373
 30
0.0
 11
379.04875511063801
 21
70.285808123716976
 31
0.0
  0
LINE
  5
16A1
  8
TITLE
 10
377.51884546038468
 20
68.581328728176373
 30
0.0
 11
379.22332485593301
 21
70.285808123716976
 31
0.0
  0
LINE
  5
16A2
  8
TITLE
 10
377.69341520567968
 20
68.581328728176373
 30
0.0
 11
379.39789460122762
 21
70.285808123716976
 31
0.0
  0
LINE
  5
16A3
  8
TITLE
 10
377.86798495097332
 20
68.581328728176373
 30
0.0
 11
379.57246434650762
 21
70.285808123716976
 31
0.0
  0
LINE
  5
16A4
  8
TITLE
 10
378.04255469626747
 20
68.581328728176373
 30
0.0
 11
379.74703409180142
 21
70.285808123716976
 31
0.0
  0
LINE
  5
16A5
  8
TITLE
 10
378.21712444156219
 20
68.581328728176373
 30
0.0
 11
379.92160383709569
 21
70.285808123716976
 31
0.0
  0
LINE
  5
16A6
  8
TITLE
 10
378.39169418685651
 20
68.581328728176373
 30
0.0
 11
380.0961735823895
 21
70.285808123716976
 31
0.0
  0
LINE
  5
16A7
  8
TITLE
 10
378.56626393215038
 20
68.581328728176373
 30
0.0
 11
380.27074332768399
 21
70.285808123716976
 31
0.0
  0
LINE
  5
16A8
  8
TITLE
 10
378.74083367744538
 20
68.581328728176373
 30
0.0
 11
380.44531307297939
 21
70.285808123716976
 31
0.0
  0
LINE
  5
16A9
  8
TITLE
 10
378.9154034227397
 20
68.581328728176373
 30
0.0
 11
380.46717390498731
 21
70.133099210423552
 31
0.0
  0
LINE
  5
16AA
  8
TITLE
 10
376.50169030723782
 20
74.546963386743499
 30
0.0
 11
379.10858445282582
 21
77.153857532332481
 31
0.0
  0
LINE
  5
16AB
  8
TITLE
 10
376.50169030723782
 20
74.372393641449577
 30
0.0
 11
379.28315419811997
 21
77.153857532332481
 31
0.0
  0
LINE
  5
16AC
  8
TITLE
 10
376.50169030723782
 20
74.197823896155242
 30
0.0
 11
379.45772394341412
 21
77.153857532332481
 31
0.0
  0
LINE
  5
16AD
  8
TITLE
 10
376.50169030723782
 20
74.023254150861561
 30
0.0
 11
379.6322936887085
 21
77.153857532332481
 31
0.0
  0
LINE
  5
16AE
  8
TITLE
 10
376.50169030723782
 20
73.848684405566701
 30
0.0
 11
379.8068634339885
 21
77.153857532332481
 31
0.0
  0
LINE
  5
16B1
  8
TITLE
 10
361.34607696839601
 20
77.546603558359493
 30
0.0
 11
363.46499768024648
 21
79.665524270224921
 31
0.0
  0
LINE
  5
16B2
  8
TITLE
 10
358.61527264440713
 20
75.688647960849124
 30
0.0
 11
362.63720118627418
 21
79.71057650271635
 31
0.0
  0
LINE
  5
16B3
  8
TITLE
 10
359.96506861688852
 20
76.689304442727675
 30
0.0
 11
362.98634067686288
 21
79.71057650271635
 31
0.0
  0
LINE
  5
16B4
  8
TITLE
 10
360.34991322452629
 20
76.899579305085382
 30
0.0
 11
363.16091042215709
 21
79.71057650271635
 31
0.0
  0
LINE
  5
16B5
  8
TITLE
 10
359.61780906966129
 20
76.516614640808925
 30
0.0
 11
362.8117709315685
 21
79.71057650271635
 31
0.0
  0
LINE
  5
16B6
  8
TITLE
 10
360.7928416358609
 20
77.167937971119358
 30
0.0
 11
363.33548016745158
 21
79.710576502709642
 31
0.0
  0
LINE
  5
16B7
  8
TITLE
 10
362.58140882606227
 20
78.258226180157578
 30
0.0
 11
363.73127558915053
 21
79.408092943238842
 31
0.0
  0
LINE
  5
16B8
  8
TITLE
 10
362.40035248857589
 20
78.426309333253371
 30
0.0
 11
363.55241244079548
 21
79.578369285472505
 31
0.0
  0
LINE
  5
16B9
  8
TITLE
 10
362.490376527835
 20
78.341763627216949
 30
0.0
 11
363.64117139395353
 21
79.492558493335665
 31
0.0
  0
LINE
  5
16BA
  8
TITLE
 10
362.50584736520329
 20
68.581328728176373
 30
0.0
 11
365.86768236231092
 21
71.943163725299044
 31
0.0
  0
LINE
  5
16BB
  8
TITLE
 10
362.33127761990949
 20
68.581328728176373
 30
0.0
 11
365.69311261701728
 21
71.943163725299044
 31
0.0
  0
LINE
  5
16BC
  8
TITLE
 10
361.28385914814379
 20
68.581328728176373
 30
0.0
 11
362.71662441301748
 21
70.014093993043701
 31
0.0
  0
LINE
  5
16BD
  8
TITLE
 10
361.45842889343788
 20
68.581328728176373
 30
0.0
 11
362.89119415829822
 21
70.014093993043701
 31
0.0
  0
LINE
  5
16BE
  8
TITLE
 10
361.63299863873209
 20
68.581328728176373
 30
0.0
 11
363.06576390359191
 21
70.014093993043701
 31
0.0
  0
LINE
  5
16BF
  8
TITLE
 10
361.8075683840259
 20
68.581328728176373
 30
0.0
 11
363.24845785566208
 21
70.022218199812443
 31
0.0
  0
LINE
  5
16C0
  8
TITLE
 10
361.98213812932039
 20
68.581328728176373
 30
0.0
 11
363.46296277216129
 21
70.062153371016962
 31
0.0
  0
LINE
  5
16C1
  8
TITLE
 10
362.15670787461499
 20
68.581328728176373
 30
0.0
 11
363.73912978813547
 21
70.163750641696424
 31
0.0
  0
LINE
  5
16C2
  8
TITLE
 10
361.25623396861101
 20
72.568807690369823
 30
0.0
 11
362.66393344315787
 21
73.976507164923561
 31
0.0
  0
LINE
  5
16C3
  8
TITLE
 10
361.43080371389101
 20
72.568807690369823
 30
0.0
 11
362.8385031884518
 21
73.976507164923561
 31
0.0
  0
LINE
  5
16C4
  8
TITLE
 10
361.60537345918561
 20
72.568807690369823
 30
0.0
 11
363.01307293374589
 21
73.976507164923561
 31
0.0
  0
LINE
  5
16C5
  8
TITLE
 10
361.77994320447999
 20
72.568807690369823
 30
0.0
 11
363.18764267902651
 21
73.976507164923561
 31
0.0
  0
LINE
  5
16C6
  8
TITLE
 10
361.9545129497742
 20
72.568807690369823
 30
0.0
 11
363.36221242432038
 21
73.976507164923561
 31
0.0
  0
LINE
  5
16C7
  8
TITLE
 10
362.1290826950675
 20
72.568807690369823
 30
0.0
 11
363.53678216961532
 21
73.976507164923561
 31
0.0
  0
LINE
  5
16C8
  8
TITLE
 10
362.30365244036261
 20
72.568807690369823
 30
0.0
 11
363.71135191490851
 21
73.976507164923561
 31
0.0
  0
LINE
  5
16C9
  8
TITLE
 10
362.47822218565739
 20
72.568807690369823
 30
0.0
 11
363.88592166020322
 21
73.976507164923561
 31
0.0
  0
LINE
  5
16CA
  8
TITLE
 10
361.10628622589689
 20
74.862836381768943
 30
0.0
 11
362.67039675318301
 21
76.42694690904878
 31
0.0
  0
LINE
  5
16CB
  8
TITLE
 10
361.28085597119201
 20
74.862836381768943
 30
0.0
 11
362.84496649846392
 21
76.42694690904878
 31
0.0
  0
LINE
  5
16CC
  8
TITLE
 10
361.45542571648502
 20
74.862836381768943
 30
0.0
 11
363.01953624375761
 21
76.42694690904878
 31
0.0
  0
LINE
  5
16CD
  8
TITLE
 10
361.62999546177991
 20
74.862836381768943
 30
0.0
 11
363.19410598905188
 21
76.42694690904878
 31
0.0
  0
LINE
  5
16CE
  8
TITLE
 10
361.80456520707389
 20
74.862836381768943
 30
0.0
 11
363.36867573434648
 21
76.42694690904878
 31
0.0
  0
LINE
  5
16CF
  8
TITLE
 10
361.97913495236833
 20
74.862836381768943
 30
0.0
 11
363.54324547964029
 21
76.42694690904878
 31
0.0
  0
LINE
  5
16D0
  8
TITLE
 10
362.15370469766248
 20
74.862836381768943
 30
0.0
 11
363.71781522493512
 21
76.42694690904878
 31
0.0
  0
LINE
  5
16D1
  8
TITLE
 10
362.32827444294247
 20
74.862836381768943
 30
0.0
 11
363.89238497022887
 21
76.42694690904878
 31
0.0
  0
LINE
  5
16D2
  8
TITLE
 10
362.5028441882373
 20
74.862836381768943
 30
0.0
 11
364.06695471552388
 21
76.42694690904878
 31
0.0
  0
LINE
  5
16D3
  8
TITLE
 10
353.13988302439452
 20
76.846908661963923
 30
0.0
 11
354.5485164246935
 21
78.255542062262279
 31
0.0
  0
LINE
  5
16D4
  8
TITLE
 10
353.31445276968901
 20
76.846908661963923
 30
0.0
 11
354.72308616998839
 21
78.255542062262279
 31
0.0
  0
LINE
  5
16D5
  8
TITLE
 10
353.4890225149835
 20
76.846908661963923
 30
0.0
 11
354.89765591528248
 21
78.255542062262279
 31
0.0
  0
LINE
  5
16D6
  8
TITLE
 10
353.66359226027771
 20
76.846908661963923
 30
0.0
 11
355.07222566057698
 21
78.255542062262279
 31
0.0
  0
LINE
  5
16D7
  8
TITLE
 10
353.83816200557197
 20
76.846908661963923
 30
0.0
 11
355.24679540587158
 21
78.255542062262279
 31
0.0
  0
LINE
  5
16D8
  8
TITLE
 10
354.01273175086612
 20
76.846908661963923
 30
0.0
 11
355.42136515116579
 21
78.255542062262279
 31
0.0
  0
LINE
  5
16D9
  8
TITLE
 10
354.18730149616079
 20
76.846908661963923
 30
0.0
 11
355.59593489645948
 21
78.255542062262279
 31
0.0
  0
LINE
  5
16DA
  8
TITLE
 10
354.36187124145499
 20
76.846908661963923
 30
0.0
 11
355.71630391446593
 21
78.201341334982786
 31
0.0
  0
LINE
  5
16DB
  8
TITLE
 10
353.9401959152915
 20
79.218349260495543
 30
0.0
 11
354.43242315751348
 21
79.71057650271635
 31
0.0
  0
LINE
  5
16DC
  8
TITLE
 10
353.9401959152915
 20
79.04377951520064
 30
0.0
 11
354.60699290280752
 21
79.71057650271635
 31
0.0
  0
LINE
  5
16DD
  8
TITLE
 10
353.9401959152915
 20
78.869209769906334
 30
0.0
 11
354.7815626481015
 21
79.71057650271635
 31
0.0
  0
LINE
  5
16DE
  8
TITLE
 10
354.07498586216212
 20
78.829429971497504
 30
0.0
 11
354.95613239339627
 21
79.71057650271635
 31
0.0
  0
LINE
  5
16DF
  8
TITLE
 10
354.24955560745752
 20
78.829429971497504
 30
0.0
 11
355.13070213869059
 21
79.71057650271635
 31
0.0
  0
LINE
  5
16E0
  8
TITLE
 10
354.42412535275139
 20
78.829429971497504
 30
0.0
 11
355.30527188398491
 21
79.71057650271635
 31
0.0
  0
LINE
  5
16E1
  8
TITLE
 10
353.3446911549878
 20
70.41806647141496
 30
0.0
 11
354.47119924976249
 21
71.544574566204403
 31
0.0
  0
LINE
  5
16E2
  8
TITLE
 10
353.42672314181817
 20
70.325528712965934
 30
0.0
 11
354.55647226180952
 21
71.455277832942784
 31
0.0
  0
LINE
  5
16E3
  8
TITLE
 10
353.51014930313301
 20
70.234385128986958
 30
0.0
 11
354.64384063687999
 21
71.368076462733498
 31
0.0
  0
LINE
  5
16E4
  8
TITLE
 10
353.5949666971581
 20
70.144632777717575
 30
0.0
 11
354.73330451942383
 21
71.282970599983301
 31
0.0
  0
LINE
  5
16E5
  8
TITLE
 10
353.68117344708139
 20
70.056269782346277
 30
0.0
 11
354.82486768267933
 21
71.199964017937646
 31
0.0
  0
LINE
  5
16E6
  8
TITLE
 10
353.7687687339278
 20
69.969295323899161
 30
0.0
 11
354.91853756152233
 21
71.119064151493745
 31
0.0
  0
LINE
  5
16E7
  8
TITLE
 10
353.85775279344108
 20
69.883709638118503
 30
0.0
 11
355.01432531739351
 21
71.04028216206973
 31
0.0
  0
LINE
  5
16E8
  8
TITLE
 10
354.13305583292032
 20
69.635303441721277
 30
0.0
 11
355.31456567937948
 21
70.816813288180356
 31
0.0
  0
LINE
  5
16E9
  8
TITLE
 10
354.22761855070547
 20
69.555296414220123
 30
0.0
 11
355.41901530265659
 21
70.746693166163524
 31
0.0
  0
LINE
  5
16EA
  8
TITLE
 10
354.3235872136425
 20
69.476695331861634
 30
0.0
 11
355.52569926549199
 21
70.678807383704438
 31
0.0
  0
LINE
  5
16EB
  8
TITLE
 10
354.42096854747928
 20
69.399506920404434
 30
0.0
 11
355.63465452053578
 21
70.613192893453316
 31
0.0
  0
LINE
  5
16EC
  8
TITLE
 10
353.9481269169475
 20
69.799514016336843
 30
0.0
 11
355.11224593674592
 21
70.963633036128385
 31
0.0
  0
LINE
  5
16ED
  8
TITLE
 10
354.0398934563222
 20
69.716710810424416
 30
0.0
 11
355.21231836509378
 21
70.88913571918161
 31
0.0
  0
LINE
  5
16EE
  8
TITLE
 10
351.43274897107972
 20
75.663483844523796
 30
0.0
 11
354.02480718882589
 21
78.255542062262279
 31
0.0
  0
LINE
  5
16EF
  8
TITLE
 10
351.43274897107972
 20
75.488914099236496
 30
0.0
 11
354.19937693410549
 21
78.255542062262279
 31
0.0
  0
LINE
  5
16F0
  8
TITLE
 10
351.43274897107972
 20
76.187193080399396
 30
0.0
 11
353.50109795294202
 21
78.255542062262279
 31
0.0
  0
LINE
  5
16F1
  8
TITLE
 10
351.43274897107972
 20
76.012623335112323
 30
0.0
 11
353.67566769823662
 21
78.255542062262279
 31
0.0
  0
LINE
  5
16F2
  8
TITLE
 10
351.43274897107972
 20
75.838053589817747
 30
0.0
 11
353.85023744353163
 21
78.255542062262279
 31
0.0
  0
LINE
  5
16F3
  8
TITLE
 10
350.17219735442001
 20
76.846908661963923
 30
0.0
 11
353.0358651951733
 21
79.71057650271635
 31
0.0
  0
LINE
  5
16F4
  8
TITLE
 10
350.34676709971433
 20
76.846908661963923
 30
0.0
 11
353.10438011154361
 21
79.604521673799383
 31
0.0
  0
LINE
  5
16F5
  8
TITLE
 10
350.52133684500888
 20
76.846908661963923
 30
0.0
 11
353.10438011154361
 21
79.429951928505716
 31
0.0
  0
LINE
  5
16F6
  8
TITLE
 10
350.69590659030291
 20
76.846908661963923
 30
0.0
 11
353.10438011154361
 21
79.255382183218103
 31
0.0
  0
LINE
  5
16F7
  8
TITLE
 10
350.87047633558387
 20
76.846908661963923
 30
0.0
 11
353.10438011154361
 21
79.080812437923797
 31
0.0
  0
LINE
  5
16F8
  8
TITLE
 10
351.04504608087728
 20
76.846908661963923
 30
0.0
 11
353.10438011154361
 21
78.906242692629576
 31
0.0
  0
LINE
  5
16F9
  8
TITLE
 10
351.219615826172
 20
76.846908661963923
 30
0.0
 11
353.10438011154361
 21
78.731672947334957
 31
0.0
  0
LINE
  5
16FA
  8
TITLE
 10
351.3941855714661
 20
76.846908661963923
 30
0.0
 11
353.10438011154361
 21
78.55710320204156
 31
0.0
  0
LINE
  5
16FB
  8
TITLE
 10
351.43274897107972
 20
76.710902316281874
 30
0.0
 11
353.10438011154361
 21
78.382533456746415
 31
0.0
  0
LINE
  5
16FC
  8
TITLE
 10
351.43274897107972
 20
76.536332570987639
 30
0.0
 11
353.15195846235349
 21
78.255542062262279
 31
0.0
  0
LINE
  5
16FD
  8
TITLE
 10
351.43274897107972
 20
76.361762825693603
 30
0.0
 11
353.32652820764793
 21
78.255542062262279
 31
0.0
  0
LINE
  5
16FE
  8
TITLE
 10
349.99762760912608
 20
76.846908661963923
 30
0.0
 11
351.40626100942552
 21
78.255542062262279
 31
0.0
  0
LINE
  5
16FF
  8
TITLE
 10
353.9401959152915
 20
79.567488751076539
 30
0.0
 11
354.08328366692399
 21
79.71057650271635
 31
0.0
  0
LINE
  5
1700
  8
TITLE
 10
353.9401959152915
 20
79.392919005782204
 30
0.0
 11
354.25785341221928
 21
79.71057650271635
 31
0.0
  0
LINE
  5
1701
  8
TITLE
 10
351.43274897107972
 20
78.282030023916477
 30
0.0
 11
352.86129544987932
 21
79.71057650271635
 31
0.0
  0
LINE
  5
1702
  8
TITLE
 10
351.43274897107972
 20
78.805739259799367
 30
0.0
 11
352.33758621399602
 21
79.71057650271635
 31
0.0
  0
LINE
  5
1703
  8
TITLE
 10
351.43274897107972
 20
78.631169514504791
 30
0.0
 11
352.51215595929062
 21
79.71057650271635
 31
0.0
  0
LINE
  5
1704
  8
TITLE
 10
351.43274897107972
 20
78.456599769211095
 30
0.0
 11
352.6867257045854
 21
79.71057650271635
 31
0.0
  0
LINE
  5
1705
  8
TITLE
 10
351.43274897107972
 20
79.329448495675507
 30
0.0
 11
351.81387697811289
 21
79.71057650271635
 31
0.0
  0
LINE
  5
1706
  8
TITLE
 10
351.43274897107972
 20
79.154878750387624
 30
0.0
 11
351.98844672340749
 21
79.71057650271635
 31
0.0
  0
LINE
  5
1707
  8
TITLE
 10
351.43274897107972
 20
78.980309005093673
 30
0.0
 11
352.1630164687017
 21
79.71057650271635
 31
0.0
  0
LINE
  5
1708
  8
TITLE
 10
351.43274897107972
 20
79.678587986263793
 30
0.0
 11
351.46473748753829
 21
79.71057650271635
 31
0.0
  0
LINE
  5
1709
  8
TITLE
 10
351.43274897107972
 20
79.504018240969557
 30
0.0
 11
351.63930723283369
 21
79.71057650271635
 31
0.0
  0
LINE
  5
170A
  8
TITLE
 10
347.02994193915112
 20
76.846908661963923
 30
0.0
 11
348.43857533945038
 21
78.255542062262279
 31
0.0
  0
LINE
  5
170B
  8
TITLE
 10
347.20451168443088
 20
76.846908661963923
 30
0.0
 11
348.61314508474538
 21
78.255542062262279
 31
0.0
  0
LINE
  5
170C
  8
TITLE
 10
347.37908142972537
 20
76.846908661963923
 30
0.0
 11
348.78771483002492
 21
78.255542062262279
 31
0.0
  0
LINE
  5
170D
  8
TITLE
 10
347.55365117501992
 20
76.846908661963923
 30
0.0
 11
348.9622845753197
 21
78.255542062262279
 31
0.0
  0
LINE
  5
170E
  8
TITLE
 10
347.72822092031402
 20
76.846908661963923
 30
0.0
 11
349.13685432061328
 21
78.255542062262279
 31
0.0
  0
LINE
  5
170F
  8
TITLE
 10
347.90279066560862
 20
76.846908661963923
 30
0.0
 11
349.31142406590777
 21
78.255542062262279
 31
0.0
  0
LINE
  5
1710
  8
TITLE
 10
348.07736041090283
 20
76.846908661963923
 30
0.0
 11
349.48599381120221
 21
78.255542062262279
 31
0.0
  0
LINE
  5
1711
  8
TITLE
 10
348.25193015619681
 20
76.846908661963923
 30
0.0
 11
349.66056355649653
 21
78.255542062262279
 31
0.0
  0
LINE
  5
1712
  8
TITLE
 10
346.68080244856287
 20
76.846908661963923
 30
0.0
 11
348.08943584886219
 21
78.255542062262279
 31
0.0
  0
LINE
  5
1713
  8
TITLE
 10
346.85537219385742
 20
76.846908661963923
 30
0.0
 11
348.26400559415652
 21
78.255542062262279
 31
0.0
  0
LINE
  5
1714
  8
TITLE
 10
346.33166295797417
 20
76.846908661963923
 30
0.0
 11
347.74029635827378
 21
78.255542062262279
 31
0.0
  0
LINE
  5
1715
  8
TITLE
 10
346.50623270326849
 20
76.846908661963923
 30
0.0
 11
347.91486610356748
 21
78.255542062262279
 31
0.0
  0
LINE
  5
1716
  8
TITLE
 10
348.4264999014913
 20
76.846908661963923
 30
0.0
 11
349.83513330179051
 21
78.255542062262279
 31
0.0
  0
LINE
  5
1717
  8
TITLE
 10
348.60106964678579
 20
76.846908661963923
 30
0.0
 11
350.00970304708522
 21
78.255542062262279
 31
0.0
  0
LINE
  5
1718
  8
TITLE
 10
348.77563939208022
 20
76.846908661963923
 30
0.0
 11
350.18427279237972
 21
78.255542062262279
 31
0.0
  0
LINE
  5
1719
  8
TITLE
 10
348.95020913735988
 20
76.846908661963923
 30
0.0
 11
350.35884253767358
 21
78.255542062262279
 31
0.0
  0
LINE
  5
171A
  8
TITLE
 10
349.12477888265403
 20
76.846908661963923
 30
0.0
 11
350.5334122829679
 21
78.255542062262279
 31
0.0
  0
LINE
  5
171B
  8
TITLE
 10
349.29934862794858
 20
76.846908661963923
 30
0.0
 11
350.70798202824739
 21
78.255542062262279
 31
0.0
  0
LINE
  5
171C
  8
TITLE
 10
349.4739183732429
 20
76.846908661963923
 30
0.0
 11
350.88255177354199
 21
78.255542062262279
 31
0.0
  0
LINE
  5
171D
  8
TITLE
 10
349.64848811853699
 20
76.846908661963923
 30
0.0
 11
351.05712151883648
 21
78.255542062262279
 31
0.0
  0
LINE
  5
171E
  8
TITLE
 10
349.82305786383148
 20
76.846908661963923
 30
0.0
 11
351.23169126413131
 21
78.255542062262279
 31
0.0
  0
LINE
  5
171F
  8
TITLE
 10
352.88207956154127
 20
71.002873349734642
 30
0.0
 11
354.0040193501838
 21
72.124813138377561
 31
0.0
  0
LINE
  5
1720
  8
TITLE
 10
352.95562312485959
 20
70.901847167752067
 30
0.0
 11
354.07651611539399
 21
72.022740158294383
 31
0.0
  0
LINE
  5
1721
  8
TITLE
 10
353.03060181116098
 20
70.802256108766642
 30
0.0
 11
354.15118577048793
 21
71.922840068093535
 31
0.0
  0
LINE
  5
1722
  8
TITLE
 10
353.10700589964949
 20
70.704090451960326
 30
0.0
 11
354.2280055751732
 21
71.8250901274846
 31
0.0
  0
LINE
  5
1723
  8
TITLE
 10
353.18482686845653
 20
70.60734167548776
 30
0.0
 11
354.30695690535492
 21
71.729471712371236
 31
0.0
  0
LINE
  5
1724
  8
TITLE
 10
353.2640573606339
 20
70.512002422355636
 30
0.0
 11
354.38802508394252
 21
71.635970145672061
 31
0.0
  0
LINE
  5
1725
  8
TITLE
 10
352.34699455107989
 20
71.864346301614248
 30
0.0
 11
353.50657211925352
 21
73.023923869794316
 31
0.0
  0
LINE
  5
1726
  8
TITLE
 10
352.40854741502039
 20
71.751329420260518
 30
0.0
 11
353.56027872988989
 21
72.903060735130339
 31
0.0
  0
LINE
  5
1727
  8
TITLE
 10
352.47166239503099
 20
71.639874654976694
 30
0.0
 11
353.61652528736698
 21
72.784737547312403
 31
0.0
  0
LINE
  5
1728
  8
TITLE
 10
352.53631821139732
 20
71.529960726056061
 30
0.0
 11
353.67524364780297
 21
72.668886162461462
 31
0.0
  0
LINE
  5
1729
  8
TITLE
 10
352.60249529003772
 20
71.421568059407974
 30
0.0
 11
353.73637323330701
 21
72.555446002671701
 31
0.0
  0
LINE
  5
172A
  8
TITLE
 10
352.67017567057451
 20
71.314678694651235
 30
0.0
 11
353.79986030428552
 21
72.444363328362343
 31
0.0
  0
LINE
  5
172B
  8
TITLE
 10
352.7393429242145
 20
71.209276202989656
 30
0.0
 11
353.86565734472453
 21
72.335590623506889
 31
0.0
  0
LINE
  5
172C
  8
TITLE
 10
352.80998208041092
 20
71.1053456138998
 30
0.0
 11
353.93372254247402
 21
72.229086075962499
 31
0.0
  0
LINE
  5
172D
  8
TITLE
 10
350.48731661636248
 20
69.480959131014274
 30
0.0
 11
351.43274897107972
 21
70.426391485737753
 31
0.0
  0
LINE
  5
172E
  8
TITLE
 10
350.73802374347309
 20
69.557096512829986
 30
0.0
 11
351.43274897107972
 21
70.251821740442892
 31
0.0
  0
LINE
  5
172F
  8
TITLE
 10
350.9936311542549
 20
69.63813417832543
 30
0.0
 11
351.43274897107972
 21
70.077251995155564
 31
0.0
  0
LINE
  5
1730
  8
TITLE
 10
351.25450120133769
 20
69.72443448010597
 30
0.0
 11
351.43274897107972
 21
69.902682249861584
 31
0.0
  0
LINE
  5
1731
  8
TITLE
 10
351.600783386682
 20
73.911251061896962
 30
0.0
 11
353.10254000230952
 21
75.413007677538573
 31
0.0
  0
LINE
  5
1732
  8
TITLE
 10
351.63246257195692
 20
73.768360501890498
 30
0.0
 11
353.09289639881968
 21
75.228794328754091
 31
0.0
  0
LINE
  5
1733
  8
TITLE
 10
351.66641575478047
 20
73.627743939413122
 30
0.0
 11
353.089858601782
 21
75.051186786407584
 31
0.0
  0
LINE
  5
1734
  8
TITLE
 10
351.70256650073537
 20
73.48932494008136
 30
0.0
 11
353.09275276338008
 21
74.87951120272632
 31
0.0
  0
LINE
  5
1735
  8
TITLE
 10
351.74084470999333
 20
73.353033404044979
 30
0.0
 11
353.10102985738848
 21
74.713218551433002
 31
0.0
  0
LINE
  5
1736
  8
TITLE
 10
350.5674121899774
 20
73.925298336958036
 30
0.0
 11
350.85812531412108
 21
74.216011461101374
 31
0.0
  0
LINE
  5
1737
  8
TITLE
 10
351.78118597112729
 20
73.218804919884533
 30
0.0
 11
353.11423575728611
 21
74.551854706044352
 31
0.0
  0
LINE
  5
1738
  8
TITLE
 10
351.82353100094952
 20
73.086580204426497
 30
0.0
 11
353.13199000918422
 21
74.395039212661544
 31
0.0
  0
LINE
  5
1739
  8
TITLE
 10
351.86782515698098
 20
72.956304615149975
 30
0.0
 11
353.15397039457508
 21
74.242449852743675
 31
0.0
  0
LINE
  5
173A
  8
TITLE
 10
351.91401801125278
 20
72.827927724126923
 30
0.0
 11
353.17990146095781
 21
74.093811173831142
 31
0.0
  0
LINE
  5
173B
  8
TITLE
 10
352.22866944663127
 20
72.095160687753861
 30
0.0
 11
353.40709448756593
 21
73.27358572868927
 31
0.0
  0
LINE
  5
173C
  8
TITLE
 10
352.2870268912335
 20
71.978948387062459
 30
0.0
 11
353.45548202860653
 21
73.147403524435177
 31
0.0
  0
LINE
  5
173D
  8
TITLE
 10
351.9620629767843
 20
72.701402944371566
 30
0.0
 11
353.20954584051918
 21
73.94888580809878
 31
0.0
  0
LINE
  5
173E
  8
TITLE
 10
352.01191697885901
 20
72.576687201144281
 30
0.0
 11
353.24269757069948
 21
73.807467792984994
 31
0.0
  0
LINE
  5
173F
  8
TITLE
 10
352.06354016495402
 20
72.453740641959726
 30
0.0
 11
353.27917688064389
 21
73.669377357649893
 31
0.0
  0
LINE
  5
1740
  8
TITLE
 10
352.11689564822149
 20
72.332526379925582
 30
0.0
 11
353.31882606943452
 21
73.53445680113802
 31
0.0
  0
LINE
  5
1741
  8
TITLE
 10
352.17194927980381
 20
72.213010266220437
 30
0.0
 11
353.36150621011228
 21
73.402567196530384
 31
0.0
  0
LINE
  5
1742
  8
TITLE
 10
350.74198193527189
 20
73.925298336958036
 30
0.0
 11
350.85812531412108
 21
74.041441715806499
 31
0.0
  0
LINE
  5
1743
  8
TITLE
 10
349.99935593646069
 20
69.342137941701026
 30
0.0
 11
351.43274897107972
 21
70.775530976319004
 31
0.0
  0
LINE
  5
1744
  8
TITLE
 10
350.24118913774561
 20
69.409401397705778
 30
0.0
 11
351.43274897107972
 21
70.600961231024499
 31
0.0
  0
LINE
  5
1745
  8
TITLE
 10
350.0437029540945
 20
73.925298336958036
 30
0.0
 11
350.85812531412108
 21
74.739720696984236
 31
0.0
  0
LINE
  5
1746
  8
TITLE
 10
350.21827269938899
 20
73.925298336958036
 30
0.0
 11
350.85812531412108
 21
74.565150951689404
 31
0.0
  0
LINE
  5
1747
  8
TITLE
 10
350.39284244468382
 20
73.925298336958036
 30
0.0
 11
350.85812531412108
 21
74.39058120639568
 31
0.0
  0
LINE
  5
1748
  8
TITLE
 10
347.20143199002842
 20
71.606736608767278
 30
0.0
 11
348.71634784242769
 21
73.121652461165851
 31
0.0
  0
LINE
  5
1749
  8
TITLE
 10
347.20143199002842
 20
71.432166863480262
 30
0.0
 11
348.71634784242769
 21
72.947082715871289
 31
0.0
  0
LINE
  5
174A
  8
TITLE
 10
347.20143199002842
 20
71.257597118185785
 30
0.0
 11
348.71634784242769
 21
72.77251297057758
 31
0.0
  0
LINE
  5
174B
  8
TITLE
 10
347.20143199002842
 20
71.083027372891735
 30
0.0
 11
348.71634784242769
 21
72.597943225290535
 31
0.0
  0
LINE
  5
174C
  8
TITLE
 10
347.20143199002842
 20
70.90845762759713
 30
0.0
 11
348.71634784242769
 21
72.423373479996314
 31
0.0
  0
LINE
  5
174D
  8
TITLE
 10
347.20143199002842
 20
70.733887882302895
 30
0.0
 11
348.71634784242769
 21
72.24880373470144
 31
0.0
  0
LINE
  5
174E
  8
TITLE
 10
347.20143199002842
 20
70.559318137008319
 30
0.0
 11
348.71634784242769
 21
72.074233989406835
 31
0.0
  0
LINE
  5
174F
  8
TITLE
 10
347.20143199002842
 20
71.955876099355322
 30
0.0
 11
348.71634784242769
 21
73.470791951747415
 31
0.0
  0
LINE
  5
1750
  8
TITLE
 10
347.20143199002842
 20
71.781306354061613
 30
0.0
 11
348.71634784242769
 21
73.296222206452924
 31
0.0
  0
LINE
  5
1751
  8
TITLE
 10
346.56263205935602
 20
68.698529989290208
 30
0.0
 11
348.71634784242769
 21
70.852245772361712
 31
0.0
  0
LINE
  5
1752
  8
TITLE
 10
346.7587135018955
 20
68.720041686521213
 30
0.0
 11
348.71758915405138
 21
70.678917338692514
 31
0.0
  0
LINE
  5
1753
  8
TITLE
 10
346.95684957418513
 20
68.743608013531002
 30
0.0
 11
348.92920527681332
 21
70.715963716158356
 31
0.0
  0
LINE
  5
1754
  8
TITLE
 10
347.15711331425132
 20
68.769302008295597
 30
0.0
 11
349.14280435522051
 21
70.754993049271661
 31
0.0
  0
LINE
  5
1755
  8
TITLE
 10
347.35958276905529
 20
68.797201717812314
 30
0.0
 11
349.35845168349249
 21
70.796070632250149
 31
0.0
  0
LINE
  5
1756
  8
TITLE
 10
347.56434149041092
 20
68.827390693873824
 30
0.0
 11
349.57621658549402
 21
70.839265788956922
 31
0.0
  0
LINE
  5
1757
  8
TITLE
 10
347.77147909585602
 20
68.859958554024075
 30
0.0
 11
349.79617277318738
 21
70.884652231355773
 31
0.0
  0
LINE
  5
1758
  8
TITLE
 10
346.36853677803327
 20
68.679004453247501
 30
0.0
 11
348.71634784242769
 21
71.026815517648771
 31
0.0
  0
LINE
  5
1759
  8
TITLE
 10
346.55230804823742
 20
73.925298336958036
 30
0.0
 11
348.0652847271117
 21
75.438275015832644
 31
0.0
  0
LINE
  5
175A
  8
TITLE
 10
346.72687779353168
 20
73.925298336958036
 30
0.0
 11
348.23985447240648
 21
75.438275015832644
 31
0.0
  0
LINE
  5
175B
  8
TITLE
 10
346.90144753882549
 20
73.925298336958036
 30
0.0
 11
348.41442421769989
 21
75.438275015832644
 31
0.0
  0
LINE
  5
175C
  8
TITLE
 10
347.07601728411993
 20
73.925298336958036
 30
0.0
 11
348.58899396299489
 21
75.438275015832644
 31
0.0
  0
LINE
  5
175D
  8
TITLE
 10
347.20143199002842
 20
73.876143297571744
 30
0.0
 11
348.76356370828847
 21
75.438275015832644
 31
0.0
  0
LINE
  5
175E
  8
TITLE
 10
347.20143199002842
 20
73.701573552284785
 30
0.0
 11
348.93813345356932
 21
75.438275015832644
 31
0.0
  0
LINE
  5
175F
  8
TITLE
 10
347.20143199002842
 20
73.527003806990464
 30
0.0
 11
349.11270319886307
 21
75.438275015832644
 31
0.0
  0
LINE
  5
1760
  8
TITLE
 10
347.20143199002842
 20
73.352434061696513
 30
0.0
 11
349.28727294415802
 21
75.438275015832644
 31
0.0
  0
LINE
  5
1761
  8
TITLE
 10
346.37773830294208
 20
73.925298336958036
 30
0.0
 11
347.89071498181693
 21
75.438275015832644
 31
0.0
  0
LINE
  5
1762
  8
TITLE
 10
347.20143199002842
 20
73.177864316408915
 30
0.0
 11
349.46184268945171
 21
75.438275015832644
 31
0.0
  0
LINE
  5
1763
  8
TITLE
 10
347.20143199002842
 20
73.003294571114296
 30
0.0
 11
349.63641243474609
 21
75.438275015832644
 31
0.0
  0
LINE
  5
1764
  8
TITLE
 10
347.20143199002842
 20
72.828724825819734
 30
0.0
 11
349.81098218004058
 21
75.438275015832644
 31
0.0
  0
LINE
  5
1765
  8
TITLE
 10
347.20143199002842
 20
72.305015589937497
 30
0.0
 11
348.71634784242769
 21
73.819931442336312
 31
0.0
  0
LINE
  5
1766
  8
TITLE
 10
347.20143199002842
 20
72.130445844642892
 30
0.0
 11
348.71634784242769
 21
73.645361697041736
 31
0.0
  0
LINE
  5
1767
  8
TITLE
 10
348.19328366966931
 20
68.932623637263106
 30
0.0
 11
350.24297824724448
 21
70.982318214838557
 31
0.0
  0
LINE
  5
1768
  8
TITLE
 10
348.40816639690962
 20
68.972936619202443
 30
0.0
 11
350.47000075489342
 21
71.034770977192693
 31
0.0
  0
LINE
  5
1769
  8
TITLE
 10
347.98109190579657
 20
68.895001618684915
 30
0.0
 11
350.018398747432
 21
70.932308460314303
 31
0.0
  0
LINE
  5
176A
  8
TITLE
 10
348.82171473704852
 20
73.925298336958036
 30
0.0
 11
350.33469141592332
 21
75.438275015832644
 31
0.0
  0
LINE
  5
176B
  8
TITLE
 10
347.20143199002842
 20
72.479585335231747
 30
0.0
 11
350.160121670629
 21
75.438275015832644
 31
0.0
  0
LINE
  5
176C
  8
TITLE
 10
347.20143199002842
 20
72.654155080526323
 30
0.0
 11
349.9855519253349
 21
75.438275015832644
 31
0.0
  0
LINE
  5
176D
  8
TITLE
 10
348.62586131191779
 20
69.01606178891592
 30
0.0
 11
350.69956206568207
 21
71.089762542687296
 31
0.0
  0
LINE
  5
176E
  8
TITLE
 10
348.84649995647948
 20
69.062130688190564
 30
0.0
 11
350.93176493274552
 21
71.147395664456184
 31
0.0
  0
LINE
  5
176F
  8
TITLE
 10
349.07022546839443
 20
69.111286454811165
 30
0.0
 11
351.16671979933358
 21
71.207780785750174
 31
0.0
  0
LINE
  5
1770
  8
TITLE
 10
349.29719407211019
 20
69.163685313240094
 30
0.0
 11
351.40454563365989
 21
71.271036874782709
 31
0.0
  0
LINE
  5
1771
  8
TITLE
 10
349.52757682616152
 20
69.219498321990017
 30
0.0
 11
351.43274897107972
 21
71.124670466907673
 31
0.0
  0
LINE
  5
1772
  8
TITLE
 10
349.76156168350298
 20
69.278913434037037
 30
0.0
 11
351.43274897107972
 21
70.95010072161304
 31
0.0
  0
LINE
  5
1773
  8
TITLE
 10
348.99628448234267
 20
73.925298336958036
 30
0.0
 11
350.50926116121781
 21
75.438275015832644
 31
0.0
  0
LINE
  5
1774
  8
TITLE
 10
349.17085422763779
 20
73.925298336958036
 30
0.0
 11
350.68383090649792
 21
75.438275015832644
 31
0.0
  0
LINE
  5
1775
  8
TITLE
 10
349.34542397293109
 20
73.925298336958036
 30
0.0
 11
350.85812531412108
 21
75.437999678146241
 31
0.0
  0
LINE
  5
1776
  8
TITLE
 10
349.51999371821108
 20
73.925298336958036
 30
0.0
 11
350.85812531412108
 21
75.263429932859452
 31
0.0
  0
LINE
  5
1777
  8
TITLE
 10
349.69456346350597
 20
73.925298336958036
 30
0.0
 11
350.85812531412108
 21
75.088860187565786
 31
0.0
  0
LINE
  5
1778
  8
TITLE
 10
349.86913320879989
 20
73.925298336958036
 30
0.0
 11
350.85812531412108
 21
74.914290442270925
 31
0.0
  0
LINE
  5
1779
  8
TITLE
 10
351.43497621599113
 20
75.316571598846394
 30
0.0
 11
354.37394667939981
 21
78.255542062262279
 31
0.0
  0
LINE
  5
177A
  8
TITLE
 10
351.46375856458781
 20
74.821644711567842
 30
0.0
 11
353.10438011154361
 21
76.462266258524082
 31
0.0
  0
LINE
  5
177B
  8
TITLE
 10
351.47972168661698
 20
74.663038088303111
 30
0.0
 11
353.10438011154361
 21
76.287696513229477
 31
0.0
  0
LINE
  5
177C
  8
TITLE
 10
351.44120681550288
 20
75.148232453071742
 30
0.0
 11
353.10438011154361
 21
76.811405749112353
 31
0.0
  0
LINE
  5
177D
  8
TITLE
 10
351.45086406736141
 20
74.983319959636219
 30
0.0
 11
353.10438011154361
 21
76.636836003818104
 31
0.0
  0
LINE
  5
177E
  8
TITLE
 10
351.57146171655751
 20
74.056499137081602
 30
0.0
 11
353.10438011154361
 21
75.589417532066662
 31
0.0
  0
LINE
  5
177F
  8
TITLE
 10
351.49860259771327
 20
74.507349254112356
 30
0.0
 11
353.10438011154361
 21
76.113126767941608
 31
0.0
  0
LINE
  5
1780
  8
TITLE
 10
351.52026578685491
 20
74.354442697959641
 30
0.0
 11
353.10438011154361
 21
75.93855702264743
 31
0.0
  0
LINE
  5
1781
  8
TITLE
 10
351.54458903413001
 20
74.2041961999401
 30
0.0
 11
353.10438011154361
 21
75.763987277353635
 31
0.0
  0
LINE
  5
1782
  8
TITLE
 10
358.18751021799949
 20
75.95916451560484
 30
0.0
 11
361.93892220511128
 21
79.71057650271635
 31
0.0
  0
LINE
  5
1783
  8
TITLE
 10
358.44542299579689
 20
76.042507548115736
 30
0.0
 11
362.11349195040589
 21
79.71057650271635
 31
0.0
  0
LINE
  5
1784
  8
TITLE
 10
358.61527264440713
 20
76.037787451430376
 30
0.0
 11
362.28806169569953
 21
79.71057650271635
 31
0.0
  0
LINE
  5
1785
  8
TITLE
 10
358.61527264440713
 20
75.863217706143715
 30
0.0
 11
362.46263144097952
 21
79.71057650271635
 31
0.0
  0
LINE
  5
1786
  8
TITLE
 10
358.61527264440713
 20
75.514078215554775
 30
0.0
 11
359.52814133790019
 21
76.42694690904878
 31
0.0
  0
LINE
  5
1787
  8
TITLE
 10
358.85194192529048
 20
71.211934118821631
 30
0.0
 11
361.61651497139201
 21
73.976507164923561
 31
0.0
  0
LINE
  5
1788
  8
TITLE
 10
359.09575472319187
 20
71.804886407304764
 30
0.0
 11
361.2673754808178
 21
73.976507164923561
 31
0.0
  0
LINE
  5
1789
  8
TITLE
 10
359.00912087846967
 20
71.543682817288598
 30
0.0
 11
361.44194522609729
 21
73.976507164923561
 31
0.0
  0
LINE
  5
178A
  8
TITLE
 10
358.1416037328745
 20
68.581328728176373
 30
0.0
 11
360.57938738431602
 21
71.019112379618264
 31
0.0
  0
LINE
  5
178B
  8
TITLE
 10
358.31617347816928
 20
68.581328728176373
 30
0.0
 11
360.40146474052631
 21
70.666619990540923
 31
0.0
  0
LINE
  5
178C
  8
TITLE
 10
358.49074322346291
 20
68.581328728176373
 30
0.0
 11
360.07516082567099
 21
70.165746330384678
 31
0.0
  0
LINE
  5
178D
  8
TITLE
 10
358.66531296875769
 20
68.581328728176373
 30
0.0
 11
360.09807823361729
 21
70.014093993043701
 31
0.0
  0
LINE
  5
178E
  8
TITLE
 10
358.83988271405201
 20
68.581328728176373
 30
0.0
 11
360.27264797891138
 21
70.014093993043701
 31
0.0
  0
LINE
  5
178F
  8
TITLE
 10
359.01445245934548
 20
68.581328728176373
 30
0.0
 11
360.44721772420661
 21
70.014093993043701
 31
0.0
  0
LINE
  5
1790
  8
TITLE
 10
358.11397855332791
 20
72.568807690369823
 30
0.0
 11
359.52167802787409
 21
73.976507164923561
 31
0.0
  0
LINE
  5
1791
  8
TITLE
 10
358.28854829862189
 20
72.568807690369823
 30
0.0
 11
359.69624777316932
 21
73.976507164923561
 31
0.0
  0
LINE
  5
1792
  8
TITLE
 10
358.46311804391661
 20
72.568807690369823
 30
0.0
 11
359.8708175184629
 21
73.976507164923561
 31
0.0
  0
LINE
  5
1793
  8
TITLE
 10
358.63768778921099
 20
72.568807690369823
 30
0.0
 11
360.04538726375762
 21
73.976507164923561
 31
0.0
  0
LINE
  5
1794
  8
TITLE
 10
358.81225753450508
 20
72.568807690369823
 30
0.0
 11
360.21995700905148
 21
73.976507164923561
 31
0.0
  0
LINE
  5
1795
  8
TITLE
 10
358.9868272797994
 20
72.568807690369823
 30
0.0
 11
360.39452675434552
 21
73.976507164923561
 31
0.0
  0
LINE
  5
1796
  8
TITLE
 10
359.18902220462593
 20
68.581328728176373
 30
0.0
 11
360.62178746950008
 21
70.014093993043701
 31
0.0
  0
LINE
  5
1797
  8
TITLE
 10
359.36359194992019
 20
68.581328728176373
 30
0.0
 11
360.79635721479468
 21
70.014093993043701
 31
0.0
  0
LINE
  5
1798
  8
TITLE
 10
359.53816169521423
 20
68.581328728176373
 30
0.0
 11
360.9709269600894
 21
70.014093993043701
 31
0.0
  0
LINE
  5
1799
  8
TITLE
 10
359.71273144050917
 20
68.581328728176373
 30
0.0
 11
361.14549670536923
 21
70.014093993043701
 31
0.0
  0
LINE
  5
179A
  8
TITLE
 10
359.88730118580372
 20
68.581328728176373
 30
0.0
 11
361.32006645066338
 21
70.014093993043701
 31
0.0
  0
LINE
  5
179B
  8
TITLE
 10
360.0618709310977
 20
68.581328728176373
 30
0.0
 11
361.49463619595753
 21
70.014093993043701
 31
0.0
  0
LINE
  5
179C
  8
TITLE
 10
360.23644067639202
 20
68.581328728176373
 30
0.0
 11
361.6692059412519
 21
70.014093993043701
 31
0.0
  0
LINE
  5
179D
  8
TITLE
 10
360.41101042168589
 20
68.581328728176373
 30
0.0
 11
361.84377568654571
 21
70.014093993043701
 31
0.0
  0
LINE
  5
179E
  8
TITLE
 10
360.58558016698038
 20
68.581328728176373
 30
0.0
 11
362.01834543184049
 21
70.014093993043701
 31
0.0
  0
LINE
  5
179F
  8
TITLE
 10
360.76014991227532
 20
68.581328728176373
 30
0.0
 11
362.19291517713481
 21
70.014093993043701
 31
0.0
  0
LINE
  5
17A0
  8
TITLE
 10
360.93471965756902
 20
68.581328728176373
 30
0.0
 11
362.36748492242941
 21
70.014093993043701
 31
0.0
  0
LINE
  5
17A1
  8
TITLE
 10
361.10928940284953
 20
68.581328728176373
 30
0.0
 11
362.54205466772288
 21
70.014093993043701
 31
0.0
  0
LINE
  5
17A2
  8
TITLE
 10
359.16139702509372
 20
72.568807690369823
 30
0.0
 11
360.56909649964041
 21
73.976507164923561
 31
0.0
  0
LINE
  5
17A3
  8
TITLE
 10
359.18835041971829
 20
72.42119133969976
 30
0.0
 11
360.7436662449345
 21
73.976507164923561
 31
0.0
  0
LINE
  5
17A4
  8
TITLE
 10
359.17600023098248
 20
72.234271405677475
 30
0.0
 11
360.91823599022922
 21
73.976507164923561
 31
0.0
  0
LINE
  5
17A5
  8
TITLE
 10
359.14720345641439
 20
72.030904885822423
 30
0.0
 11
361.09280573552343
 21
73.976507164923561
 31
0.0
  0
LINE
  5
17A6
  8
TITLE
 10
361.08166422331692
 20
72.568807690369823
 30
0.0
 11
362.48936369786321
 21
73.976507164923561
 31
0.0
  0
LINE
  5
17A7
  8
TITLE
 10
358.61527264440713
 20
75.339508470260299
 30
0.0
 11
359.70271108319389
 21
76.42694690904878
 31
0.0
  0
LINE
  5
17A8
  8
TITLE
 10
358.61527264440713
 20
75.164938724966234
 30
0.0
 11
359.87728082848901
 21
76.42694690904878
 31
0.0
  0
LINE
  5
17A9
  8
TITLE
 10
358.61527264440713
 20
74.990368979671644
 30
0.0
 11
360.05185057378333
 21
76.42694690904878
 31
0.0
  0
LINE
  5
17AA
  8
TITLE
 10
358.66230979179068
 20
74.862836381768943
 30
0.0
 11
360.22642031907731
 21
76.42694690904878
 31
0.0
  0
LINE
  5
17AB
  8
TITLE
 10
358.83687953708539
 20
74.862836381768943
 30
0.0
 11
360.40099006437191
 21
76.42694690904878
 31
0.0
  0
LINE
  5
17AC
  8
TITLE
 10
359.01144928238
 20
74.862836381768943
 30
0.0
 11
360.575559809666
 21
76.42694690904878
 31
0.0
  0
LINE
  5
17AD
  8
TITLE
 10
359.18601902767341
 20
74.862836381768943
 30
0.0
 11
360.75012955495993
 21
76.42694690904878
 31
0.0
  0
LINE
  5
17AE
  8
TITLE
 10
359.36058877296853
 20
74.862836381768943
 30
0.0
 11
360.9246993002551
 21
76.42694690904878
 31
0.0
  0
LINE
  5
17AF
  8
TITLE
 10
359.53515851826251
 20
74.862836381768943
 30
0.0
 11
361.09926904553458
 21
76.42694690904878
 31
0.0
  0
LINE
  5
17B0
  8
TITLE
 10
359.70972826355609
 20
74.862836381768943
 30
0.0
 11
361.2738387908289
 21
76.42694690904878
 31
0.0
  0
LINE
  5
17B1
  8
TITLE
 10
359.88429800885092
 20
74.862836381768943
 30
0.0
 11
361.4484085361234
 21
76.42694690904878
 31
0.0
  0
LINE
  5
17B2
  8
TITLE
 10
360.05886775414501
 20
74.862836381768943
 30
0.0
 11
361.62297828141811
 21
76.42694690904878
 31
0.0
  0
LINE
  5
17B3
  8
TITLE
 10
360.23343749943928
 20
74.862836381768943
 30
0.0
 11
361.79754802671192
 21
76.42694690904878
 31
0.0
  0
LINE
  5
17B4
  8
TITLE
 10
360.40800724473388
 20
74.862836381768943
 30
0.0
 11
361.97211777200619
 21
76.42694690904878
 31
0.0
  0
LINE
  5
17B5
  8
TITLE
 10
360.58257699001388
 20
74.862836381768943
 30
0.0
 11
362.14668751730051
 21
76.42694690904878
 31
0.0
  0
LINE
  5
17B6
  8
TITLE
 10
360.75714673530803
 20
74.862836381768943
 30
0.0
 11
362.32125726259511
 21
76.42694690904878
 31
0.0
  0
LINE
  5
17B7
  8
TITLE
 10
360.93171648060252
 20
74.862836381768943
 30
0.0
 11
362.49582700788937
 21
76.42694690904878
 31
0.0
  0
LINE
  5
17B8
  8
TITLE
 10
355.23471996791187
 20
76.846908661963923
 30
0.0
 11
355.71630391446593
 21
77.328492608518374
 31
0.0
  0
LINE
  5
17B9
  8
TITLE
 10
355.40928971320591
 20
76.846908661963923
 30
0.0
 11
355.71630391446593
 21
77.153922863223784
 31
0.0
  0
LINE
  5
17BA
  8
TITLE
 10
355.58385945850051
 20
76.846908661963923
 30
0.0
 11
355.71630391446593
 21
76.979353117929506
 31
0.0
  0
LINE
  5
17BB
  8
TITLE
 10
356.84034200056527
 20
77.230542477563759
 30
0.0
 11
357.0116354507058
 21
77.401835927711559
 31
0.0
  0
LINE
  5
17BC
  8
TITLE
 10
356.84034200056527
 20
77.055972732269794
 30
0.0
 11
357.2268672411746
 21
77.442497972885704
 31
0.0
  0
LINE
  5
17BD
  8
TITLE
 10
356.84034200056527
 20
76.881402986983119
 30
0.0
 11
357.45009944657471
 21
77.491160432992416
 31
0.0
  0
LINE
  5
17BE
  8
TITLE
 10
356.84034200056527
 20
76.706833241688244
 30
0.0
 11
357.68247696323829
 21
77.548968204361543
 31
0.0
  0
LINE
  5
17BF
  8
TITLE
 10
354.88558047732317
 20
76.846908661963923
 30
0.0
 11
355.71630391446593
 21
77.677632099106006
 31
0.0
  0
LINE
  5
17C0
  8
TITLE
 10
355.06015022261749
 20
76.846908661963923
 30
0.0
 11
355.71630391446593
 21
77.503062353812339
 31
0.0
  0
LINE
  5
17C1
  8
TITLE
 10
356.84034200056527
 20
76.532263496393639
 30
0.0
 11
357.92547720380412
 21
77.617398699632957
 31
0.0
  0
LINE
  5
17C2
  8
TITLE
 10
354.53644098673539
 20
76.846908661963923
 30
0.0
 11
355.71630391446593
 21
78.026771589687641
 31
0.0
  0
LINE
  5
17C3
  8
TITLE
 10
354.71101073202948
 20
76.846908661963923
 30
0.0
 11
355.71630391446593
 21
77.852201844400625
 31
0.0
  0
LINE
  5
17C4
  8
TITLE
 10
354.59869509804548
 20
78.829429971497504
 30
0.0
 11
355.47984162927952
 21
79.71057650271635
 31
0.0
  0
LINE
  5
17C5
  8
TITLE
 10
354.77326484333958
 20
78.829429971497504
 30
0.0
 11
355.65441137455917
 21
79.71057650271635
 31
0.0
  0
LINE
  5
17C6
  8
TITLE
 10
354.9478345886339
 20
78.829429971497504
 30
0.0
 11
355.71630391446593
 21
79.597899297329448
 31
0.0
  0
LINE
  5
17C7
  8
TITLE
 10
355.12240433392827
 20
78.829429971497504
 30
0.0
 11
355.71630391446593
 21
79.423329552034957
 31
0.0
  0
LINE
  5
17C8
  8
TITLE
 10
355.29697407922328
 20
78.829429971497504
 30
0.0
 11
355.71630391446593
 21
79.24875980674156
 31
0.0
  0
LINE
  5
17C9
  8
TITLE
 10
355.47154382451731
 20
78.829429971497504
 30
0.0
 11
355.71630391446593
 21
79.074190061446316
 31
0.0
  0
LINE
  5
17CA
  8
TITLE
 10
355.64611356981129
 20
78.829429971497504
 30
0.0
 11
355.71630391446593
 21
78.899620316151783
 31
0.0
  0
LINE
  5
17CB
  8
TITLE
 10
354.51977042617409
 20
69.323739053797397
 30
0.0
 11
355.71630391446593
 21
70.520272542097473
 31
0.0
  0
LINE
  5
17CC
  8
TITLE
 10
354.62000190312551
 20
69.249400785461546
 30
0.0
 11
355.71630391446593
 21
70.345702796802613
 31
0.0
  0
LINE
  5
17CD
  8
TITLE
 10
354.72167324768088
 20
69.176502384716642
 30
0.0
 11
355.71630391446593
 21
70.171133051507695
 31
0.0
  0
LINE
  5
17CE
  8
TITLE
 10
354.8247959869916
 20
69.105055378746243
 30
0.0
 11
355.71630391446593
 21
69.996563306214298
 31
0.0
  0
LINE
  5
17CF
  8
TITLE
 10
357.41458410285941
 20
69.774576296384112
 30
0.0
 11
357.84895068019517
 21
70.208942873719224
 31
0.0
  0
LINE
  5
17D0
  8
TITLE
 10
355.36267869460988
 20
68.770089359893504
 30
0.0
 11
355.71630391446593
 21
69.123714579749901
 31
0.0
  0
LINE
  5
17D1
  8
TITLE
 10
355.47482919962391
 20
68.707670119620161
 30
0.0
 11
355.71630391446593
 21
68.949144834455325
 31
0.0
  0
LINE
  5
17D2
  8
TITLE
 10
355.58855191409452
 20
68.646823088796282
 30
0.0
 11
355.71630391446593
 21
68.774575089168863
 31
0.0
  0
LINE
  5
17D3
  8
TITLE
 10
355.70387077098599
 20
68.587572200386546
 30
0.0
 11
355.71630391446593
 21
68.600005343874045
 31
0.0
  0
LINE
  5
17D4
  8
TITLE
 10
354.92938295398392
 20
69.035072600437374
 30
0.0
 11
355.71630391446593
 21
69.821993560919736
 31
0.0
  0
LINE
  5
17D5
  8
TITLE
 10
355.03544834147351
 20
68.966568242633372
 30
0.0
 11
355.71630391446593
 21
69.647423815625757
 31
0.0
  0
LINE
  5
17D6
  8
TITLE
 10
355.14300776351899
 20
68.899557919384137
 30
0.0
 11
355.71630391446593
 21
69.472854070331152
 31
0.0
  0
LINE
  5
17D7
  8
TITLE
 10
355.25207832415998
 20
68.834058734730434
 30
0.0
 11
355.71630391446593
 21
69.298284325043596
 31
0.0
  0
LINE
  5
17D8
  8
TITLE
 10
357.41458410285941
 20
69.949146041678375
 30
0.0
 11
357.51720198172131
 21
70.051763920547501
 31
0.0
  0
LINE
  5
17D9
  8
TITLE
 10
356.84034200056527
 20
72.866298845241559
 30
0.0
 11
357.95055032024061
 21
73.976507164923561
 31
0.0
  0
LINE
  5
17DA
  8
TITLE
 10
356.84034200056527
 20
73.390008081118069
 30
0.0
 11
357.4268410843718
 21
73.976507164923561
 31
0.0
  0
LINE
  5
17DB
  8
TITLE
 10
356.84034200056527
 20
73.2154383358302
 30
0.0
 11
357.6014108296655
 21
73.976507164923561
 31
0.0
  0
LINE
  5
17DC
  8
TITLE
 10
356.84034200056527
 20
73.040868590536149
 30
0.0
 11
357.77598057494572
 21
73.976507164923561
 31
0.0
  0
LINE
  5
17DD
  8
TITLE
 10
356.84034200056527
 20
73.913717316993683
 30
0.0
 11
356.90313184848827
 21
73.976507164923561
 31
0.0
  0
LINE
  5
17DE
  8
TITLE
 10
356.84034200056527
 20
73.739147571699078
 30
0.0
 11
357.07770159378242
 21
73.976507164923561
 31
0.0
  0
LINE
  5
17DF
  8
TITLE
 10
356.84034200056527
 20
73.564577826412318
 30
0.0
 11
357.25227133907731
 21
73.976507164923561
 31
0.0
  0
LINE
  5
17E0
  8
TITLE
 10
356.84034200056527
 20
75.833984515216201
 30
0.0
 11
359.05754621517548
 21
78.051188729834124
 31
0.0
  0
LINE
  5
17E1
  8
TITLE
 10
356.84034200056527
 20
75.659414769921611
 30
0.0
 11
359.40887682017723
 21
78.227949589540131
 31
0.0
  0
LINE
  5
17E2
  8
TITLE
 10
357.02540225126592
 20
75.66990527532765
 30
0.0
 11
359.81732235875791
 21
78.461825382820493
 31
0.0
  0
LINE
  5
17E3
  8
TITLE
 10
357.24390350014352
 20
75.713836778918676
 30
0.0
 11
360.3428757924529
 21
78.812809071228301
 31
0.0
  0
LINE
  5
17E4
  8
TITLE
 10
357.4686236426196
 20
75.763987176100301
 30
0.0
 11
361.41521296922792
 21
79.71057650271635
 31
0.0
  0
LINE
  5
17E5
  8
TITLE
 10
357.70022926341278
 20
75.821023051613935
 30
0.0
 11
361.58978271452253
 21
79.71057650271635
 31
0.0
  0
LINE
  5
17E6
  8
TITLE
 10
357.93952724415948
 20
75.885751287066739
 30
0.0
 11
361.76435245981708
 21
79.71057650271635
 31
0.0
  0
LINE
  5
17E7
  8
TITLE
 10
357.41458410285941
 20
69.600006551089777
 30
0.0
 11
361.79108471668582
 21
73.976507164923561
 31
0.0
  0
LINE
  5
17E8
  8
TITLE
 10
357.41458410285941
 20
69.425436805795499
 30
0.0
 11
361.96565446198042
 21
73.976507164923561
 31
0.0
  0
LINE
  5
17E9
  8
TITLE
 10
357.41458410285941
 20
69.250867060501832
 30
0.0
 11
362.1402242072752
 21
73.976507164923561
 31
0.0
  0
LINE
  5
17EA
  8
TITLE
 10
357.41458410285941
 20
69.076297315214234
 30
0.0
 11
362.31479395256929
 21
73.976507164923561
 31
0.0
  0
LINE
  5
17EB
  8
TITLE
 10
357.41458410285941
 20
68.901727569920524
 30
0.0
 11
360.95818252970457
 21
72.445325996757703
 31
0.0
  0
LINE
  5
17EC
  8
TITLE
 10
357.41458410285941
 20
68.727157824632954
 30
0.0
 11
360.93480440605049
 21
72.247378127824064
 31
0.0
  0
LINE
  5
17ED
  8
TITLE
 10
357.44332475169682
 20
68.581328728176373
 30
0.0
 11
360.90042469566401
 21
72.038428672143567
 31
0.0
  0
LINE
  5
17EE
  8
TITLE
 10
357.61789449699199
 20
68.581328728176373
 30
0.0
 11
360.85263352162087
 21
71.816067752805637
 31
0.0
  0
LINE
  5
17EF
  8
TITLE
 10
357.79246424228609
 20
68.581328728176373
 30
0.0
 11
360.78784311391451
 21
71.576707599804891
 31
0.0
  0
LINE
  5
17F0
  8
TITLE
 10
357.96703398758001
 20
68.581328728176373
 30
0.0
 11
360.70027022011777
 21
71.314564960713383
 31
0.0
  0
LINE
  5
17F1
  8
TITLE
 10
357.76483906273921
 20
72.568807690369823
 30
0.0
 11
359.1725385373
 21
73.976507164923561
 31
0.0
  0
LINE
  5
17F2
  8
TITLE
 10
357.93940880803387
 20
72.568807690369823
 30
0.0
 11
359.34710828259449
 21
73.976507164923561
 31
0.0
  0
LINE
  5
17F3
  8
TITLE
 10
357.59026931745922
 20
72.568807690369823
 30
0.0
 11
358.99796879200551
 21
73.976507164923561
 31
0.0
  0
LINE
  5
17F4
  8
TITLE
 10
356.84034200056527
 20
72.691729099947892
 30
0.0
 11
358.12512006553402
 21
73.976507164923561
 31
0.0
  0
LINE
  5
17F5
  8
TITLE
 10
356.89199033628188
 20
72.568807690369823
 30
0.0
 11
358.29968981082828
 21
73.976507164923561
 31
0.0
  0
LINE
  5
17F6
  8
TITLE
 10
357.0665600815766
 20
72.568807690369823
 30
0.0
 11
358.47425955612329
 21
73.976507164923561
 31
0.0
  0
LINE
  5
17F7
  8
TITLE
 10
357.24112982687097
 20
72.568807690369823
 30
0.0
 11
358.64882930141761
 21
73.976507164923561
 31
0.0
  0
LINE
  5
17F8
  8
TITLE
 10
357.41569957216529
 20
72.568807690369823
 30
0.0
 11
358.82339904671147
 21
73.976507164923561
 31
0.0
  0
LINE
  5
17F9
  8
TITLE
 10
356.84034200056527
 20
76.357693751099319
 30
0.0
 11
358.18106441164792
 21
77.698416162188863
 31
0.0
  0
LINE
  5
17FA
  8
TITLE
 10
356.84034200056527
 20
76.183124005805624
 30
0.0
 11
358.45195088678929
 21
77.794732892029657
 31
0.0
  0
LINE
  5
17FB
  8
TITLE
 10
356.84034200056527
 20
76.008554260511701
 30
0.0
 11
358.7420727891722
 21
77.910285049117874
 31
0.0
  0
LINE
  5
17FC
  8
TITLE
 10
369.86173471714801
 20
76.635495061298244
 30
0.0
 11
372.83035453108801
 21
79.604114875237343
 31
0.0
  0
LINE
  5
17FD
  8
TITLE
 10
370.03630446244262
 20
76.635495061298244
 30
0.0
 11
372.83035453108801
 21
79.429545129942781
 31
0.0
  0
LINE
  5
17FE
  8
TITLE
 10
370.21087420772233
 20
76.635495061298244
 30
0.0
 11
372.83035453108801
 21
79.254975384649384
 31
0.0
  0
LINE
  5
17FF
  8
TITLE
 10
370.38544395301642
 20
76.635495061298244
 30
0.0
 11
372.83035453108801
 21
79.080405639354481
 31
0.0
  0
LINE
  5
1800
  8
TITLE
 10
370.56001369831102
 20
76.635495061298244
 30
0.0
 11
372.83035453108801
 21
78.905835894060544
 31
0.0
  0
LINE
  5
1801
  8
TITLE
 10
370.73458344360552
 20
76.635495061298244
 30
0.0
 11
372.83035453108801
 21
78.731266148765982
 31
0.0
  0
LINE
  5
1802
  8
TITLE
 10
369.51259522656011
 20
76.635495061298244
 30
0.0
 11
370.83306544598531
 21
77.955965280717137
 31
0.0
  0
LINE
  5
1803
  8
TITLE
 10
369.68716497185358
 20
76.635495061298244
 30
0.0
 11
371.00763519126502
 21
77.955965280717137
 31
0.0
  0
LINE
  5
1804
  8
TITLE
 10
370.686922559371
 20
71.874451054146405
 30
0.0
 11
373.97868039627292
 21
75.166208891048186
 31
0.0
  0
LINE
  5
1805
  8
TITLE
 10
369.0716782306493
 20
71.655764687771224
 30
0.0
 11
374.47339150780209
 21
77.057477964916984
 31
0.0
  0
LINE
  5
1806
  8
TITLE
 10
369.41301053788101
 20
71.473387759127704
 30
0.0
 11
374.37974369129142
 21
76.440120912531398
 31
0.0
  0
LINE
  5
1807
  8
TITLE
 10
369.63718681748702
 20
71.522994293439282
 30
0.0
 11
374.33013715697967
 21
76.215944632931894
 31
0.0
  0
LINE
  5
1808
  8
TITLE
 10
369.8733243736001
 20
71.584562104257657
 30
0.0
 11
374.26856934616148
 21
75.979807076819995
 31
0.0
  0
LINE
  5
1809
  8
TITLE
 10
370.12404733473579
 20
71.66071532009876
 30
0.0
 11
374.19241613030579
 21
75.729084115670176
 31
0.0
  0
LINE
  5
180A
  8
TITLE
 10
370.39321251615752
 20
71.755310756226876
 30
0.0
 11
374.09782069419202
 21
75.459918934261466
 31
0.0
  0
LINE
  5
180B
  8
TITLE
 10
369.0716782306493
 20
71.481194942484237
 30
0.0
 11
374.45012650832763
 21
76.859643220148897
 31
0.0
  0
LINE
  5
180C
  8
TITLE
 10
369.19891292082548
 20
71.433859887366211
 30
0.0
 11
374.41927156305201
 21
76.654218529579566
 31
0.0
  0
LINE
  5
180D
  8
TITLE
 10
369.0716782306493
 20
77.940275518316568
 30
0.0
 11
369.08736799305763
 21
77.955965280717137
 31
0.0
  0
LINE
  5
180E
  8
TITLE
 10
369.0716782306493
 20
77.765705773021637
 30
0.0
 11
369.26193773833728
 21
77.955965280717137
 31
0.0
  0
LINE
  5
180F
  8
TITLE
 10
369.0716782306493
 20
77.5911360277277
 30
0.0
 11
369.43650748363137
 21
77.955965280717137
 31
0.0
  0
LINE
  5
1810
  8
TITLE
 10
366.31464736567159
 20
76.056093379809539
 30
0.0
 11
367.68010109827333
 21
77.421547112411403
 31
0.0
  0
LINE
  5
1811
  8
TITLE
 10
366.44546948223251
 20
76.012345751077575
 30
0.0
 11
367.82812878506053
 21
77.395005053904995
 31
0.0
  0
LINE
  5
1812
  8
TITLE
 10
366.57770953661787
 20
75.970016060168305
 30
0.0
 11
367.95975929203291
 21
77.352065815583416
 31
0.0
  0
LINE
  5
1813
  8
TITLE
 10
366.71139623034202
 20
75.929133008590753
 30
0.0
 11
367.95975929203291
 21
77.177496070288583
 31
0.0
  0
LINE
  5
1814
  8
TITLE
 10
367.26124721345133
 20
75.780705010530482
 30
0.0
 11
367.95975929203291
 21
76.479217089118933
 31
0.0
  0
LINE
  5
1815
  8
TITLE
 10
367.40266342224038
 20
75.747551474024405
 30
0.0
 11
367.95975929203291
 21
76.304647343831348
 31
0.0
  0
LINE
  5
1816
  8
TITLE
 10
366.84656000695168
 20
75.889727039905608
 30
0.0
 11
367.95975929203291
 21
77.002926324994235
 31
0.0
  0
LINE
  5
1817
  8
TITLE
 10
366.98323318141661
 20
75.851830469076276
 30
0.0
 11
367.95975929203291
 21
76.828356579707588
 31
0.0
  0
LINE
  5
1818
  8
TITLE
 10
367.12145008301252
 20
75.815477625385427
 30
0.0
 11
367.95975929203291
 21
76.653786834413481
 31
0.0
  0
LINE
  5
1819
  8
TITLE
 10
367.54574010164401
 20
75.716058408148584
 30
0.0
 11
367.95975929203291
 21
76.130077598537113
 31
0.0
  0
LINE
  5
181A
  8
TITLE
 10
367.69052140396161
 20
75.686269965171633
 30
0.0
 11
367.95975929203291
 21
75.955507853242764
 31
0.0
  0
LINE
  5
181B
  8
TITLE
 10
367.83705448418488
 20
75.658233300100918
 30
0.0
 11
367.95975929203291
 21
75.780938107949098
 31
0.0
  0
LINE
  5
181C
  8
TITLE
 10
369.33802548126528
 20
76.635495061298244
 30
0.0
 11
370.65849570069139
 21
77.955965280717137
 31
0.0
  0
LINE
  5
181D
  8
TITLE
 10
369.0716782306493
 20
76.892857046564259
 30
0.0
 11
370.13478646480849
 21
77.955965280717137
 31
0.0
  0
LINE
  5
181E
  8
TITLE
 10
369.0716782306493
 20
76.718287301270209
 30
0.0
 11
370.30935621010258
 21
77.955965280717137
 31
0.0
  0
LINE
  5
181F
  8
TITLE
 10
369.16345573597118
 20
76.635495061298244
 30
0.0
 11
370.48392595539741
 21
77.955965280717137
 31
0.0
  0
LINE
  5
1820
  8
TITLE
 10
369.0716782306493
 20
77.241996537146434
 30
0.0
 11
369.78564697421967
 21
77.955965280717137
 31
0.0
  0
LINE
  5
1821
  8
TITLE
 10
369.0716782306493
 20
77.0674267918521
 30
0.0
 11
369.96021671951422
 21
77.955965280717137
 31
0.0
  0
LINE
  5
1822
  8
TITLE
 10
369.0716782306493
 20
77.416566282440101
 30
0.0
 11
369.6110772289253
 21
77.955965280717137
 31
0.0
  0
LINE
  5
1823
  8
TITLE
 10
362.8605723170088
 20
78.013680435227656
 30
0.0
 11
364.00968457916252
 21
79.162792697374215
 31
0.0
  0
LINE
  5
1824
  8
TITLE
 10
362.95565675168149
 20
77.934195124592264
 30
0.0
 11
364.10519958074377
 21
79.083737953654222
 31
0.0
  0
LINE
  5
1825
  8
TITLE
 10
363.051761070162
 20
77.855729697792356
 30
0.0
 11
364.20207967958618
 21
79.006048307202065
 31
0.0
  0
LINE
  5
1826
  8
TITLE
 10
363.14888886111407
 20
77.778287743443585
 30
0.0
 11
364.30033186896651
 21
78.929730751288957
 31
0.0
  0
LINE
  5
1827
  8
TITLE
 10
363.2470441495156
 20
77.701873286557785
 30
0.0
 11
364.39996420082213
 21
78.854793337864194
 31
0.0
  0
LINE
  5
1828
  8
TITLE
 10
363.34623140511547
 20
77.626490796863806
 30
0.0
 11
364.50098581596251
 21
78.781245207711564
 31
0.0
  0
LINE
  5
1829
  8
TITLE
 10
363.44645555174787
 20
77.55214519820214
 30
0.0
 11
364.60340697879548
 21
78.709096625248563
 31
0.0
  0
LINE
  5
182A
  8
TITLE
 10
363.5477219778374
 20
77.478841878996207
 30
0.0
 11
364.7072391169674
 21
78.638359018126863
 31
0.0
  0
LINE
  5
182B
  8
TITLE
 10
364.28632686535752
 20
76.995458549470101
 30
0.0
 11
365.47479911625982
 21
78.183930800372977
 31
0.0
  0
LINE
  5
182C
  8
TITLE
 10
364.39618564011261
 20
76.930747578932298
 30
0.0
 11
365.59048771755943
 21
78.125049656378451
 31
0.0
  0
LINE
  5
182D
  8
TITLE
 10
364.50715842044951
 20
76.867150613981394
 30
0.0
 11
365.70775202666448
 21
78.067744220189383
 31
0.0
  0
LINE
  5
182E
  8
TITLE
 10
363.85783603584252
 20
77.265246701126514
 30
0.0
 11
365.02733409091218
 21
78.434744756195585
 31
0.0
  0
LINE
  5
182F
  8
TITLE
 10
363.9633351839957
 20
77.196176103992386
 30
0.0
 11
365.13694936445148
 21
78.369790284433776
 31
0.0
  0
LINE
  5
1830
  8
TITLE
 10
364.06991096845792
 20
77.12818214315962
 30
0.0
 11
365.24805197953509
 21
78.306323154236935
 31
0.0
  0
LINE
  5
1831
  8
TITLE
 10
364.1775718508602
 20
77.061273280268139
 30
0.0
 11
365.36066150257062
 21
78.244362931977449
 31
0.0
  0
LINE
  5
1832
  8
TITLE
 10
363.65003654786568
 20
77.406586703731534
 30
0.0
 11
364.81249486623449
 21
78.569045022099857
 31
0.0
  0
LINE
  5
1833
  8
TITLE
 10
363.7534056151772
 20
77.335386025748221
 30
0.0
 11
364.91918812098493
 21
78.501168531555223
 31
0.0
  0
LINE
  5
1834
  8
TITLE
 10
364.73249021879769
 20
76.743342921733927
 30
0.0
 11
365.94711650824121
 21
77.957969211184562
 31
0.0
  0
LINE
  5
1835
  8
TITLE
 10
364.84687305120599
 20
76.683156008854624
 30
0.0
 11
366.0692764024239
 21
77.905559360080275
 31
0.0
  0
LINE
  5
1836
  8
TITLE
 10
364.96241757979368
 20
76.624130792148677
 30
0.0
 11
366.1931317681906
 21
77.854844980537706
 31
0.0
  0
LINE
  5
1837
  8
TITLE
 10
364.6192560941829
 20
76.804678542413825
 30
0.0
 11
365.82661870851132
 21
78.01204115674895
 31
0.0
  0
LINE
  5
1838
  8
TITLE
 10
362.67345088293717
 20
78.175698491738913
 30
0.0
 11
363.82272703655349
 21
79.324974645353834
 31
0.0
  0
LINE
  5
1839
  8
TITLE
 10
362.76650460649932
 20
78.094182470005265
 30
0.0
 11
363.91552871430849
 21
79.243206577822036
 31
0.0
  0
LINE
  5
183A
  8
TITLE
 10
366.18521611006008
 20
76.10123186947898
 30
0.0
 11
367.53445774990081
 21
77.450473509319764
 31
0.0
  0
LINE
  5
183B
  8
TITLE
 10
365.19704754814148
 20
76.509621269899753
 30
0.0
 11
366.4460755848113
 21
77.758649306584658
 31
0.0
  0
LINE
  5
183C
  8
TITLE
 10
365.31616295020348
 20
76.454166926674418
 30
0.0
 11
366.57524461571262
 21
77.713248592191718
 31
0.0
  0
LINE
  5
183D
  8
TITLE
 10
365.07913755921152
 20
76.566281026272137
 30
0.0
 11
366.3187185725219
 21
77.805862039582294
 31
0.0
  0
LINE
  5
183E
  8
TITLE
 10
369.0716782306493
 20
71.830334433065502
 30
0.0
 11
370.72122936239953
 21
73.47988556480972
 31
0.0
  0
LINE
  5
183F
  8
TITLE
 10
366.3463817616352
 20
68.581328728176373
 30
0.0
 11
367.36103468648332
 21
69.595981653023955
 31
0.0
  0
LINE
  5
1840
  8
TITLE
 10
366.52095150692958
 20
68.581328728176373
 30
0.0
 11
367.42581754103139
 21
69.486194762278274
 31
0.0
  0
LINE
  5
1841
  8
TITLE
 10
366.69552125222373
 20
68.581328728176373
 30
0.0
 11
367.49060039559458
 21
69.376407871546462
 31
0.0
  0
LINE
  5
1842
  8
TITLE
 10
366.87009099751822
 20
68.581328728176373
 30
0.0
 11
367.55538325014282
 21
69.266620980800994
 31
0.0
  0
LINE
  5
1843
  8
TITLE
 10
367.04466074281231
 20
68.581328728176373
 30
0.0
 11
367.62016610470567
 21
69.156834090062262
 31
0.0
  0
LINE
  5
1844
  8
TITLE
 10
367.21923048810748
 20
68.581328728176373
 30
0.0
 11
367.68494895925392
 21
69.047047199323814
 31
0.0
  0
LINE
  5
1845
  8
TITLE
 10
367.39380023340118
 20
68.581328728176373
 30
0.0
 11
367.74973181380329
 21
68.937260308585223
 31
0.0
  0
LINE
  5
1846
  8
TITLE
 10
367.5683699786955
 20
68.581328728176373
 30
0.0
 11
367.81451466836597
 21
68.827473417846278
 31
0.0
  0
LINE
  5
1847
  8
TITLE
 10
367.74293972398988
 20
68.581328728176373
 30
0.0
 11
367.8792975229145
 21
68.7176865271081
 31
0.0
  0
LINE
  5
1848
  8
TITLE
 10
367.91750946928391
 20
68.581328728176373
 30
0.0
 11
367.94408037746348
 21
68.607899636369297
 31
0.0
  0
LINE
  5
1849
  8
TITLE
 10
367.36617505385402
 20
72.568807690369823
 30
0.0
 11
367.95975929203291
 21
73.162391928555223
 31
0.0
  0
LINE
  5
184A
  8
TITLE
 10
369.0716782306493
 20
72.179473923647052
 30
0.0
 11
369.95845864065973
 21
73.066254333657639
 31
0.0
  0
LINE
  5
184B
  8
TITLE
 10
369.0716782306493
 20
72.004904178359482
 30
0.0
 11
370.28507230454449
 21
73.218298252248289
 31
0.0
  0
LINE
  5
184C
  8
TITLE
 10
366.31875658210288
 20
72.568807690369823
 30
0.0
 11
367.72645605664928
 21
73.976507164923561
 31
0.0
  0
LINE
  5
184D
  8
TITLE
 10
366.49332632739748
 20
72.568807690369823
 30
0.0
 11
367.90102580194389
 21
73.976507164923561
 31
0.0
  0
LINE
  5
184E
  8
TITLE
 10
366.66789607269197
 20
72.568807690369823
 30
0.0
 11
367.95975929203291
 21
73.860670909725684
 31
0.0
  0
LINE
  5
184F
  8
TITLE
 10
366.84246581797152
 20
72.568807690369823
 30
0.0
 11
367.95975929203291
 21
73.686101164431363
 31
0.0
  0
LINE
  5
1850
  8
TITLE
 10
367.01703556326589
 20
72.568807690369823
 30
0.0
 11
367.95975929203291
 21
73.511531419137413
 31
0.0
  0
LINE
  5
1851
  8
TITLE
 10
367.19160530856038
 20
72.568807690369823
 30
0.0
 11
367.95975929203291
 21
73.336961673842566
 31
0.0
  0
LINE
  5
1852
  8
TITLE
 10
367.54074479914891
 20
72.568807690369823
 30
0.0
 11
367.95975929203291
 21
72.987822183261514
 31
0.0
  0
LINE
  5
1853
  8
TITLE
 10
367.71531454444312
 20
72.568807690369823
 30
0.0
 11
367.95975929203291
 21
72.813252437966923
 31
0.0
  0
LINE
  5
1854
  8
TITLE
 10
369.0716782306493
 20
72.354043668941642
 30
0.0
 11
369.68023969181331
 21
72.962605130114071
 31
0.0
  0
LINE
  5
1855
  8
TITLE
 10
369.0716782306493
 20
72.703183159529942
 30
0.0
 11
369.20351170309652
 21
72.835016631978263
 31
0.0
  0
LINE
  5
1856
  8
TITLE
 10
369.0716782306493
 20
72.528613414235579
 30
0.0
 11
369.43154212153809
 21
72.888477305124738
 31
0.0
  0
LINE
  5
1857
  8
TITLE
 10
367.88988428973778
 20
72.568807690369823
 30
0.0
 11
367.95975929203291
 21
72.638682692680277
 31
0.0
  0
LINE
  5
1858
  8
TITLE
 10
362.6804171104975
 20
68.581328728176373
 30
0.0
 11
366.00059474084833
 21
71.901506358541752
 31
0.0
  0
LINE
  5
1859
  8
TITLE
 10
362.85498685577772
 20
68.581328728176373
 30
0.0
 11
366.06537759539651
 21
71.791719467795374
 31
0.0
  0
LINE
  5
185A
  8
TITLE
 10
363.02955660107227
 20
68.581328728176373
 30
0.0
 11
366.13016044995987
 21
71.681932577064202
 31
0.0
  0
LINE
  5
185B
  8
TITLE
 10
363.20412634636591
 20
68.581328728176373
 30
0.0
 11
366.19494330450863
 21
71.572145686318464
 31
0.0
  0
LINE
  5
185C
  8
TITLE
 10
363.37869609166052
 20
68.581328728176373
 30
0.0
 11
366.25972615907131
 21
71.462358795580272
 31
0.0
  0
LINE
  5
185D
  8
TITLE
 10
364.49564424976529
 20
71.443974339216709
 30
0.0
 11
364.9948336358546
 21
71.943163725299044
 31
0.0
  0
LINE
  5
185E
  8
TITLE
 10
364.5604271043278
 20
71.334187448478261
 30
0.0
 11
365.16940338114853
 21
71.943163725299044
 31
0.0
  0
LINE
  5
185F
  8
TITLE
 10
364.55113041804242
 20
71.150321016905451
 30
0.0
 11
365.34397312644268
 21
71.943163725299044
 31
0.0
  0
LINE
  5
1860
  8
TITLE
 10
364.44953314737762
 20
70.874154000938631
 30
0.0
 11
365.51854287173768
 21
71.943163725299044
 31
0.0
  0
LINE
  5
1861
  8
TITLE
 10
364.23651283155652
 20
71.8831219021706
 30
0.0
 11
364.29655465467698
 21
71.943163725299044
 31
0.0
  0
LINE
  5
1862
  8
TITLE
 10
364.30129568610528
 20
71.773335011432707
 30
0.0
 11
364.4711243999709
 21
71.943163725299044
 31
0.0
  0
LINE
  5
1863
  8
TITLE
 10
364.36607854066801
 20
71.663548120693704
 30
0.0
 11
364.64569414526579
 21
71.943163725299044
 31
0.0
  0
LINE
  5
1864
  8
TITLE
 10
364.4308613952166
 20
71.553761229954873
 30
0.0
 11
364.82026389056023
 21
71.943163725299044
 31
0.0
  0
LINE
  5
1865
  8
TITLE
 10
363.70021040270291
 20
72.568807690369823
 30
0.0
 11
365.10790987724931
 21
73.976507164923561
 31
0.0
  0
LINE
  5
1866
  8
TITLE
 10
363.87478014799689
 20
72.568807690369823
 30
0.0
 11
365.28247962254392
 21
73.976507164923561
 31
0.0
  0
LINE
  5
1867
  8
TITLE
 10
364.04934989329172
 20
72.568807690369823
 30
0.0
 11
365.4570493678375
 21
73.976507164923561
 31
0.0
  0
LINE
  5
1868
  8
TITLE
 10
364.22391963858581
 20
72.568807690369823
 30
0.0
 11
365.63161911313199
 21
73.976507164923561
 31
0.0
  0
LINE
  5
1869
  8
TITLE
 10
364.57305912917411
 20
72.568807690369823
 30
0.0
 11
365.98075860372069
 21
73.976507164923561
 31
0.0
  0
LINE
  5
186A
  8
TITLE
 10
364.74762887446832
 20
72.568807690369823
 30
0.0
 11
366.15532834901501
 21
73.976507164923561
 31
0.0
  0
LINE
  5
186B
  8
TITLE
 10
364.39848938387991
 20
72.568807690369823
 30
0.0
 11
365.80618885842648
 21
73.976507164923561
 31
0.0
  0
LINE
  5
186C
  8
TITLE
 10
362.65279193095091
 20
72.568807690369823
 30
0.0
 11
364.06049140549749
 21
73.976507164923561
 31
0.0
  0
LINE
  5
186D
  8
TITLE
 10
362.8273616762458
 20
72.568807690369823
 30
0.0
 11
364.23506115079158
 21
73.976507164923561
 31
0.0
  0
LINE
  5
186E
  8
TITLE
 10
363.00193142153961
 20
72.568807690369823
 30
0.0
 11
364.4096308960859
 21
73.976507164923561
 31
0.0
  0
LINE
  5
186F
  8
TITLE
 10
363.17650116681949
 20
72.568807690369823
 30
0.0
 11
364.5842006413809
 21
73.976507164923561
 31
0.0
  0
LINE
  5
1870
  8
TITLE
 10
363.35107091211398
 20
72.568807690369823
 30
0.0
 11
364.75877038667528
 21
73.976507164923561
 31
0.0
  0
LINE
  5
1871
  8
TITLE
 10
363.52564065740808
 20
72.568807690369823
 30
0.0
 11
364.93334013196932
 21
73.976507164923561
 31
0.0
  0
LINE
  5
1872
  8
TITLE
 10
365.81966934881422
 20
74.862836381768943
 30
0.0
 11
366.1848291152105
 21
75.227996148171698
 31
0.0
  0
LINE
  5
1873
  8
TITLE
 10
365.6450996035195
 20
74.862836381768943
 30
0.0
 11
366.1848291152105
 21
75.402565893466303
 31
0.0
  0
LINE
  5
1874
  8
TITLE
 10
365.99423909409512
 20
74.862836381768943
 30
0.0
 11
366.1848291152105
 21
75.053426402877463
 31
0.0
  0
LINE
  5
1875
  8
TITLE
 10
366.16880883938808
 20
74.862836381768943
 30
0.0
 11
366.1848291152105
 21
74.878856657583427
 31
0.0
  0
LINE
  5
1876
  8
TITLE
 10
363.57368524046183
 20
68.601748131683308
 30
0.0
 11
366.32450901362
 21
71.352571904841568
 31
0.0
  0
LINE
  5
1877
  8
TITLE
 10
363.79786946416863
 20
68.651362610095617
 30
0.0
 11
366.38929186816858
 21
71.242785014102452
 31
0.0
  0
LINE
  5
1878
  8
TITLE
 10
364.04752062920852
 20
68.726444029848537
 30
0.0
 11
366.454074722732
 21
71.132998123364303
 31
0.0
  0
LINE
  5
1879
  8
TITLE
 10
364.33763856554913
 20
68.841992220893502
 30
0.0
 11
366.51885757728002
 21
71.023211232625556
 31
0.0
  0
LINE
  5
187A
  8
TITLE
 10
364.71267256312501
 20
69.04245647318379
 30
0.0
 11
366.5836404318286
 21
70.913424341886454
 31
0.0
  0
LINE
  5
187B
  8
TITLE
 10
365.72651848630198
 20
69.358023415176504
 30
0.0
 11
366.8427718500518
 21
70.474276778932875
 31
0.0
  0
LINE
  5
187C
  8
TITLE
 10
365.79130134085068
 20
69.248236524437402
 30
0.0
 11
366.90755470460022
 21
70.364489888186597
 31
0.0
  0
LINE
  5
187D
  8
TITLE
 10
365.85608419539909
 20
69.138449633699594
 30
0.0
 11
366.97233755916318
 21
70.254702997455439
 31
0.0
  0
LINE
  5
187E
  8
TITLE
 10
365.920867049962
 20
69.028662742960478
 30
0.0
 11
367.03712041371182
 21
70.144916106709616
 31
0.0
  0
LINE
  5
187F
  8
TITLE
 10
365.98564990451092
 20
68.918875852221774
 30
0.0
 11
367.10190326827461
 21
70.035129215978429
 31
0.0
  0
LINE
  5
1880
  8
TITLE
 10
366.05043275907377
 20
68.809088961483596
 30
0.0
 11
367.16668612282331
 21
69.925342325232961
 31
0.0
  0
LINE
  5
1881
  8
TITLE
 10
365.53216992264242
 20
69.687384087392473
 30
0.0
 11
366.64842328639179
 21
70.803637451149243
 31
0.0
  0
LINE
  5
1882
  8
TITLE
 10
365.59695277719129
 20
69.577597196660406
 30
0.0
 11
366.7132061409406
 21
70.693850560409601
 31
0.0
  0
LINE
  5
1883
  8
TITLE
 10
365.66173563173908
 20
69.467810305915606
 30
0.0
 11
366.77798899550322
 21
70.584063669671067
 31
0.0
  0
LINE
  5
1884
  8
TITLE
 10
366.11521561362201
 20
68.699302070744523
 30
0.0
 11
367.23146897737149
 21
69.81555543450088
 31
0.0
  0
LINE
  5
1885
  8
TITLE
 10
366.17999846817128
 20
68.589515180006075
 30
0.0
 11
367.29625183193389
 21
69.705768543754857
 31
0.0
  0
LINE
  5
1886
  8
TITLE
 10
364.92219861976292
 20
72.568807690369823
 30
0.0
 11
366.32989809430933
 21
73.976507164923561
 31
0.0
  0
LINE
  5
1887
  8
TITLE
 10
365.79504734621992
 20
72.568807690369823
 30
0.0
 11
367.20274682076609
 21
73.976507164923561
 31
0.0
  0
LINE
  5
1888
  8
TITLE
 10
365.96961709151401
 20
72.568807690369823
 30
0.0
 11
367.37731656606138
 21
73.976507164923561
 31
0.0
  0
LINE
  5
1889
  8
TITLE
 10
366.14418683680861
 20
72.568807690369823
 30
0.0
 11
367.55188631135502
 21
73.976507164923561
 31
0.0
  0
LINE
  5
188A
  8
TITLE
 10
365.09676836504292
 20
72.568807690369823
 30
0.0
 11
366.50446783960342
 21
73.976507164923561
 31
0.0
  0
LINE
  5
188B
  8
TITLE
 10
365.27133811033752
 20
72.568807690369823
 30
0.0
 11
366.6790375848982
 21
73.976507164923561
 31
0.0
  0
LINE
  5
188C
  8
TITLE
 10
365.44590785563179
 20
72.568807690369823
 30
0.0
 11
366.85360733017819
 21
73.976507164923561
 31
0.0
  0
LINE
  5
188D
  8
TITLE
 10
365.62047760092611
 20
72.568807690369823
 30
0.0
 11
367.02817707547251
 21
73.976507164923561
 31
0.0
  0
LINE
  5
188E
  8
TITLE
 10
362.67741393353151
 20
74.862836381768943
 30
0.0
 11
364.24152446081871
 21
76.42694690904878
 31
0.0
  0
LINE
  5
188F
  8
TITLE
 10
362.85198367882589
 20
74.862836381768943
 30
0.0
 11
364.41609420611189
 21
76.42694690904878
 31
0.0
  0
LINE
  5
1890
  8
TITLE
 10
363.02655342411953
 20
74.862836381768943
 30
0.0
 11
364.59066395139189
 21
76.42694690904878
 31
0.0
  0
LINE
  5
1891
  8
TITLE
 10
363.2011231694139
 20
74.862836381768943
 30
0.0
 11
364.76523369668649
 21
76.42694690904878
 31
0.0
  0
LINE
  5
1892
  8
TITLE
 10
363.37569291470862
 20
74.862836381768943
 30
0.0
 11
364.93980344198098
 21
76.42694690904878
 31
0.0
  0
LINE
  5
1893
  8
TITLE
 10
363.55026266000249
 20
74.862836381768943
 30
0.0
 11
365.11437318727531
 21
76.42694690904878
 31
0.0
  0
LINE
  5
1894
  8
TITLE
 10
363.72483240529692
 20
74.862836381768943
 30
0.0
 11
365.28894293256951
 21
76.42694690904878
 31
0.0
  0
LINE
  5
1895
  8
TITLE
 10
364.94682062234301
 20
74.862836381768943
 30
0.0
 11
366.1848291152105
 21
76.100844874628294
 31
0.0
  0
LINE
  5
1896
  8
TITLE
 10
365.12139036763762
 20
74.862836381768943
 30
0.0
 11
366.1848291152105
 21
75.926275129341619
 31
0.0
  0
LINE
  5
1897
  8
TITLE
 10
365.29596011293143
 20
74.862836381768943
 30
0.0
 11
366.1848291152105
 21
75.751705384047824
 31
0.0
  0
LINE
  5
1898
  8
TITLE
 10
365.4705298582262
 20
74.862836381768943
 30
0.0
 11
366.1848291152105
 21
75.57713563876024
 31
0.0
  0
LINE
  5
1899
  8
TITLE
 10
363.89940215059141
 20
74.862836381768943
 30
0.0
 11
366.70627078643889
 21
77.669705017624452
 31
0.0
  0
LINE
  5
189A
  8
TITLE
 10
364.0739718958859
 20
74.862836381768943
 30
0.0
 11
366.83920283311193
 21
77.628067319009688
 31
0.0
  0
LINE
  5
189B
  8
TITLE
 10
364.24854164116567
 20
74.862836381768943
 30
0.0
 11
366.9740934517431
 21
77.588388192339735
 31
0.0
  0
LINE
  5
189C
  8
TITLE
 10
364.42311138645999
 20
74.862836381768943
 30
0.0
 11
367.11099969035928
 21
77.550724685661066
 31
0.0
  0
LINE
  5
189D
  8
TITLE
 10
364.5976811317546
 20
74.862836381768943
 30
0.0
 11
367.24998339652012
 21
77.515138646534567
 31
0.0
  0
LINE
  5
189E
  8
TITLE
 10
364.77225087704852
 20
74.862836381768943
 30
0.0
 11
367.39111172962851
 21
77.481697234356616
 31
0.0
  0
LINE
  5
189F
  8
TITLE
 10
376.50169030723782
 20
78.038358292601544
 30
0.0
 11
378.17390851735331
 21
79.71057650271635
 31
0.0
  0
LINE
  5
18A0
  8
TITLE
 10
376.50169030723782
 20
77.863788547307593
 30
0.0
 11
378.25855011128101
 21
79.62064835135773
 31
0.0
  0
LINE
  5
18A1
  8
TITLE
 10
376.50169030723782
 20
77.689218802013571
 30
0.0
 11
378.25855011128101
 21
79.446078606063423
 31
0.0
  0
LINE
  5
18A2
  8
TITLE
 10
376.50169030723782
 20
77.514649056718952
 30
0.0
 11
378.25855011128101
 21
79.27150886077554
 31
0.0
  0
LINE
  5
18A3
  8
TITLE
 10
374.96012862318588
 20
75.449378136790813
 30
0.0
 11
378.25855011128101
 21
78.747799624892693
 31
0.0
  0
LINE
  5
18A4
  8
TITLE
 10
375.13469836848031
 20
75.449378136790813
 30
0.0
 11
378.25855011128101
 21
78.573229879598998
 31
0.0
  0
LINE
  5
18A5
  8
TITLE
 10
375.30926811377441
 20
75.449378136790813
 30
0.0
 11
378.25855011128101
 21
78.398660134304365
 31
0.0
  0
LINE
  5
18A6
  8
TITLE
 10
375.4838378590689
 20
75.449378136790813
 30
0.0
 11
378.25855011128101
 21
78.224090389010442
 31
0.0
  0
LINE
  5
18A7
  8
TITLE
 10
375.65840760436299
 20
75.449378136790813
 30
0.0
 11
378.25855011128101
 21
78.049520643716761
 31
0.0
  0
LINE
  5
18A8
  8
TITLE
 10
376.50169030723782
 20
77.340079311424461
 30
0.0
 11
378.25855011128101
 21
79.09693911548159
 31
0.0
  0
LINE
  5
18A9
  8
TITLE
 10
376.50169030723782
 20
77.165509566130382
 30
0.0
 11
378.25855011128101
 21
78.922369370187283
 31
0.0
  0
LINE
  5
18AA
  8
TITLE
 10
374.8452223452075
 20
75.858181094688604
 30
0.0
 11
376.14089878283738
 21
77.153857532332481
 31
0.0
  0
LINE
  5
18AB
  8
TITLE
 10
374.8452223452075
 20
75.683611349401559
 30
0.0
 11
376.31546852813102
 21
77.153857532332481
 31
0.0
  0
LINE
  5
18AC
  8
TITLE
 10
374.8452223452075
 20
75.50904160410694
 30
0.0
 11
376.49003827342551
 21
77.153857532332481
 31
0.0
  0
LINE
  5
18AD
  8
TITLE
 10
374.8452223452075
 20
76.032750839982569
 30
0.0
 11
375.96632903755659
 21
77.153857532332481
 31
0.0
  0
LINE
  5
18AE
  8
TITLE
 10
374.8452223452075
 20
76.556460075866212
 30
0.0
 11
375.4426198016738
 21
77.153857532332481
 31
0.0
  0
LINE
  5
18AF
  8
TITLE
 10
374.8452223452075
 20
76.381890330571366
 30
0.0
 11
375.61718954696829
 21
77.153857532332481
 31
0.0
  0
LINE
  5
18B0
  8
TITLE
 10
374.8452223452075
 20
76.207320585276889
 30
0.0
 11
375.79175929226238
 21
77.153857532332481
 31
0.0
  0
LINE
  5
18B1
  8
TITLE
 10
374.8452223452075
 20
76.905599566453702
 30
0.0
 11
375.09348031108487
 21
77.153857532332481
 31
0.0
  0
LINE
  5
18B2
  8
TITLE
 10
374.8452223452075
 20
76.731029821159623
 30
0.0
 11
375.26805005638022
 21
77.153857532332481
 31
0.0
  0
LINE
  5
18B3
  8
TITLE
 10
376.35668658552589
 20
75.449378136790813
 30
0.0
 11
378.25855011128101
 21
77.351241662552638
 31
0.0
  0
LINE
  5
18B4
  8
TITLE
 10
374.8452223452075
 20
77.080169311748278
 30
0.0
 11
374.91891056579129
 21
77.153857532332481
 31
0.0
  0
LINE
  5
18B5
  8
TITLE
 10
376.00754709493799
 20
75.449378136790813
 30
0.0
 11
378.25855011128101
 21
77.700381153134586
 31
0.0
  0
LINE
  5
18B6
  8
TITLE
 10
376.18211684023169
 20
75.449378136790813
 30
0.0
 11
378.25855011128101
 21
77.525811407839996
 31
0.0
  0
LINE
  5
18B7
  8
TITLE
 10
375.83297734964299
 20
75.449378136790813
 30
0.0
 11
378.25855011128101
 21
77.874950898428239
 31
0.0
  0
LINE
  5
18B8
  8
TITLE
 10
376.50169030723782
 20
78.212928037895495
 30
0.0
 11
377.99933877205859
 21
79.71057650271635
 31
0.0
  0
LINE
  5
18B9
  8
TITLE
 10
376.50169030723782
 20
79.260346509647874
 30
0.0
 11
376.95192030030728
 21
79.71057650271635
 31
0.0
  0
LINE
  5
18BA
  8
TITLE
 10
376.50169030723782
 20
79.085776764353042
 30
0.0
 11
377.12649004560171
 21
79.71057650271635
 31
0.0
  0
LINE
  5
18BB
  8
TITLE
 10
376.50169030723782
 20
78.911207019058708
 30
0.0
 11
377.30105979088148
 21
79.71057650271635
 31
0.0
  0
LINE
  5
18BC
  8
TITLE
 10
376.50169030723782
 20
78.736637273771734
 30
0.0
 11
377.4756295361754
 21
79.71057650271635
 31
0.0
  0
LINE
  5
18BD
  8
TITLE
 10
376.50169030723782
 20
78.562067528477684
 30
0.0
 11
377.6501992814695
 21
79.71057650271635
 31
0.0
  0
LINE
  5
18BE
  8
TITLE
 10
376.50169030723782
 20
78.387497783183434
 30
0.0
 11
377.82476902676399
 21
79.71057650271635
 31
0.0
  0
LINE
  5
18BF
  8
TITLE
 10
376.50169030723782
 20
79.60948600023616
 30
0.0
 11
376.60278080971801
 21
79.71057650271635
 31
0.0
  0
LINE
  5
18C0
  8
TITLE
 10
376.50169030723782
 20
79.434916254941569
 30
0.0
 11
376.77735055501279
 21
79.71057650271635
 31
0.0
  0
LINE
  5
18C1
  8
TITLE
 10
376.50169030723782
 20
71.404707971468213
 30
0.0
 11
378.25855011128101
 21
73.16156777551808
 31
0.0
  0
LINE
  5
18C2
  8
TITLE
 10
376.50169030723782
 20
71.230138226173636
 30
0.0
 11
378.25855011128101
 21
72.986998030223603
 31
0.0
  0
LINE
  5
18C3
  8
TITLE
 10
376.50169030723782
 20
71.055568480879913
 30
0.0
 11
378.25855011128101
 21
72.812428284929553
 31
0.0
  0
LINE
  5
18C4
  8
TITLE
 10
376.50169030723782
 20
70.880998735592357
 30
0.0
 11
378.25855011128101
 21
72.637858539635289
 31
0.0
  0
LINE
  5
18C5
  8
TITLE
 10
376.50169030723782
 20
70.706428990298662
 30
0.0
 11
378.25855011128101
 21
72.463288794348287
 31
0.0
  0
LINE
  5
18C6
  8
TITLE
 10
376.50169030723782
 20
70.531859245003801
 30
0.0
 11
378.25855011128101
 21
72.288719049054563
 31
0.0
  0
LINE
  5
18C7
  8
TITLE
 10
376.50169030723782
 20
70.357289499709481
 30
0.0
 11
378.25855011128101
 21
72.114149303759703
 31
0.0
  0
LINE
  5
18C8
  8
TITLE
 10
376.50169030723782
 20
71.928417207343514
 30
0.0
 11
378.25855011128101
 21
73.68527701140124
 31
0.0
  0
LINE
  5
18C9
  8
TITLE
 10
376.50169030723782
 20
71.753847462049507
 30
0.0
 11
378.25855011128101
 21
73.510707266107005
 31
0.0
  0
LINE
  5
18CA
  8
TITLE
 10
376.50169030723782
 20
71.579277716755257
 30
0.0
 11
378.25855011128101
 21
73.336137520812954
 31
0.0
  0
LINE
  5
18CB
  8
TITLE
 10
374.55115979041102
 20
68.581328728176373
 30
0.0
 11
376.25563918594389
 21
70.285808123716976
 31
0.0
  0
LINE
  5
18CC
  8
TITLE
 10
374.72572953570437
 20
68.581328728176373
 30
0.0
 11
376.43020893123798
 21
70.285808123716976
 31
0.0
  0
LINE
  5
18CD
  8
TITLE
 10
374.90029928099949
 20
68.581328728176373
 30
0.0
 11
378.25855011128101
 21
71.939579558472403
 31
0.0
  0
LINE
  5
18CE
  8
TITLE
 10
375.07486902629319
 20
68.581328728176373
 30
0.0
 11
378.25855011128101
 21
71.765009813178423
 31
0.0
  0
LINE
  5
18CF
  8
TITLE
 10
375.24943877158807
 20
68.581328728176373
 30
0.0
 11
378.25855011128101
 21
71.590440067883819
 31
0.0
  0
LINE
  5
18D0
  8
TITLE
 10
375.42400851688171
 20
68.581328728176373
 30
0.0
 11
378.25855011128101
 21
71.415870322590138
 31
0.0
  0
LINE
  5
18D1
  8
TITLE
 10
375.59857826216171
 20
68.581328728176373
 30
0.0
 11
378.25855011128101
 21
71.241300577295561
 31
0.0
  0
LINE
  5
18D2
  8
TITLE
 10
375.77314800745597
 20
68.581328728176373
 30
0.0
 11
378.25855011128101
 21
71.066730832000914
 31
0.0
  0
LINE
  5
18D3
  8
TITLE
 10
375.94771775275041
 20
68.581328728176373
 30
0.0
 11
378.25855011128101
 21
70.892161086706125
 31
0.0
  0
LINE
  5
18D4
  8
TITLE
 10
376.1222874980445
 20
68.581328728176373
 30
0.0
 11
378.25855011128101
 21
70.717591341412415
 31
0.0
  0
LINE
  5
18D5
  8
TITLE
 10
376.29685724333882
 20
68.581328728176373
 30
0.0
 11
378.25855011128101
 21
70.543021596125641
 31
0.0
  0
LINE
  5
18D6
  8
TITLE
 10
376.47142698863382
 20
68.581328728176373
 30
0.0
 11
378.25855011128101
 21
70.368451850831434
 31
0.0
  0
LINE
  5
18D7
  8
TITLE
 10
376.64599673392752
 20
68.581328728176373
 30
0.0
 11
378.35047612946141
 21
70.285808123716976
 31
0.0
  0
LINE
  5
18D8
  8
TITLE
 10
376.82056647922241
 20
68.581328728176373
 30
0.0
 11
378.52504587475568
 21
70.285808123716976
 31
0.0
  0
LINE
  5
18D9
  8
TITLE
 10
376.9951362245165
 20
68.581328728176373
 30
0.0
 11
378.69961562004988
 21
70.285808123716976
 31
0.0
  0
LINE
  5
18DA
  8
TITLE
 10
377.16970596981059
 20
68.581328728176373
 30
0.0
 11
378.87418536534392
 21
70.285808123716976
 31
0.0
  0
LINE
  5
18DB
  8
TITLE
 10
376.50169030723782
 20
73.67411466027238
 30
0.0
 11
378.25855011128101
 21
75.430974464329893
 31
0.0
  0
LINE
  5
18DC
  8
TITLE
 10
376.50169030723782
 20
73.499544914978429
 30
0.0
 11
378.25855011128101
 21
75.256404719035814
 31
0.0
  0
LINE
  5
18DD
  8
TITLE
 10
376.50169030723782
 20
73.324975169684095
 30
0.0
 11
378.25855011128101
 21
75.081834973741607
 31
0.0
  0
LINE
  5
18DE
  8
TITLE
 10
376.50169030723782
 20
73.15040542439624
 30
0.0
 11
378.25855011128101
 21
74.907265228446391
 31
0.0
  0
LINE
  5
18DF
  8
TITLE
 10
376.50169030723782
 20
72.975835679102289
 30
0.0
 11
378.25855011128101
 21
74.732695483152696
 31
0.0
  0
LINE
  5
18E0
  8
TITLE
 10
376.50169030723782
 20
72.801265933815785
 30
0.0
 11
378.25855011128101
 21
74.558125737858106
 31
0.0
  0
LINE
  5
18E1
  8
TITLE
 10
376.50169030723782
 20
72.626696188520924
 30
0.0
 11
378.25855011128101
 21
74.383555992564411
 31
0.0
  0
LINE
  5
18E2
  8
TITLE
 10
376.50169030723782
 20
72.452126443226405
 30
0.0
 11
378.25855011128101
 21
74.20898624727684
 31
0.0
  0
LINE
  5
18E3
  8
TITLE
 10
376.50169030723782
 20
72.27755669793261
 30
0.0
 11
378.25855011128101
 21
74.034416501982605
 31
0.0
  0
LINE
  5
18E4
  8
TITLE
 10
376.50169030723782
 20
72.102986952638119
 30
0.0
 11
378.25855011128101
 21
73.859846756695561
 31
0.0
  0
LINE
  5
18E5
  8
TITLE
 10
376.50169030723782
 20
75.419812113201573
 30
0.0
 11
378.25855011128101
 21
77.176671917258446
 31
0.0
  0
LINE
  5
18E6
  8
TITLE
 10
376.50169030723782
 20
75.245242367907537
 30
0.0
 11
378.41030547164843
 21
77.153857532332481
 31
0.0
  0
LINE
  5
18E7
  8
TITLE
 10
376.50169030723782
 20
75.070672622619639
 30
0.0
 11
378.58487521694292
 21
77.153857532332481
 31
0.0
  0
LINE
  5
18E8
  8
TITLE
 10
376.50169030723782
 20
74.896102877325717
 30
0.0
 11
378.75944496223701
 21
77.153857532332481
 31
0.0
  0
LINE
  5
18E9
  8
TITLE
 10
376.50169030723782
 20
74.721533132031098
 30
0.0
 11
378.93401470753099
 21
77.153857532332481
 31
0.0
  0
LINE
  5
18EA
  8
TITLE
 10
370.90915318889978
 20
76.635495061298244
 30
0.0
 11
372.83035453108801
 21
78.556696403471634
 31
0.0
  0
LINE
  5
18EB
  8
TITLE
 10
371.08372293419387
 20
76.635495061298244
 30
0.0
 11
372.83035453108801
 21
78.382126658177683
 31
0.0
  0
LINE
  5
18EC
  8
TITLE
 10
371.25829267948842
 20
76.635495061298244
 30
0.0
 11
372.83035453108801
 21
78.207556912890055
 31
0.0
  0
LINE
  5
18ED
  8
TITLE
 10
372.44141720944663
 20
76.072922138327641
 30
0.0
 11
374.32446035184302
 21
77.955965280717137
 31
0.0
  0
LINE
  5
18EE
  8
TITLE
 10
372.38795653629933
 20
75.844891719886562
 30
0.0
 11
374.49903009713751
 21
77.955965280717137
 31
0.0
  0
LINE
  5
18EF
  8
TITLE
 10
371.43286242478263
 20
76.635495061298244
 30
0.0
 11
372.83035453108801
 21
78.032987167595493
 31
0.0
  0
LINE
  5
18F0
  8
TITLE
 10
371.60743217007712
 20
76.635495061298244
 30
0.0
 11
372.92790238948851
 21
77.955965280717137
 31
0.0
  0
LINE
  5
18F1
  8
TITLE
 10
371.78200191537161
 20
76.635495061298244
 30
0.0
 11
373.10247213478323
 21
77.955965280717137
 31
0.0
  0
LINE
  5
18F2
  8
TITLE
 10
371.9565716606516
 20
76.635495061298244
 30
0.0
 11
373.27704188007721
 21
77.955965280717137
 31
0.0
  0
LINE
  5
18F3
  8
TITLE
 10
372.13114140594553
 20
76.635495061298244
 30
0.0
 11
373.4516116253713
 21
77.955965280717137
 31
0.0
  0
LINE
  5
18F4
  8
TITLE
 10
372.3057111512399
 20
76.635495061298244
 30
0.0
 11
373.62618137066602
 21
77.955965280717137
 31
0.0
  0
LINE
  5
18F5
  8
TITLE
 10
372.48028089653388
 20
76.635495061298244
 30
0.0
 11
373.80075111596062
 21
77.955965280717137
 31
0.0
  0
LINE
  5
18F6
  8
TITLE
 10
372.50453658846129
 20
76.485181007917021
 30
0.0
 11
373.97532086125398
 21
77.955965280717137
 31
0.0
  0
LINE
  5
18F7
  8
TITLE
 10
372.47922149484589
 20
76.285296169020896
 30
0.0
 11
374.14989060654852
 21
77.955965280717137
 31
0.0
  0
LINE
  5
18F8
  8
TITLE
 10
371.15983209413139
 20
78.28273192886941
 30
0.0
 11
372.58767666797797
 21
79.71057650271635
 31
0.0
  0
LINE
  5
18F9
  8
TITLE
 10
371.15983209413139
 20
78.108162183574549
 30
0.0
 11
372.76224641327212
 21
79.71057650271635
 31
0.0
  0
LINE
  5
18FA
  8
TITLE
 10
371.15983209413139
 20
79.330150400620795
 30
0.0
 11
371.54025819622598
 21
79.71057650271635
 31
0.0
  0
LINE
  5
18FB
  8
TITLE
 10
371.15983209413139
 20
79.155580655326546
 30
0.0
 11
371.71482794152098
 21
79.71057650271635
 31
0.0
  0
LINE
  5
18FC
  8
TITLE
 10
371.15983209413139
 20
78.98101091003312
 30
0.0
 11
371.88939768680052
 21
79.71057650271635
 31
0.0
  0
LINE
  5
18FD
  8
TITLE
 10
371.15983209413139
 20
78.80644116474555
 30
0.0
 11
372.06396743209569
 21
79.71057650271635
 31
0.0
  0
LINE
  5
18FE
  8
TITLE
 10
371.15983209413139
 20
78.63187141945096
 30
0.0
 11
372.2385371773895
 21
79.71057650271635
 31
0.0
  0
LINE
  5
18FF
  8
TITLE
 10
371.15983209413139
 20
78.457301674156426
 30
0.0
 11
372.41310692268388
 21
79.71057650271635
 31
0.0
  0
LINE
  5
1900
  8
TITLE
 10
371.15983209413139
 20
79.679289891209706
 30
0.0
 11
371.19111870563802
 21
79.71057650271635
 31
0.0
  0
LINE
  5
1901
  8
TITLE
 10
371.15983209413139
 20
79.504720145915442
 30
0.0
 11
371.36568845093211
 21
79.71057650271635
 31
0.0
  0
LINE
  5
1902
  8
TITLE
 10
371.15983209413139
 20
70.950802626566499
 30
0.0
 11
372.83035453108801
 21
72.621325063516295
 31
0.0
  0
LINE
  5
1903
  8
TITLE
 10
371.15983209413139
 20
70.776232881271625
 30
0.0
 11
372.83035453108801
 21
72.446755318221804
 31
0.0
  0
LINE
  5
1904
  8
TITLE
 10
371.15983209413139
 20
70.601663135977702
 30
0.0
 11
372.83035453108801
 21
72.272185572934205
 31
0.0
  0
LINE
  5
1905
  8
TITLE
 10
371.15983209413139
 20
70.427093390683382
 30
0.0
 11
372.83035453108801
 21
72.097615827639601
 31
0.0
  0
LINE
  5
1906
  8
TITLE
 10
373.73894311271749
 20
71.958785937510342
 30
0.0
 11
374.50087743504912
 21
72.720720259849116
 31
0.0
  0
LINE
  5
1907
  8
TITLE
 10
373.83739195839098
 20
71.882665037897056
 30
0.0
 11
374.50087743504912
 21
72.546150514554483
 31
0.0
  0
LINE
  5
1908
  8
TITLE
 10
373.9358408040639
 20
71.806544138275541
 30
0.0
 11
374.50087743504912
 21
72.371580769267567
 31
0.0
  0
LINE
  5
1909
  8
TITLE
 10
374.03428964973767
 20
71.73042323866224
 30
0.0
 11
374.50087743504912
 21
72.197011023973516
 31
0.0
  0
LINE
  5
190A
  8
TITLE
 10
374.13273849542497
 20
71.654302339048655
 30
0.0
 11
374.50087743504912
 21
72.022441278679565
 31
0.0
  0
LINE
  5
190B
  8
TITLE
 10
371.15983209413139
 20
71.823651353022456
 30
0.0
 11
373.56854021335948
 21
74.23235947226614
 31
0.0
  0
LINE
  5
190C
  8
TITLE
 10
371.15983209413139
 20
71.649081607728263
 30
0.0
 11
373.65352189461709
 21
74.142771408221819
 31
0.0
  0
LINE
  5
190D
  8
TITLE
 10
371.15983209413139
 20
71.474511862441446
 30
0.0
 11
373.73850357587389
 21
74.053183344178265
 31
0.0
  0
LINE
  5
190E
  8
TITLE
 10
371.15983209413139
 20
71.299942117147779
 30
0.0
 11
373.82348525711723
 21
73.963595280140922
 31
0.0
  0
LINE
  5
190F
  8
TITLE
 10
371.15983209413139
 20
71.125372371852933
 30
0.0
 11
373.90846693837449
 21
73.874007216103891
 31
0.0
  0
LINE
  5
1910
  8
TITLE
 10
371.15983209413139
 20
69.554244664218658
 30
0.0
 11
372.83035453108801
 21
71.224767101168197
 31
0.0
  0
LINE
  5
1911
  8
TITLE
 10
371.15983209413139
 20
69.379674918924323
 30
0.0
 11
372.83035453108801
 21
71.050197355881153
 31
0.0
  0
LINE
  5
1912
  8
TITLE
 10
371.15983209413139
 20
69.205105173637705
 30
0.0
 11
372.83035453108801
 21
70.875627610586903
 31
0.0
  0
LINE
  5
1913
  8
TITLE
 10
371.15983209413139
 20
69.030535428342773
 30
0.0
 11
372.83035453108801
 21
70.701057865292313
 31
0.0
  0
LINE
  5
1914
  8
TITLE
 10
371.15983209413139
 20
68.855965683049021
 30
0.0
 11
372.83035453108801
 21
70.526488120005297
 31
0.0
  0
LINE
  5
1915
  8
TITLE
 10
371.15983209413139
 20
68.681395937754161
 30
0.0
 11
372.83035453108801
 21
70.351918374711602
 31
0.0
  0
LINE
  5
1916
  8
TITLE
 10
371.23433462984741
 20
68.581328728176373
 30
0.0
 11
372.83035453108801
 21
70.177348629416713
 31
0.0
  0
LINE
  5
1917
  8
TITLE
 10
371.40890437514167
 20
68.581328728176373
 30
0.0
 11
372.83035453108801
 21
70.002778884122122
 31
0.0
  0
LINE
  5
1918
  8
TITLE
 10
371.15983209413139
 20
69.728814409513546
 30
0.0
 11
372.83035453108801
 21
71.399336846462418
 31
0.0
  0
LINE
  5
1919
  8
TITLE
 10
371.58347412043548
 20
68.581328728176373
 30
0.0
 11
372.83035453108801
 21
69.828209138828456
 31
0.0
  0
LINE
  5
191A
  8
TITLE
 10
371.75804386572997
 20
68.581328728176373
 30
0.0
 11
372.83035453108801
 21
69.653639393534149
 31
0.0
  0
LINE
  5
191B
  8
TITLE
 10
371.93261361101048
 20
68.581328728176373
 30
0.0
 11
372.83035453108801
 21
69.479069648239275
 31
0.0
  0
LINE
  5
191C
  8
TITLE
 10
372.10718335630418
 20
68.581328728176373
 30
0.0
 11
372.83035453108801
 21
69.304499902945025
 31
0.0
  0
LINE
  5
191D
  8
TITLE
 10
372.28175310159872
 20
68.581328728176373
 30
0.0
 11
372.83035453108801
 21
69.129930157657697
 31
0.0
  0
LINE
  5
191E
  8
TITLE
 10
372.45632284689287
 20
68.581328728176373
 30
0.0
 11
372.83035453108801
 21
68.955360412364314
 31
0.0
  0
LINE
  5
191F
  8
TITLE
 10
372.63089259218742
 20
68.581328728176373
 30
0.0
 11
372.83035453108801
 21
68.780790667069766
 31
0.0
  0
LINE
  5
1920
  8
TITLE
 10
372.80546233748117
 20
68.581328728176373
 30
0.0
 11
372.83035453108801
 21
68.606220921783006
 31
0.0
  0
LINE
  5
1921
  8
TITLE
 10
371.15983209413139
 20
70.252523645388777
 30
0.0
 11
372.83035453108801
 21
71.923046082345522
 31
0.0
  0
LINE
  5
1922
  8
TITLE
 10
371.15983209413139
 20
70.077953900094542
 30
0.0
 11
372.83035453108801
 21
71.748476337051883
 31
0.0
  0
LINE
  5
1923
  8
TITLE
 10
371.15983209413139
 20
69.903384154799966
 30
0.0
 11
372.83035453108801
 21
71.573906591756739
 31
0.0
  0
LINE
  5
1924
  8
TITLE
 10
374.19267420450092
 20
70.143110340489713
 30
0.0
 11
374.33537198772137
 21
70.285808123716976
 31
0.0
  0
LINE
  5
1925
  8
TITLE
 10
374.42808503244498
 20
71.425939640199417
 30
0.0
 11
374.50087743504912
 21
71.498732042803411
 31
0.0
  0
LINE
  5
1926
  8
TITLE
 10
374.23118734109789
 20
71.578181439427524
 30
0.0
 11
374.50087743504912
 21
71.847871533392507
 31
0.0
  0
LINE
  5
1927
  8
TITLE
 10
374.32963618677121
 20
71.502060539813854
 30
0.0
 11
374.50087743504912
 21
71.673301788098286
 31
0.0
  0
LINE
  5
1928
  8
TITLE
 10
371.01596132318332
 20
72.028920072670786
 30
0.0
 11
373.82421137774128
 21
74.837170127221654
 31
0.0
  0
LINE
  5
1929
  8
TITLE
 10
371.15983209413139
 20
71.998221098317302
 30
0.0
 11
373.61144525698251
 21
74.449834261169386
 31
0.0
  0
LINE
  5
192A
  8
TITLE
 10
373.44359657568299
 20
72.187148636359566
 30
0.0
 11
374.50087743504912
 21
73.244429495732234
 31
0.0
  0
LINE
  5
192B
  8
TITLE
 10
373.54204542135648
 20
72.111027736745683
 30
0.0
 11
374.50087743504912
 21
73.069859750437644
 31
0.0
  0
LINE
  5
192C
  8
TITLE
 10
372.85290350162848
 20
72.64387403405604
 30
0.0
 11
373.9934486196326
 21
73.784419152067059
 31
0.0
  0
LINE
  5
192D
  8
TITLE
 10
372.95135234730168
 20
72.567753134442384
 30
0.0
 11
374.07843030087531
 21
73.694831088023562
 31
0.0
  0
LINE
  5
192E
  8
TITLE
 10
373.04980119297562
 20
72.491632234821751
 30
0.0
 11
374.16341198213291
 21
73.605243023979739
 31
0.0
  0
LINE
  5
192F
  8
TITLE
 10
373.14825003864848
 20
72.415511335207611
 30
0.0
 11
374.24839366338989
 21
73.515654959942381
 31
0.0
  0
LINE
  5
1930
  8
TITLE
 10
373.24669888432209
 20
72.339390435594339
 30
0.0
 11
374.33337534463379
 21
73.426066895905592
 31
0.0
  0
LINE
  5
1931
  8
TITLE
 10
373.34514773001001
 20
72.263269535972839
 30
0.0
 11
374.41835702589088
 21
73.336478831861498
 31
0.0
  0
LINE
  5
1932
  8
TITLE
 10
373.6404942670294
 20
72.034906837124481
 30
0.0
 11
374.50087743504912
 21
72.895290005143707
 31
0.0
  0
LINE
  5
1933
  8
TITLE
 10
372.05813558917589
 20
74.991361536886885
 30
0.0
 11
374.50040818511229
 21
77.43363413283025
 31
0.0
  0
LINE
  5
1934
  8
TITLE
 10
371.796548276615
 20
74.555204479031772
 30
0.0
 11
374.48992209614198
 21
77.248578298559679
 31
0.0
  0
LINE
  5
1935
  8
TITLE
 10
374.37659004511602
 20
68.581328728176373
 30
0.0
 11
376.0810694406498
 21
70.285808123716976
 31
0.0
  0
LINE
  5
1936
  8
TITLE
 10
374.19267420450092
 20
68.92112212343028
 30
0.0
 11
375.55736020478088
 21
70.285808123716976
 31
0.0
  0
LINE
  5
1937
  8
TITLE
 10
374.19267420450092
 20
68.746552378142411
 30
0.0
 11
375.7319299500752
 21
70.285808123716976
 31
0.0
  0
LINE
  5
1938
  8
TITLE
 10
374.20202029982192
 20
68.581328728176373
 30
0.0
 11
375.90649969535502
 21
70.285808123716976
 31
0.0
  0
LINE
  5
1939
  8
TITLE
 10
374.19267420450092
 20
69.619401104606567
 30
0.0
 11
374.85908122360343
 21
70.285808123716976
 31
0.0
  0
LINE
  5
193A
  8
TITLE
 10
374.19267420450092
 20
69.444831359312275
 30
0.0
 11
375.03365096889797
 21
70.285808123716976
 31
0.0
  0
LINE
  5
193B
  8
TITLE
 10
374.19267420450092
 20
69.270261614018324
 30
0.0
 11
375.20822071419229
 21
70.285808123716976
 31
0.0
  0
LINE
  5
193C
  8
TITLE
 10
374.19267420450092
 20
69.095691868723975
 30
0.0
 11
375.3827904594873
 21
70.285808123716976
 31
0.0
  0
LINE
  5
193D
  8
TITLE
 10
374.19267420450092
 20
69.793970849901456
 30
0.0
 11
374.68451147831013
 21
70.285808123716976
 31
0.0
  0
LINE
  5
193E
  8
TITLE
 10
374.19267420450092
 20
69.968540595195122
 30
0.0
 11
374.50994173301501
 21
70.285808123716976
 31
0.0
  0
LINE
  5
193F
  8
TITLE
 10
372.21017950776701
 20
75.317975200771812
 30
0.0
 11
374.5054157601682
 21
77.613211453173804
 31
0.0
  0
LINE
  5
1940
  8
TITLE
 10
372.31382871131791
 20
75.596194149603662
 30
0.0
 11
374.50541593058517
 21
77.787781368870441
 31
0.0
  0
LINE
  5
1941
  8
TITLE
 10
379.14980251022052
 20
75.449378136790813
 30
0.0
 11
379.96521422783388
 21
76.264789854411561
 31
0.0
  0
LINE
  5
1942
  8
TITLE
 10
379.32437225550052
 20
75.449378136790813
 30
0.0
 11
379.96521422783388
 21
76.090220109117254
 31
0.0
  0
LINE
  5
1943
  8
TITLE
 10
379.4989420007953
 20
75.449378136790813
 30
0.0
 11
379.96521422783388
 21
75.915650363823573
 31
0.0
  0
LINE
  5
1944
  8
TITLE
 10
379.67351174608888
 20
75.449378136790813
 30
0.0
 11
379.96521422783388
 21
75.741080618528414
 31
0.0
  0
LINE
  5
1945
  8
TITLE
 10
379.84808149138343
 20
75.449378136790813
 30
0.0
 11
379.96521422783388
 21
75.566510873234094
 31
0.0
  0
LINE
  5
1946
  8
TITLE
 10
379.089973168033
 20
68.581328728176373
 30
0.0
 11
380.46717390498731
 21
69.958529465129928
 31
0.0
  0
LINE
  5
1947
  8
TITLE
 10
379.9628218944913
 20
68.581328728176373
 30
0.0
 11
380.46717390498731
 21
69.085680738672124
 31
0.0
  0
LINE
  5
1948
  8
TITLE
 10
380.13739163978522
 20
68.581328728176373
 30
0.0
 11
380.46717390498731
 21
68.911110993378443
 31
0.0
  0
LINE
  5
1949
  8
TITLE
 10
379.26454291331328
 20
68.581328728176373
 30
0.0
 11
380.46717390498731
 21
69.783959719835053
 31
0.0
  0
LINE
  5
194A
  8
TITLE
 10
379.43911265860783
 20
68.581328728176373
 30
0.0
 11
380.46717390498731
 21
69.60938997454835
 31
0.0
  0
LINE
  5
194B
  8
TITLE
 10
379.61368240390198
 20
68.581328728176373
 30
0.0
 11
380.46717390498731
 21
69.434820229253759
 31
0.0
  0
LINE
  5
194C
  8
TITLE
 10
379.7882521491963
 20
68.581328728176373
 30
0.0
 11
380.46717390498731
 21
69.260250483966701
 31
0.0
  0
LINE
  5
194D
  8
TITLE
 10
380.31196138507931
 20
68.581328728176373
 30
0.0
 11
380.46717390498731
 21
68.736541248083853
 31
0.0
  0
LINE
  5
394D
  8
TITLE
 10
254.0931457505076
 20
87.343145750507631
 30
0.0
 11
265.40685424949243
 21
98.656854249492369
 31
0.0
  0
TEXT
  5
4889
  8
TITLE
 10
251.9555417401001
 20
94.03160983010639
 30
0.0
 40
5.0
  1
１
 72
     1
 11
254.1222084067667
 21
96.53160983010639
 31
0.0
 73
     2
  0
TEXT
  5
488A
  8
TITLE
 10
251.64601793057469
 20
87.041135448705973
 30
0.0
 40
5.0
  1
　　２
 72
     1
 11
265.97935126390797
 21
89.541135448705973
 31
0.0
 73
     2
  0
LINE
  5
48F6
  8
GENKYO
 10
201.18770180686269
 20
492.62451354930499
 30
0.0
 11
201.18770180686269
 21
216.4303646026612
 31
0.0
  0
LINE
  5
48FD
  8
MODEL
 10
206.88770180686279
 20
438.58036460266101
 30
0.0
 11
206.88770180686271
 21
244.58036460266109
 31
0.0
  0
LINE
  5
48FE
  8
MODEL
 10
209.38770180686271
 20
439.08036460266101
 30
0.0
 11
209.38770180686271
 21
244.08036460266109
 31
0.0
  0
LINE
  5
48FF
  8
MODEL
 10
203.88770180686279
 20
438.58036460266101
 30
0.0
 11
206.88770180686279
 21
438.58036460266101
 31
0.0
  0
LINE
  5
4900
  8
MODEL
 10
207.38770180686279
 20
441.08036460266112
 30
0.0
 11
202.18770270516251
 21
441.08036460266112
 31
0.0
  0
LINE
  5
4901
  8
MODEL
 10
203.88770180686279
 20
437.58036460266112
 30
0.0
 11
203.88770180686279
 21
438.58036460266101
 31
0.0
  0
ARC
  5
4902
  8
MODEL
 10
203.6877018068628
 20
440.08036460266112
 30
0.0
 40
2.5
 50
180.00003430873551
 51
270.0
  0
ARC
  5
4903
  8
MODEL
 10
202.18770270516251
 20
440.08036370446092
 30
0.0
 40
1.0000008982999991
 50
89.999999999996746
 51
180.00003430873551
  0
ARC
  5
4904
  8
MODEL
 10
207.38770180686279
 20
439.08036460266101
 30
0.0
 40
2.0
 50
0.0
 51
90.0
  0
LINE
  5
4905
  8
MODEL
 10
203.88770180686271
 20
244.58036460266109
 30
0.0
 11
206.88770180686271
 21
244.58036460266109
 31
0.0
  0
LINE
  5
4906
  8
MODEL
 10
207.38770180686271
 20
242.08036460266109
 30
0.0
 11
202.1877027051824
 21
242.0803646025573
 31
0.0
  0
ARC
  5
4907
  8
MODEL
 10
202.18770270516239
 20
243.08036550086129
 30
0.0
 40
1.0000008982999991
 50
179.9999656912579
 51
270.0
  0
LINE
  5
4908
  8
MODEL
 10
203.88770180686271
 20
245.58036460266109
 30
0.0
 11
203.88770180686271
 21
244.58036460266109
 31
0.0
  0
ARC
  5
4909
  8
MODEL
 10
203.68770180686269
 20
243.08036460266109
 30
0.0
 40
2.5
 50
89.999999999996746
 51
179.9999656912579
  0
ARC
  5
490A
  8
MODEL
 10
207.38770180686271
 20
244.08036460266109
 30
0.0
 40
2.0
 50
270.0
 51
0.0
  0
LINE
  5
490B
  8
MODEL
 10
203.68770180686269
 20
245.58036460266109
 30
0.0
 11
203.88770180686271
 21
245.58036460266109
 31
0.0
  0
LINE
  5
490C
  8
MODEL
 10
203.88770180686279
 20
437.58036460266112
 30
0.0
 11
203.6877018068628
 21
437.58036460266112
 31
0.0
  0
LINE
  5
490D
  8
MODEL
 10
204.68770180686269
 20
316.78036460266111
 30
0.0
 11
204.68770180686269
 21
366.38036460266102
 31
0.0
  0
LINE
  5
490E
  8
MODEL
 10
206.68770180686269
 20
315.9803646026611
 30
0.0
 11
206.68770180686269
 21
367.18036460266109
 31
0.0
  0
LINE
  5
490F
  8
MODEL
 10
201.1877018068628
 20
437.38036460266119
 30
0.0
 11
201.18770180686269
 21
413.38036460266102
 31
0.0
  0
LINE
  5
4910
  8
MODEL
 10
203.18770180686269
 20
415.18036460266109
 30
0.0
 11
203.1877018068628
 21
435.1803646026612
 31
0.0
  0
LINE
  5
4911
  8
MODEL
 10
203.1877018068628
 20
435.1803646026612
 30
0.0
 11
205.98770180686219
 21
435.1803646026612
 31
0.0
  0
LINE
  5
4912
  8
MODEL
 10
204.7877018068626
 20
437.38036460266142
 30
0.0
 11
201.1877018068628
 21
437.38036460266119
 31
0.0
  0
LINE
  5
4913
  8
MODEL
 10
201.18770180686269
 20
405.38036460266102
 30
0.0
 11
201.18770180686269
 21
367.3803646026609
 31
0.0
  0
LINE
  5
4914
  8
MODEL
 10
203.18770180686269
 20
368.18036460266097
 30
0.0
 11
203.18770180686269
 21
403.18036460266097
 31
0.0
  0
LINE
  5
4915
  8
MODEL
 10
203.18770180686269
 20
403.18036460266097
 30
0.0
 11
206.68770180686269
 21
403.18036460266097
 31
0.0
  0
LINE
  5
4916
  8
MODEL
 10
204.68770180686269
 20
405.38036460266102
 30
0.0
 11
201.18770180686269
 21
405.38036460266102
 31
0.0
  0
LINE
  5
4917
  8
MODEL
 10
206.68770180686269
 20
415.18036460266109
 30
0.0
 11
203.18770180686269
 21
415.18036460266109
 31
0.0
  0
LINE
  5
4918
  8
MODEL
 10
201.18770180686269
 20
413.38036460266102
 30
0.0
 11
204.68770180686269
 21
413.38036460266102
 31
0.0
  0
LINE
  5
4919
  8
MODEL
 10
206.68770180686269
 20
403.18036460266097
 30
0.0
 11
206.68770180686269
 21
415.18036460266109
 31
0.0
  0
LINE
  5
491A
  8
MODEL
 10
204.68770180686269
 20
413.38036460266102
 30
0.0
 11
204.68770180686269
 21
405.38036460266102
 31
0.0
  0
LINE
  5
491B
  8
MODEL
 10
203.18770180686269
 20
368.18036460266097
 30
0.0
 11
206.68770180686269
 21
367.18036460266109
 31
0.0
  0
LINE
  5
491C
  8
MODEL
 10
201.18770180686269
 20
367.3803646026609
 30
0.0
 11
204.68770180686269
 21
366.38036460266102
 31
0.0
  0
LINE
  5
491D
  8
MODEL
 10
204.68770180686269
 20
269.780364602661
 30
0.0
 11
204.68770180686269
 21
277.780364602661
 31
0.0
  0
LINE
  5
491E
  8
MODEL
 10
206.68770180686269
 20
279.98036460266098
 30
0.0
 11
206.68770180686269
 21
267.98036460266098
 31
0.0
  0
LINE
  5
491F
  8
MODEL
 10
203.18770180686269
 20
314.98036460266098
 30
0.0
 11
203.18770180686269
 21
279.98036460266098
 31
0.0
  0
LINE
  5
4920
  8
MODEL
 10
201.18770180686269
 20
277.780364602661
 30
0.0
 11
201.18770180686269
 21
315.78036460266111
 31
0.0
  0
LINE
  5
4921
  8
MODEL
 10
203.18770180686269
 20
314.98036460266098
 30
0.0
 11
206.68770180686269
 21
315.9803646026611
 31
0.0
  0
LINE
  5
4922
  8
MODEL
 10
201.18770180686269
 20
315.78036460266111
 30
0.0
 11
204.68770180686269
 21
316.78036460266111
 31
0.0
  0
LINE
  5
4923
  8
MODEL
 10
204.68770180686269
 20
277.780364602661
 30
0.0
 11
201.18770180686269
 21
277.780364602661
 31
0.0
  0
LINE
  5
4924
  8
MODEL
 10
203.18770180686269
 20
279.98036460266098
 30
0.0
 11
206.68770180686269
 21
279.98036460266098
 31
0.0
  0
LINE
  5
4925
  8
MODEL
 10
203.18770180686269
 20
267.98036460266098
 30
0.0
 11
203.18770180686269
 21
247.98036460266101
 31
0.0
  0
LINE
  5
4926
  8
MODEL
 10
201.18770180686269
 20
245.78036460266091
 30
0.0
 11
201.18770180686269
 21
269.780364602661
 31
0.0
  0
LINE
  5
4927
  8
MODEL
 10
206.68770180686269
 20
267.98036460266098
 30
0.0
 11
203.18770180686269
 21
267.98036460266098
 31
0.0
  0
LINE
  5
4928
  8
MODEL
 10
201.18770180686269
 20
269.780364602661
 30
0.0
 11
204.68770180686269
 21
269.780364602661
 31
0.0
  0
LINE
  5
4929
  8
MODEL
 10
204.7877018068626
 20
245.78036460266091
 30
0.0
 11
201.18770180686269
 21
245.78036460266091
 31
0.0
  0
LINE
  5
492A
  8
MODEL
 10
203.18770180686269
 20
247.98036460266101
 30
0.0
 11
205.98770180686211
 21
247.9803646026611
 31
0.0
  0
LINE
  5
492B
  8
MODEL
 10
204.7877018068628
 20
245.78036460266091
 30
0.0
 11
204.18770180686269
 21
244.78036460266091
 31
0.0
  0
ARC
  5
492C
  8
MODEL
 10
204.18770180686269
 20
247.28036460266091
 30
0.0
 40
2.5
 50
270.0
 51
0.0
  0
ARC
  5
492D
  8
MODEL
 10
205.98770180686211
 20
247.28036460266091
 30
0.0
 40
0.7
 50
0.0
 51
90.0
  0
LINE
  5
492E
  8
MODEL
 10
204.7877018068628
 20
437.38036460266102
 30
0.0
 11
204.1877018068628
 21
438.38036460266102
 31
0.0
  0
ARC
  5
492F
  8
MODEL
 10
204.1877018068628
 20
435.8803646026609
 30
0.0
 40
2.5
 50
0.0
 51
90.0
  0
ARC
  5
4930
  8
MODEL
 10
205.98770180686219
 20
435.8803646026609
 30
0.0
 40
0.7
 50
270.0
 51
0.0
  0
LINE
  5
4931
  8
CENTER
 10
216.68770180686269
 20
297.08036460266112
 30
0.0
 11
193.68770180686289
 21
297.08036460266112
 31
0.0
  0
LINE
  5
4932
  8
CENTER
 10
216.68770180686269
 20
386.08036460266112
 30
0.0
 11
193.68770180686289
 21
386.08036460266112
 31
0.0
  0
TEXT
  5
4A08
  8
DIMS
 62
     7
 10
240.93293691503709
 20
433.55658342047519
 30
0.0
 40
5.0
  1
受材：硬質塩ビ樹脂
  0
SOLID
  5
4A09
  8
DIMS
 10
209.3172417851321
 20
409.86365129831728
 30
0.0
 11
205.79968821087689
 21
407.84591462536582
 31
0.0
 12
208.4727026709719
 22
410.89541263737573
 32
0.0
 13
208.4727026709719
 23
410.89541263737573
 33
0.0
1001
ACAD
1000
DSTYLE
1002
{
1070
     5
1000

1070
    40
1040
1.9999999990686841
1002
}
  0
POLYLINE
  5
4A0A
  8
DIMS
 66
     1
 10
0.0
 20
0.0
 30
0.0
1001
ACAD
1000
DSTYLE
1002
{
1070
     5
1000

1070
    40
1040
1.9999999990686841
1002
}
  0
VERTEX
  5
4A95
  8
DIMS
 10
208.89497222805201
 20
410.3795319678465
 30
0.0
  0
VERTEX
  5
4A96
  8
DIMS
 10
235.68293691748181
 20
432.30658342105733
 30
0.0
  0
VERTEX
  5
4A97
  8
DIMS
 10
294.40207061266977
 20
432.30658342105733
 30
0.0
  0
SEQEND
  5
4A98
  8
DIMS
  0
TEXT
  5
4A0B
  8
DIMS
 62
     7
 10
239.13276239754109
 20
458.18296575692898
 30
0.0
 40
5.0
  1
本体：硬質塩ビ樹脂
  0
SOLID
  5
4A0C
  8
DIMS
 10
211.12856628239291
 20
429.62909990563872
 30
0.0
 11
208.00653445152241
 21
427.04117377142211
 31
0.0
 12
210.12048041016749
 22
430.50176287055791
 32
0.0
 13
210.12048041016749
 23
430.50176287055791
 33
0.0
1001
ACAD
1000
DSTYLE
1002
{
1070
     5
1000

1070
    40
1040
1.9999999990686841
1002
}
  0
POLYLINE
  5
4A0D
  8
DIMS
 66
     1
 10
0.0
 20
0.0
 30
0.0
1001
ACAD
1000
DSTYLE
1002
{
1070
     5
1000

1070
    40
1040
1.9999999990686841
1002
}
  0
VERTEX
  5
4A99
  8
DIMS
 10
210.62452334628011
 20
430.06543138809838
 30
0.0
  0
VERTEX
  5
4A9A
  8
DIMS
 10
233.88276239998581
 20
456.93296575751111
 30
0.0
  0
VERTEX
  5
4A9B
  8
DIMS
 10
292.1808338214077
 20
456.93296575751111
 30
0.0
  0
SEQEND
  5
4A9C
  8
DIMS
  0
LINE
  5
4A0E
  8
DIMS
 10
208.63770180628069
 20
441.08036460266112
 30
0.0
 11
231.68770180569859
 21
441.08036460266112
 31
0.0
  0
LINE
  5
4A0F
  8
DIMS
 10
208.6377018062806
 20
242.08036460266109
 30
0.0
 11
231.68770180569851
 21
242.08036460266109
 31
0.0
  0
LINE
  5
4A10
  8
DIMS
 10
229.18770180686269
 20
437.08036460452382
 30
0.0
 11
229.18770180686269
 21
246.0803646007985
 31
0.0
  0
SOLID
  5
4A11
  8
DIMS
 10
228.52103514050651
 20
437.08036460452382
 30
0.0
 11
229.85436847321901
 21
437.08036460452382
 31
0.0
 12
229.18770180686269
 22
441.08036460266112
 32
0.0
 13
229.18770180686269
 23
441.08036460266112
 33
0.0
  0
SOLID
  5
4A12
  8
DIMS
 10
228.52103514050651
 20
246.0803646007985
 30
0.0
 11
229.85436847321901
 21
246.0803646007985
 31
0.0
 12
229.18770180686269
 22
242.08036460266109
 32
0.0
 13
229.18770180686269
 23
242.08036460266109
 33
0.0
  0
INSERT
  5
4A13
  8
0
  2
*U5
 10
0.0
 20
0.0
 30
0.0
  0
LINE
  5
4A14
  8
DIMS
 10
201.18770180686289
 20
441.63036310504378
 30
0.0
 11
201.18770180686289
 21
458.88036460149692
 31
0.0
  0
LINE
  5
4A15
  8
DIMS
 10
209.38770180686271
 20
440.33036460207899
 30
0.0
 11
209.38770180686271
 21
458.88036460149692
 31
0.0
  0
LINE
  5
4A16
  8
DIMS
 10
197.18770180872551
 20
456.38036460266107
 30
0.0
 11
193.18770181058821
 21
456.38036460266107
 31
0.0
  0
LINE
  5
4A17
  8
DIMS
 10
213.38770180500009
 20
456.38036460266107
 30
0.0
 11
217.3877018031375
 21
456.38036460266107
 31
0.0
  0
INSERT
  5
4A18
  8
0
  2
*U6
 10
0.0
 20
0.0
 30
0.0
  0
LINE
  5
4A19
  8
DIMS
 10
201.18770180686289
 20
456.38036460266107
 30
0.0
 11
209.38770180686271
 21
456.38036460266107
 31
0.0
  0
SOLID
  5
4A1A
  8
DIMS
 10
197.18770180872551
 20
457.04703126901728
 30
0.0
 11
197.18770180872551
 21
455.71369793630492
 31
0.0
 12
201.18770180686289
 22
456.38036460266107
 32
0.0
 13
201.18770180686289
 23
456.38036460266107
 33
0.0
  0
SOLID
  5
4A1B
  8
DIMS
 10
213.38770180500009
 20
457.04703126901728
 30
0.0
 11
213.38770180500009
 21
455.71369793630492
 31
0.0
 12
209.38770180686271
 22
456.38036460266107
 32
0.0
 13
209.38770180686271
 23
456.38036460266107
 33
0.0
  0
TEXT
  5
4A1C
  8
TITLE
 10
55.33474361074429
 20
77.5
 30
0.0
 40
5.0
  1
H26.4.15：寸法改定
  0
TEXT
  5
4A1D
  8
TITLE
 10
55.33474361074429
 20
87.5
 30
0.0
 40
5.0
  1
H22.11.12：形状変更
  0
TEXT
  5
4A1E
  8
TITLE
 10
346.41666666666657
 20
88.488095238095241
 30
0.0
 40
5.0
  1
Ｈ１２．８．２４
  0
TEXT
  5
4A1F
  8
TITLE
 10
334.41666666666657
 20
112.5
 30
0.0
 40
5.0
  1
４Ｓ－０１１５
  0
TEXT
  5
4A20
  8
TITLE
 10
238.75
 20
112.5
 30
0.0
 40
5.0
  1
ＹＭＰＶＣ－２００
  0
TEXT
  5
4A21
  8
TITLE
 10
58.999999999999993
 20
112.5
 30
0.0
 40
5.0
  1
ストレッチャー摺り
  0
LINE
  5
4A22
  8
DEFPOINTS
 10
0.0
 20
0.0
 30
0.0
 11
420.0
 21
0.0
 31
0.0
  0
LINE
  5
4A23
  8
DEFPOINTS
 10
420.0
 20
0.0
 30
0.0
 11
420.0
 21
594.0
 31
0.0
  0
LINE
  5
4A24
  8
DEFPOINTS
 10
420.0
 20
594.0
 30
0.0
 11
0.0
 21
594.0
 31
0.0
  0
LINE
  5
4A25
  8
DEFPOINTS
 10
0.0
 20
594.0
 30
0.0
 11
0.0
 21
0.0
 31
0.0
  0
TEXT
  5
4A26
  8
TITLE
 10
244.08333333333329
 20
127.3509941314133
 30
0.0
 40
5.0
  1
タ    イ    プ
  0
TEXT
  5
4A27
  8
TITLE
 10
282.37330376043269
 20
97.657592785082656
 30
0.0
 40
5.0
  1
仕上
  0
TEXT
  5
4A28
  8
TITLE
 10
221.8733037604328
 20
97.657592785082656
 30
0.0
 40
5.0
  1
縮尺
  0
TEXT
  5
4A29
  8
TITLE
 10
334.25
 20
127.3509941314133
 30
0.0
 40
5.0
  1
図  面  番  号
  0
TEXT
  5
4A2A
  8
TITLE
 10
341.46854185567088
 20
97.657592785082656
 30
0.0
 40
5.0
  1
日付
  0
TEXT
  5
4A2B
  8
TITLE
 10
154.58333333333329
 20
127.3509941314133
 30
0.0
 40
5.0
  1
群          別
  0
TEXT
  5
4A2C
  8
TITLE
 10
133.9745864531975
 20
95.874799835220045
 30
0.0
 40
5.0
  1
材質
  0
TEXT
  5
4A2D
  8
TITLE
 10
134.11744359605461
 20
82.541466501886717
 30
0.0
 40
5.0
  1
規格
  0
TEXT
  5
4A2E
  8
TITLE
 10
133.9745864531975
 20
69.20813316855336
 30
0.0
 40
5.0
  1
重量
  0
TEXT
  5
4A2F
  8
TITLE
 10
46.446965165067787
 20
77.354806053497853
 30
0.0
 40
4.0
  1
2
  0
TEXT
  5
4A30
  8
TITLE
 10
46.504290810808662
 20
87.354806053497853
 30
0.0
 40
4.0
  1
1
  0
TEXT
  5
4A31
  8
TITLE
 10
46.446965165067787
 20
67.354806053497882
 30
0.0
 40
4.0
  1
3
  0
LINE
  5
4A32
  8
TITLE
 10
48.75
 20
94.0
 30
0.0
 11
44.419872981077781
 21
86.5
 31
0.0
  0
LINE
  5
4A33
  8
TITLE
 10
44.419872981077781
 20
86.5
 30
0.0
 11
53.080127018922163
 21
86.5
 31
0.0
  0
LINE
  5
4A34
  8
TITLE
 10
53.080127018922163
 20
86.5
 30
0.0
 11
48.75
 21
94.0
 31
0.0
  0
LINE
  5
4A35
  8
TITLE
 10
48.75
 20
74.0
 30
0.0
 11
44.419872981077781
 21
66.5
 31
0.0
  0
LINE
  5
4A36
  8
TITLE
 10
44.419872981077781
 20
66.5
 30
0.0
 11
53.080127018922163
 21
66.5
 31
0.0
  0
LINE
  5
4A37
  8
TITLE
 10
53.080127018922163
 20
66.5
 30
0.0
 11
48.75
 21
74.0
 31
0.0
  0
LINE
  5
4A38
  8
TITLE
 10
48.75
 20
84.0
 30
0.0
 11
44.419872981077781
 21
76.5
 31
0.0
  0
LINE
  5
4A39
  8
TITLE
 10
44.419872981077781
 20
76.5
 30
0.0
 11
53.080127018922163
 21
76.5
 31
0.0
  0
LINE
  5
4A3A
  8
TITLE
 10
53.080127018922163
 20
76.5
 30
0.0
 11
48.75
 21
84.0
 31
0.0
  0
TEXT
  5
4A3B
  8
TITLE
 10
42.668943253838158
 20
57.478712299588317
 30
0.0
 40
5.0
  1
特記事項
  0
TEXT
  5
4A3C
  8
TITLE
 10
64.833333333333329
 20
127.3509941314132
 30
0.0
 40
5.0
  1
品          名
  0
TEXT
  5
4A3D
  8
TITLE
 10
64.666666666666643
 20
97.350994131413231
 30
0.0
 40
5.0
  1
経          歴
  0
LINE
  5
4A3E
  8
TITLE
 10
40.0
 20
25.25
 30
0.0
 11
399.5
 21
25.25
 31
0.0
  0
LINE
  5
4A3F
  8
TITLE
 10
399.5
 20
25.25
 30
0.0
 11
399.5
 21
568.74999999999977
 31
0.0
  0
LINE
  5
4A40
  8
TITLE
 10
399.5
 20
568.74999999999977
 30
0.0
 11
40.0
 21
568.74999999999977
 31
0.0
  0
LINE
  5
4A41
  8
TITLE
 10
40.0
 20
568.74999999999977
 30
0.0
 11
40.0
 21
25.25
 31
0.0
  0
ENDSEC
  0
EOF
