  0
SECTION
  2
HEADER
  9
$ACADVER
  1
AC1009
  9
$INSBASE
 10
0.0
 20
0.0
 30
0.0
  9
$EXTMIN
 10
-0.0064049753888185
 20
-0.0045286792474144
 30
-0.0000000000112498
  9
$EXTMAX
 10
210.01922954570119
 20
297.00453282854272
 30
0.0000000000002956
  9
$LIMMIN
 10
0.0
 20
0.0
  9
$LIMMAX
 10
420.0
 20
297.0
  9
$ORTHOMODE
 70
     1
  9
$REGENMODE
 70
     1
  9
$FILLMODE
 70
     1
  9
$QTEXTMODE
 70
     0
  9
$MIRRTEXT
 70
     1
  9
$DRAGMODE
 70
     2
  9
$LTSCALE
 40
0.3
  9
$OSMODE
 70
   167
  9
$ATTMODE
 70
     1
  9
$TEXTSIZE
 40
2.5
  9
$TRACEWID
 40
1.0
  9
$TEXTSTYLE
  7
STANDARD
  9
$CLAYER
  8
0
  9
$CELTYPE
  6
BYLAYER
  9
$CECOLOR
 62
   256
  9
$DIMSCALE
 40
0.0
  9
$DIMASZ
 40
2.0
  9
$DIMEXO
 40
1.25
  9
$DIMDLI
 40
7.5
  9
$DIMRND
 40
0.0
  9
$DIMDLE
 40
0.0
  9
$DIMEXE
 40
1.25
  9
$DIMTP
 40
0.0
  9
$DIMTM
 40
0.0
  9
$DIMTXT
 40
2.5
  9
$DIMCEN
 40
0.0
  9
$DIMTSZ
 40
0.0
  9
$DIMTOL
 70
     0
  9
$DIMLIM
 70
     0
  9
$DIMTIH
 70
     0
  9
$DIMTOH
 70
     0
  9
$DIMSE1
 70
     0
  9
$DIMSE2
 70
     0
  9
$DIMTAD
 70
     1
  9
$DIMZIN
 70
     8
  9
$DIMBLK
  1

  9
$DIMASO
 70
     1
  9
$DIMSHO
 70
     1
  9
$DIMPOST
  1

  9
$DIMAPOST
  1

  9
$DIMALT
 70
     0
  9
$DIMALTD
 70
     3
  9
$DIMALTF
 40
0.03937007874016
  9
$DIMLFAC
 40
1.0
  9
$DIMTOFL
 70
     1
  9
$DIMTVP
 40
0.0
  9
$DIMTIX
 70
     0
  9
$DIMSOXD
 70
     0
  9
$DIMSAH
 70
     0
  9
$DIMBLK1
  1

  9
$DIMBLK2
  1

  9
$DIMSTYLE
  2
DIMS
  9
$DIMCLRD
 70
     0
  9
$DIMCLRE
 70
     0
  9
$DIMCLRT
 70
     7
  9
$DIMTFAC
 40
1.0
  9
$DIMGAP
 40
0.625
  9
$LUNITS
 70
     2
  9
$LUPREC
 70
     4
  9
$SKETCHINC
 40
1.0
  9
$FILLETRAD
 40
0.0
  9
$AUNITS
 70
     0
  9
$AUPREC
 70
     0
  9
$MENU
  1
.
  9
$ELEVATION
 40
0.0
  9
$PELEVATION
 40
0.0
  9
$THICKNESS
 40
0.0
  9
$LIMCHECK
 70
     0
  9
$BLIPMODE
 70
     0
  9
$CHAMFERA
 40
10.0
  9
$CHAMFERB
 40
10.0
  9
$SKPOLY
 70
     0
  9
$TDCREATE
 40
2451738.6758981482
  9
$TDUPDATE
 40
2456382.6925193402
  9
$TDINDWG
 40
0.1364230556
  9
$TDUSRTIMER
 40
0.1364224769
  9
$USRTIMER
 70
     1
  9
$ANGBASE
 50
0.0
  9
$ANGDIR
 70
     0
  9
$PDMODE
 70
     0
  9
$PDSIZE
 40
0.0
  9
$PLINEWID
 40
0.0
  9
$COORDS
 70
     0
  9
$SPLFRAME
 70
     0
  9
$SPLINETYPE
 70
     6
  9
$SPLINESEGS
 70
     8
  9
$ATTDIA
 70
     0
  9
$ATTREQ
 70
     1
  9
$HANDLING
 70
     1
  9
$HANDSEED
  5
3ED4
  9
$SURFTAB1
 70
     6
  9
$SURFTAB2
 70
     6
  9
$SURFTYPE
 70
     6
  9
$SURFU
 70
     6
  9
$SURFV
 70
     6
  9
$UCSNAME
  2

  9
$UCSORG
 10
0.0
 20
0.0
 30
0.0
  9
$UCSXDIR
 10
1.0
 20
0.0
 30
0.0
  9
$UCSYDIR
 10
0.0
 20
1.0
 30
0.0
  9
$PUCSNAME
  2

  9
$PUCSORG
 10
0.0
 20
0.0
 30
0.0
  9
$PUCSXDIR
 10
1.0
 20
0.0
 30
0.0
  9
$PUCSYDIR
 10
0.0
 20
1.0
 30
0.0
  9
$USERI1
 70
     0
  9
$USERI2
 70
     0
  9
$USERI3
 70
     0
  9
$USERI4
 70
     0
  9
$USERI5
 70
     0
  9
$USERR1
 40
0.0
  9
$USERR2
 40
0.0
  9
$USERR3
 40
0.0
  9
$USERR4
 40
0.0
  9
$USERR5
 40
0.0
  9
$WORLDVIEW
 70
     1
  9
$SHADEDGE
 70
     3
  9
$SHADEDIF
 70
    70
  9
$TILEMODE
 70
     1
  9
$MAXACTVP
 70
    48
  9
$PLIMCHECK
 70
     0
  9
$PEXTMIN
 10
0.0
 20
0.0
 30
0.0
  9
$PEXTMAX
 10
0.0
 20
0.0
 30
0.0
  9
$PLIMMIN
 10
0.0
 20
0.0
  9
$PLIMMAX
 10
12.0
 20
9.0
  9
$UNITMODE
 70
     0
  9
$VISRETAIN
 70
     1
  9
$PLINEGEN
 70
     0
  9
$PSLTSCALE
 70
     0
  0
ENDSEC
  0
SECTION
  2
TABLES
  0
TABLE
  2
VPORT
 70
     1
  0
VPORT
  2
*ACTIVE
 70
     0
 10
0.0
 20
0.0
 11
1.0
 21
1.0
 12
105.0064122851562
 22
148.5000020746476
 13
0.0
 23
0.0
 14
10.0
 24
10.0
 15
10.0
 25
10.0
 16
0.0
 26
0.0
 36
1.0
 17
0.0
 27
0.0
 37
0.0
 40
300.06575853874511
 41
1.7199312714776629
 42
50.0
 43
0.0
 44
0.0
 50
0.0
 51
0.0
 71
     0
 72
   100
 73
     1
 74
     3
 75
     0
 76
     0
 77
     0
 78
     0
  0
ENDTAB
  0
TABLE
  2
LTYPE
 70
     3
  0
LTYPE
  2
CONTINUOUS
 70
     0
  3
Solid line
 72
    65
 73
     0
 40
0.0
  0
LTYPE
  2
CENTER2
 70
     0
  3
Center (.5x) ___ _ ___ _ ___ _ ___ _ ___ _ ___
 72
    65
 73
     4
 40
28.574999999999999
 49
19.050000000000001
 49
-3.174999999999998
 49
3.174999999999998
 49
-3.174999999999998
  0
LTYPE
  2
HIDDEN2
 70
     0
  3
Hidden (.5x) _ _ _ _ _ _ _ _ _ _ _ _ _ _ _ _ _
 72
    65
 73
     2
 40
4.7624999999999993
 49
3.174999999999998
 49
-1.587499999999999
  0
ENDTAB
  0
TABLE
  2
LAYER
 70
    10
  0
LAYER
  2
0
 70
     0
 62
     7
  6
CONTINUOUS
  0
LAYER
  2
MODEL
 70
     0
 62
     7
  6
CONTINUOUS
  0
LAYER
  2
DIMS
 70
     0
 62
     1
  6
CONTINUOUS
  0
LAYER
  2
CENTER
 70
     0
 62
     6
  6
CENTER2
  0
LAYER
  2
DEFPOINTS
 70
     0
 62
     4
  6
CONTINUOUS
  0
LAYER
  2
TITLE
 70
     0
 62
     7
  6
CONTINUOUS
  0
LAYER
  2
HIDDEN
 70
     0
 62
     9
  6
HIDDEN2
  0
LAYER
  2
GENKYO
 70
     0
 62
     3
  6
CONTINUOUS
  0
LAYER
  2
BIS
 70
     0
 62
     7
  6
CONTINUOUS
  0
LAYER
  2
TEXT
 70
     0
 62
     7
  6
CONTINUOUS
  0
ENDTAB
  0
TABLE
  2
STYLE
 70
     3
  0
STYLE
  2
STANDARD
 70
     0
 40
0.0
 41
1.0
 50
0.0
 71
     0
 42
2.5
  3
romans.shx
  4
bigfont.shx
  0
STYLE
  2
DIMS
 70
     0
 40
0.0
 41
0.75
 50
0.0
 71
     0
 42
2.5
  3
romans.shx
  4
bigfont.shx
  0
ENDTAB
  0
TABLE
  2
VIEW
 70
     1
  0
VIEW
  2
PRINT
 70
     1
 40
128.5
 10
98.875866602002347
 20
145.24226553880581
 41
88.0
 11
0.0
 21
0.0
 31
1.0
 12
0.0
 22
0.0
 32
0.0
 42
50.0
 43
0.0
 44
0.0
 50
0.0
 71
     0
  0
ENDTAB
  0
TABLE
  2
UCS
 70
     0
  0
ENDTAB
  0
TABLE
  2
APPID
 70
     6
  0
APPID
  2
ACAD
 70
     0
  0
APPID
  2
ACADANNOTATIVE
 70
     0
  0
APPID
  2
ACAD_MLEADERVER
 70
     0
  0
APPID
  2
ACAECLAYERSTANDARD
 70
     0
  0
APPID
  2
ACAD_EXEMPT_FROM_CAD_STANDARDS
 70
     0
  0
APPID
  2
ACAD_PSEXT
 70
     0
  0
ENDTAB
  0
TABLE
  2
DIMSTYLE
 70
     3
  0
DIMSTYLE
  2
STANDARD
 70
     0
  3

  4

  5

  6

  7

 40
1.0
 41
0.18
 42
0.0625
 43
0.38
 44
0.18
 45
0.0
 46
0.0
 47
0.0
 48
0.0
140
0.18
141
0.09
142
0.0
143
25.399999999999999
144
1.0
145
0.0
146
1.0
147
0.09
 71
     0
 72
     0
 73
     1
 74
     1
 75
     0
 76
     0
 77
     0
 78
     0
170
     0
171
     2
172
     0
173
     0
174
     0
175
     0
176
     0
177
     0
178
     0
  0
DIMSTYLE
  2
DIMS
 70
     0
  3

  4

  5

  6

  7

 40
0.0
 41
2.0
 42
1.25
 43
7.5
 44
1.25
 45
0.0
 46
0.0
 47
0.0
 48
0.0
140
2.5
141
0.0
142
0.0
143
0.03937007874016
144
1.0
145
0.0
146
1.0
147
0.625
 71
     0
 72
     0
 73
     0
 74
     0
 75
     0
 76
     0
 77
     1
 78
     8
170
     0
171
     3
172
     1
173
     0
174
     0
175
     0
176
     0
177
     0
178
     7
  0
ENDTAB
  0
ENDSEC
  0
SECTION
  2
BLOCKS
  0
BLOCK
  8
0
  2
$MODEL_SPACE
 70
     0
 10
0.0
 20
0.0
 30
0.0
  3
$MODEL_SPACE
  1

  0
ENDBLK
  5
3D62
  8
0
  0
BLOCK
 67
     1
  8
0
  2
$PAPER_SPACE
 70
     0
 10
0.0
 20
0.0
 30
0.0
  3
$PAPER_SPACE
  1

  0
ENDBLK
  5
3D5E
 67
     1
  8
0
  0
BLOCK
  8
0
  2
*U4
 70
     1
 10
0.0
 20
0.0
 30
0.0
  3
*U4
  1

  0
TEXT
  5
3ED1
  8
TITLE
 10
108.3333333333333
 20
6.8464285714285751
 30
0.0
 40
2.5
  1
Ｈ１２．７．１３
  0
ENDBLK
  5
3ED3
  8
0
  0
ENDSEC
  0
SECTION
  2
ENTITIES
  0
LINE
  5
1DAA
  8
TITLE
 10
20.0
 20
67.5
 30
0.0
 11
199.75
 21
67.5
 31
0.0
  0
LINE
  5
1DE8
  8
TITLE
 10
64.875
 20
45.83333333333325
 30
0.0
 11
109.875
 21
45.83333333333325
 31
0.0
  0
LINE
  5
1DE9
  8
TITLE
 10
64.875
 20
39.166666666666629
 30
0.0
 11
109.875
 21
39.166666666666629
 31
0.0
  0
LINE
  5
1DEA
  8
TITLE
 10
20.0
 20
32.5
 30
0.0
 11
199.75
 21
32.5
 31
0.0
  0
LINE
  5
1DEB
  8
TITLE
 10
20.0
 20
52.5
 30
0.0
 11
199.75
 21
52.5
 31
0.0
  0
LINE
  5
1DEC
  8
TITLE
 10
20.0
 20
62.5
 30
0.0
 11
199.75
 21
62.5
 31
0.0
  0
LINE
  5
1DED
  8
TITLE
 10
20.0
 20
47.5
 30
0.0
 11
64.875
 21
47.5
 31
0.0
  0
LINE
  5
1DEE
  8
TITLE
 10
20.0
 20
42.5
 30
0.0
 11
64.875
 21
42.5
 31
0.0
  0
LINE
  5
1DEF
  8
TITLE
 10
20.0
 20
47.5
 30
0.0
 11
64.875
 21
47.5
 31
0.0
  0
LINE
  5
1DF0
  8
TITLE
 10
20.0
 20
37.5
 30
0.0
 11
64.875
 21
37.5
 31
0.0
  0
LINE
  5
1DF1
  8
TITLE
 10
64.875
 20
67.5
 30
0.0
 11
64.875
 21
32.5
 31
0.0
  0
LINE
  5
1E1C
  8
TITLE
 10
164.366734627516
 20
39.662117833854708
 30
0.0
 11
164.5599050450196
 21
39.855288251358161
 31
0.0
  0
LINE
  5
1E1D
  8
TITLE
 10
164.2889598913107
 20
39.497058225001872
 30
0.0
 11
164.64718991766671
 21
39.855288251358161
 31
0.0
  0
LINE
  5
1E1E
  8
TITLE
 10
163.87248402612161
 20
37.771309270119673
 30
0.0
 11
164.44637181243289
 21
38.345197056431289
 31
0.0
  0
LINE
  5
1E1F
  8
TITLE
 10
163.9597688987682
 20
37.771309270119673
 30
0.0
 11
164.53365668507971
 21
38.345197056431289
 31
0.0
  0
LINE
  5
1E20
  8
TITLE
 10
164.04705377141539
 20
37.771309270119673
 30
0.0
 11
164.62094155772729
 21
38.345197056431289
 31
0.0
  0
LINE
  5
1E21
  8
TITLE
 10
163.9025560849272
 20
36.753962857166933
 30
0.0
 11
164.42427223195821
 21
37.27567900419411
 31
0.0
  0
LINE
  5
1E22
  8
TITLE
 10
163.98984095757481
 20
36.753962857166933
 30
0.0
 11
164.51155710460529
 21
37.27567900419411
 31
0.0
  0
LINE
  5
1E23
  8
TITLE
 10
164.0771258302216
 20
36.753962857166933
 30
0.0
 11
164.5988419772525
 21
37.27567900419411
 31
0.0
  0
LINE
  5
1E24
  8
TITLE
 10
163.69791428082681
 20
37.771309270119673
 30
0.0
 11
164.47751313027439
 21
38.550908119567453
 31
0.0
  0
LINE
  5
1E25
  8
TITLE
 10
163.78519915347439
 20
37.771309270119673
 30
0.0
 11
164.45565693613301
 21
38.441767052771191
 31
0.0
  0
LINE
  5
1E26
  8
TITLE
 10
164.13433864406301
 20
37.771309270119673
 30
0.0
 11
164.7082264303744
 21
38.345197056431289
 31
0.0
  0
LINE
  5
1E27
  8
TITLE
 10
164.22162351670971
 20
37.771309270119673
 30
0.0
 11
164.7955113030211
 21
38.345197056431289
 31
0.0
  0
LINE
  5
1E28
  8
TITLE
 10
164.30890838935741
 20
37.771309270119673
 30
0.0
 11
164.88279617566869
 21
38.345197056431289
 31
0.0
  0
LINE
  5
1E29
  8
TITLE
 10
164.16441070286871
 20
36.753962857166933
 30
0.0
 11
164.68612684989239
 21
37.27567900419411
 31
0.0
  0
LINE
  5
1E2A
  8
TITLE
 10
164.2516955755159
 20
36.753962857166933
 30
0.0
 11
164.77341172253941
 21
37.27567900419411
 31
0.0
  0
LINE
  5
1E2B
  8
TITLE
 10
164.338980448163
 20
36.753962857166933
 30
0.0
 11
164.86069659518671
 21
37.27567900419411
 31
0.0
  0
LINE
  5
1E2C
  8
TITLE
 10
163.74945170916089
 20
35.029730773762481
 30
0.0
 11
164.38052671146261
 21
35.66080577606796
 31
0.0
  0
LINE
  5
1E2D
  8
TITLE
 10
163.9822080056087
 20
34.826062706977837
 30
0.0
 11
164.54817926948411
 21
35.392033970853859
 31
0.0
  0
LINE
  5
1E2E
  8
TITLE
 10
164.03195971082781
 20
34.788529539550268
 30
0.0
 11
164.58906959329619
 21
35.345639422015097
 31
0.0
  0
LINE
  5
1E2F
  8
TITLE
 10
164.0827993326306
 20
34.752084288709632
 30
0.0
 11
164.63230346866251
 21
35.301588424737808
 31
0.0
  0
LINE
  5
1E30
  8
TITLE
 10
163.88592616740971
 20
34.90435061407323
 30
0.0
 11
164.4735467605496
 21
35.491971207213851
 31
0.0
  0
LINE
  5
1E31
  8
TITLE
 10
163.93353315712369
 20
34.86467273113692
 30
0.0
 11
164.5096564882478
 21
35.440796062264212
 31
0.0
  0
LINE
  5
1E32
  8
TITLE
 10
163.79388960876159
 20
34.986883800719852
 30
0.0
 11
164.40886986011941
 21
35.601864052077531
 31
0.0
  0
LINE
  5
1E33
  8
TITLE
 10
163.83938001836259
 20
34.945089337666332
 30
0.0
 11
164.43991920054981
 21
35.545628519861111
 31
0.0
  0
LINE
  5
1E34
  8
TITLE
 10
164.13474009566511
 20
34.716740179100498
 30
0.0
 11
164.6778773617971
 21
35.259877445225356
 31
0.0
  0
LINE
  5
1E35
  8
TITLE
 10
164.1877975154903
 20
34.682512726274808
 30
0.0
 11
164.72580804164591
 21
35.220523252430212
 31
0.0
  0
LINE
  5
1E36
  8
TITLE
 10
164.24198955075011
 20
34.649419888890748
 30
0.0
 11
164.77613331764081
 21
35.183563655778023
 31
0.0
  0
LINE
  5
1E37
  8
TITLE
 10
164.29733678512139
 20
34.617482250611381
 30
0.0
 11
164.82891374684999
 21
35.149059212343801
 31
0.0
  0
LINE
  5
1E38
  8
TITLE
 10
164.35386264349609
 20
34.586723236342891
 30
0.0
 11
164.8842354959979
 21
35.11709608884054
 31
0.0
  0
LINE
  5
1E39
  8
TITLE
 10
164.33393915069331
 20
35.788787960585871
 30
0.0
 11
164.82956941661541
 21
36.284418226511548
 31
0.0
  0
LINE
  5
1E3A
  8
TITLE
 10
163.61062940817999
 20
37.771309270119673
 30
0.0
 11
164.49936932442321
 21
38.660049186359288
 31
0.0
  0
LINE
  5
1E3B
  8
TITLE
 10
163.46797286119951
 20
35.359246034324322
 30
0.0
 11
164.39314505338689
 21
36.284418226511548
 31
0.0
  0
LINE
  5
1E3C
  8
TITLE
 10
163.5049782626142
 20
35.308966563095851
 30
0.0
 11
164.48042992603399
 21
36.284418226511548
 31
0.0
  0
LINE
  5
1E3D
  8
TITLE
 10
163.54306563805761
 20
35.259769065887902
 30
0.0
 11
164.56771479868121
 21
36.284418226511548
 31
0.0
  0
LINE
  5
1E3E
  8
TITLE
 10
163.5822249979251
 20
35.211643553111912
 30
0.0
 11
164.65499967132109
 21
36.284418226511548
 31
0.0
  0
LINE
  5
1E3F
  8
TITLE
 10
163.62244836990789
 20
35.164582052454882
 30
0.0
 11
164.74228454396811
 21
36.284418226511548
 31
0.0
  0
LINE
  5
1E40
  8
TITLE
 10
163.3487747902459
 20
37.771309270119673
 30
0.0
 11
164.99218062879021
 21
39.414715108664723
 31
0.0
  0
LINE
  5
1E41
  8
TITLE
 10
163.4360596628926
 20
37.771309270119673
 30
0.0
 11
165.0794655014374
 21
39.414715108664723
 31
0.0
  0
LINE
  5
1E42
  8
TITLE
 10
163.52334453554019
 20
37.771309270119673
 30
0.0
 11
165.16675037408459
 21
39.414715108664723
 31
0.0
  0
LINE
  5
1E43
  8
TITLE
 10
163.6921557580585
 20
38.463829728521318
 30
0.0
 11
165.08361428089569
 21
39.855288251358161
 31
0.0
  0
LINE
  5
1E44
  8
TITLE
 10
163.67029956391701
 20
38.354688661725277
 30
0.0
 11
165.16383407136121
 21
39.848223169176663
 31
0.0
  0
LINE
  5
1E45
  8
TITLE
 10
163.73586814635561
 20
38.682111862105899
 30
0.0
 11
164.9090445356087
 21
39.855288251358161
 31
0.0
  0
LINE
  5
1E46
  8
TITLE
 10
163.71401195220679
 20
38.572970795313161
 30
0.0
 11
164.99632940824861
 21
39.855288251358161
 31
0.0
  0
LINE
  5
1E47
  8
TITLE
 10
162.1568586319986
 20
36.753962857166933
 30
0.0
 11
165.08605933516259
 21
39.68316356032723
 31
0.0
  0
LINE
  5
1E48
  8
TITLE
 10
162.24414350464571
 20
36.753962857166933
 30
0.0
 11
165.00828459895681
 21
39.518103951478452
 31
0.0
  0
LINE
  5
1E49
  8
TITLE
 10
163.7290413364826
 20
38.762569924883337
 30
0.0
 11
164.82175966296111
 21
39.855288251358161
 31
0.0
  0
LINE
  5
1E4A
  8
TITLE
 10
163.64175646383541
 20
38.762569924883337
 30
0.0
 11
164.7344747903139
 21
39.855288251358161
 31
0.0
  0
LINE
  5
1E4B
  8
TITLE
 10
109.875
 20
42.5
 30
0.0
 11
199.75
 21
42.5
 31
0.0
  0
LINE
  5
1E4C
  8
TITLE
 10
131.0641219108829
 20
34.290664364088229
 30
0.0
 11
132.12154666370591
 21
35.348089116911297
 31
0.0
  0
LINE
  5
1E4D
  8
TITLE
 10
131.15140678353009
 20
34.290664364088229
 30
0.0
 11
132.21053226598769
 21
35.34978984654618
 31
0.0
  0
LINE
  5
1E4E
  8
TITLE
 10
131.2386916561772
 20
34.290664364088229
 30
0.0
 11
132.3046877111442
 21
35.356660419062912
 31
0.0
  0
LINE
  5
1E4F
  8
TITLE
 10
131.32597652881711
 20
34.290664364088229
 30
0.0
 11
132.40519659512481
 21
35.369884430395807
 31
0.0
  0
LINE
  5
1E50
  8
TITLE
 10
131.4132614014643
 20
34.290664364088229
 30
0.0
 11
132.5137681585488
 21
35.391171121172867
 31
0.0
  0
LINE
  5
1E51
  8
TITLE
 10
131.5005462741114
 20
34.290664364088229
 30
0.0
 11
132.6332124734231
 21
35.423330563399993
 31
0.0
  0
LINE
  5
1E52
  8
TITLE
 10
130.71498242029429
 20
34.290664364088229
 30
0.0
 11
131.77240717311719
 21
35.348089116911297
 31
0.0
  0
LINE
  5
1E53
  8
TITLE
 10
130.80226729294139
 20
34.290664364088229
 30
0.0
 11
131.8596920457644
 21
35.348089116911297
 31
0.0
  0
LINE
  5
1E54
  8
TITLE
 10
130.88955216558861
 20
34.290664364088229
 30
0.0
 11
131.94697691841151
 21
35.348089116911297
 31
0.0
  0
LINE
  5
1E55
  8
TITLE
 10
130.540412675
 20
34.290664364088229
 30
0.0
 11
131.5978374278229
 21
35.348089116911297
 31
0.0
  0
LINE
  5
1E56
  8
TITLE
 10
130.6276975476471
 20
34.290664364088229
 30
0.0
 11
131.68512230047011
 21
35.348089116911297
 31
0.0
  0
LINE
  5
1E57
  8
TITLE
 10
130.97683703823529
 20
34.290664364088229
 30
0.0
 11
132.03426179105921
 21
35.348089116911297
 31
0.0
  0
LINE
  5
1E58
  8
TITLE
 10
131.0117709677242
 20
38.689841925901888
 30
0.0
 11
132.167164226149
 21
39.845235184330811
 31
0.0
  0
LINE
  5
1E59
  8
TITLE
 10
131.09905584037139
 20
38.689841925901888
 30
0.0
 11
132.2544490987961
 21
39.845235184330811
 31
0.0
  0
LINE
  5
1E5A
  8
TITLE
 10
131.1863407130181
 20
38.689841925901888
 30
0.0
 11
132.34173397144369
 21
39.845235184330811
 31
0.0
  0
LINE
  5
1E5B
  8
TITLE
 10
131.27362558566529
 20
38.689841925901888
 30
0.0
 11
132.42901884409051
 21
39.845235184330811
 31
0.0
  0
LINE
  5
1E5C
  8
TITLE
 10
131.3609104583052
 20
38.689841925901888
 30
0.0
 11
132.51630371673801
 21
39.845235184330811
 31
0.0
  0
LINE
  5
1E5D
  8
TITLE
 10
131.4481953309523
 20
38.689841925901888
 30
0.0
 11
132.6035885893848
 21
39.845235184330811
 31
0.0
  0
LINE
  5
1E5E
  8
TITLE
 10
131.53548020359949
 20
38.689841925901888
 30
0.0
 11
132.6908734620319
 21
39.845235184330811
 31
0.0
  0
LINE
  5
1E5F
  8
TITLE
 10
130.9244860950771
 20
38.689841925901888
 30
0.0
 11
132.07987935350221
 21
39.845235184330811
 31
0.0
  0
LINE
  5
1E60
  8
TITLE
 10
129.5928977933286
 20
37.794677987385853
 30
0.0
 11
131.64345499027331
 21
39.845235184330811
 31
0.0
  0
LINE
  5
1E61
  8
TITLE
 10
129.5928977933286
 20
37.707393114738821
 30
0.0
 11
131.7307398629209
 21
39.845235184330811
 31
0.0
  0
LINE
  5
1E62
  8
TITLE
 10
129.5928977933286
 20
37.620108242091533
 30
0.0
 11
131.8180247355676
 21
39.845235184330811
 31
0.0
  0
LINE
  5
1E63
  8
TITLE
 10
129.5928977933286
 20
37.532823369444259
 30
0.0
 11
131.90530960820789
 21
39.845235184330811
 31
0.0
  0
LINE
  5
1E64
  8
TITLE
 10
129.5928977933286
 20
37.44553849680085
 30
0.0
 11
131.9925944808551
 21
39.845235184330811
 31
0.0
  0
LINE
  5
1E66
  8
TITLE
 10
109.875
 20
67.5
 30
0.0
 11
109.875
 21
32.5
 31
0.0
  0
LINE
  5
1E67
  8
TITLE
 10
123.9605466579464
 20
33.503621186252651
 30
0.0
 11
127.10096782561681
 21
36.644042353919083
 31
0.0
  0
LINE
  5
1E68
  8
TITLE
 10
123.857390997995
 20
33.487750398940882
 30
0.0
 11
127.1168386129297
 21
36.747198013875511
 31
0.0
  0
LINE
  5
1E69
  8
TITLE
 10
123.7574626493615
 20
33.475106922954751
 30
0.0
 11
127.12948208891559
 21
36.847126362508789
 31
0.0
  0
LINE
  5
1E6A
  8
TITLE
 10
121.027357852367
 20
33.450833178000607
 30
0.0
 11
123.5994184705409
 21
36.022893796174799
 31
0.0
  0
LINE
  5
1E6B
  8
TITLE
 10
120.9400729797203
 20
33.450833178000607
 30
0.0
 11
123.49378910120321
 21
36.00454929948355
 31
0.0
  0
LINE
  5
1E6C
  8
TITLE
 10
120.8527881070727
 20
33.450833178000607
 30
0.0
 11
123.3975748664184
 21
35.99561993734585
 31
0.0
  0
LINE
  5
1E6D
  8
TITLE
 10
120.76550323442601
 20
33.450833178000501
 30
0.0
 11
123.30849127268991
 21
35.99382121626514
 31
0.0
  0
LINE
  5
1E6E
  8
TITLE
 10
120.6782183617788
 20
33.450833178000607
 30
0.0
 11
123.2251298298502
 21
35.997744646072171
 31
0.0
  0
LINE
  5
1E6F
  8
TITLE
 10
120.5909334891316
 20
33.450833178000607
 30
0.0
 11
123.1465504968819
 21
36.00645018575073
 31
0.0
  0
LINE
  5
1E70
  8
TITLE
 10
120.503648616484
 20
33.450833178000607
 30
0.0
 11
123.0720905350867
 21
36.019275096603337
 31
0.0
  0
LINE
  5
1E71
  8
TITLE
 10
121.11464272501409
 20
33.450833178000948
 30
0.0
 11
123.7186552097546
 21
36.054845662740611
 31
0.0
  0
LINE
  5
1E72
  8
TITLE
 10
120.4163637438228
 20
33.450833178000948
 30
0.0
 11
123.00126389369601
 21
36.035733327855723
 31
0.0
  0
LINE
  5
1E73
  8
TITLE
 10
120.329078871197
 20
33.450833178000948
 30
0.0
 11
122.93370364306701
 21
36.055457949870181
 31
0.0
  0
LINE
  5
1E74
  8
TITLE
 10
120.2417939985498
 20
33.450833178000607
 30
0.0
 11
122.8691268949387
 21
36.078166074389173
 31
0.0
  0
LINE
  5
1E75
  8
TITLE
 10
120.15450912590219
 20
33.450833178000607
 30
0.0
 11
122.8073123541471
 21
36.103636406244853
 31
0.0
  0
LINE
  5
1E76
  8
TITLE
 10
120.0672242532564
 20
33.450833178000607
 30
0.0
 11
122.74808539198639
 21
36.131694316731227
 31
0.0
  0
LINE
  5
1E77
  8
TITLE
 10
119.9799393806088
 20
33.450833178000607
 30
0.0
 11
122.6913078215825
 21
36.162201618974557
 31
0.0
  0
LINE
  5
1E78
  8
TITLE
 10
119.8926545079612
 20
33.450833178000607
 30
0.0
 11
122.6368707391243
 21
36.195049409163751
 31
0.0
  0
LINE
  5
1E79
  8
TITLE
 10
119.8053696353136
 20
33.450833178000607
 30
0.0
 11
122.5846894423362
 21
36.230152985022762
 31
0.0
  0
LINE
  5
1E7A
  8
TITLE
 10
119.6307998900197
 20
33.450833178000607
 30
0.0
 11
122.4868557481595
 21
36.306889036140092
 31
0.0
  0
LINE
  5
1E7B
  8
TITLE
 10
119.54351501740349
 20
33.450833178000607
 30
0.0
 11
122.44112745603979
 21
36.348445616665117
 31
0.0
  0
LINE
  5
1E7C
  8
TITLE
 10
119.71808476266681
 20
33.450833178000501
 30
0.0
 11
122.53469980975891
 21
36.26744822509194
 31
0.0
  0
LINE
  5
1E7D
  8
TITLE
 10
123.38447913735121
 20
33.451262901534513
 30
0.0
 11
127.1533261103359
 21
37.220109874517213
 31
0.0
  0
LINE
  5
1E7E
  8
TITLE
 10
123.296884098549
 20
33.450952735378792
 30
0.0
 11
127.1536362764918
 21
37.307704913320229
 31
0.0
  0
LINE
  5
1E7F
  8
TITLE
 10
123.211235179192
 20
33.452588688660292
 30
0.0
 11
127.1608025945806
 21
37.402156104049368
 31
0.0
  0
LINE
  5
1E80
  8
TITLE
 10
123.1274103954688
 20
33.456048777583987
 30
0.0
 11
127.1485402342859
 21
37.477178616409113
 31
0.0
  0
LINE
  5
1E81
  8
TITLE
 10
123.0453024283688
 20
33.461225683142857
 30
0.0
 11
127.1433633287279
 21
37.559286583495009
 31
0.0
  0
LINE
  5
1E82
  8
TITLE
 10
122.9648162964986
 20
33.468024423909128
 30
0.0
 11
127.1365645879614
 21
37.63977271537135
 31
0.0
  0
LINE
  5
1E83
  8
TITLE
 10
122.8603401779432
 20
33.450833178000948
 30
0.0
 11
127.1282285247257
 21
37.718721524790233
 31
0.0
  0
LINE
  5
1E84
  8
TITLE
 10
123.56608722700911
 20
33.458301245895427
 30
0.0
 11
127.1462877659751
 21
37.038501784862213
 31
0.0
  0
LINE
  5
1E85
  8
TITLE
 10
123.47415987532069
 20
33.453658766853771
 30
0.0
 11
127.1509302450167
 21
37.130429136551697
 31
0.0
  0
LINE
  5
1E86
  8
TITLE
 10
123.66044827911131
 20
33.465377425351448
 30
0.0
 11
127.1392115865192
 21
36.944140732759131
 31
0.0
  0
LINE
  5
1E87
  8
TITLE
 10
122.7730553052956
 20
33.450833178000607
 30
0.0
 11
127.1184306994864
 21
37.79620857219129
 31
0.0
  0
LINE
  5
1E88
  8
TITLE
 10
122.6857704326453
 20
33.450833178000607
 30
0.0
 11
127.1072389624087
 21
37.872301707764223
 31
0.0
  0
LINE
  5
1E89
  8
TITLE
 10
122.59848556000181
 20
33.450833178000607
 30
0.0
 11
127.0947144793162
 21
37.947062097314983
 31
0.0
  0
LINE
  5
1E8A
  8
TITLE
 10
122.5112006873546
 20
33.450833178000607
 30
0.0
 11
127.0809125858309
 21
38.020545076476893
 31
0.0
  0
LINE
  5
1E8B
  8
TITLE
 10
122.4239158147074
 20
33.450833178000607
 30
0.0
 11
127.06588350361601
 21
38.092800866909563
 31
0.0
  0
LINE
  5
1E8C
  8
TITLE
 10
122.33663094205799
 20
33.450833178000607
 30
0.0
 11
127.04967294494639
 21
38.163875180883338
 31
0.0
  0
LINE
  5
1E8D
  8
TITLE
 10
122.24934606941039
 20
33.450833178000607
 30
0.0
 11
127.0323226261435
 21
38.233809734727849
 31
0.0
  0
LINE
  5
1E8E
  8
TITLE
 10
122.16206119677319
 20
33.450833178000607
 30
0.0
 11
127.0138707060769
 21
38.302642687304122
 31
0.0
  0
LINE
  5
1E8F
  8
TITLE
 10
122.07477632412559
 20
33.450833178000607
 30
0.0
 11
126.9943521626069
 21
38.370409016481851
 31
0.0
  0
LINE
  5
1E90
  8
TITLE
 10
121.9874914514785
 20
33.450833178000948
 30
0.0
 11
126.973799117336
 21
38.437140843857946
 31
0.0
  0
LINE
  5
1E91
  8
TITLE
 10
121.9002065788322
 20
33.450833178000607
 30
0.0
 11
126.9365361668488
 21
38.487162766017718
 31
0.0
  0
LINE
  5
1E92
  8
TITLE
 10
121.8129217061846
 20
33.450833178000607
 30
0.0
 11
126.84925129420211
 21
38.487162766017718
 31
0.0
  0
LINE
  5
1E93
  8
TITLE
 10
121.725636833537
 20
33.450833178000948
 30
0.0
 11
126.7619664215549
 21
38.487162766017491
 31
0.0
  0
LINE
  5
1E94
  8
TITLE
 10
121.6383519608912
 20
33.450833178000607
 30
0.0
 11
126.6746815489068
 21
38.487162766017718
 31
0.0
  0
LINE
  5
1E95
  8
TITLE
 10
121.28921247032299
 20
33.450833178000607
 30
0.0
 11
124.06602082510059
 21
36.227641532797762
 31
0.0
  0
LINE
  5
1E96
  8
TITLE
 10
121.5510670882431
 20
33.450833178000607
 30
0.0
 11
126.5873966762605
 21
38.487162766017718
 31
0.0
  0
LINE
  5
1E97
  8
TITLE
 10
121.4637822155964
 20
33.450833178000607
 30
0.0
 11
126.500111803612
 21
38.487162766017491
 31
0.0
  0
LINE
  5
1E98
  8
TITLE
 10
121.3764973429488
 20
33.450833178000607
 30
0.0
 11
126.41282693096581
 21
38.487162766017718
 31
0.0
  0
LINE
  5
1E99
  8
TITLE
 10
121.20192759766221
 20
33.450833178000948
 30
0.0
 11
123.8610965150265
 21
36.110002095365758
 31
0.0
  0
LINE
  5
1E9A
  8
TITLE
 10
119.55935903193949
 20
36.60893260782882
 30
0.0
 11
124.0545055446687
 21
41.10407912057223
 31
0.0
  0
LINE
  5
1E9B
  8
TITLE
 10
119.54685359953319
 20
36.6837120480767
 30
0.0
 11
123.9672206720283
 21
41.10407912057223
 31
0.0
  0
LINE
  5
1E9C
  8
TITLE
 10
119.6401178100717
 20
36.253267022746172
 30
0.0
 11
124.49092990791171
 21
41.10407912057223
 31
0.0
  0
LINE
  5
1E9D
  8
TITLE
 10
119.6216817176951
 20
36.32211580301589
 30
0.0
 11
124.4036450352646
 21
41.10407912057223
 31
0.0
  0
LINE
  5
1E9E
  8
TITLE
 10
119.6043477600806
 20
36.392066718045392
 30
0.0
 11
124.3163601626206
 21
41.10407912057223
 31
0.0
  0
LINE
  5
1E9F
  8
TITLE
 10
119.58815414519979
 20
36.463157975812251
 30
0.0
 11
124.22907528997391
 21
41.10407912057223
 31
0.0
  0
LINE
  5
1EA0
  8
TITLE
 10
119.5731426444104
 20
36.535431347660051
 30
0.0
 11
124.14179041731541
 21
41.10407912057223
 31
0.0
  0
LINE
  5
1EA1
  8
TITLE
 10
119.5356817625029
 20
36.759825083693961
 30
0.0
 11
123.8799357993812
 21
41.10407912057223
 31
0.0
  0
LINE
  5
1EA2
  8
TITLE
 10
119.52590477776219
 20
36.837332971600169
 30
0.0
 11
123.792650926734
 21
41.10407912057223
 31
0.0
  0
LINE
  5
1EA3
  8
TITLE
 10
119.51759060022459
 20
36.91630366670973
 30
0.0
 11
123.70536605408689
 21
41.10407912057223
 31
0.0
  0
LINE
  5
1EA4
  8
TITLE
 10
119.5108149115576
 20
36.996812850689828
 30
0.0
 11
123.61808118143971
 21
41.10407912057223
 31
0.0
  0
LINE
  5
1EA5
  8
TITLE
 10
119.5056623657137
 20
37.078945177492869
 30
0.0
 11
123.5307963087925
 21
41.10407912057223
 31
0.0
  0
LINE
  5
1EA6
  8
TITLE
 10
119.5022281098659
 20
37.162795794283397
 30
0.0
 11
123.4435114361454
 21
41.10407912057223
 31
0.0
  0
LINE
  5
1EA7
  8
TITLE
 10
125.33823048282279
 20
41.10407912057223
 30
0.0
 11
122.41937018706081
 21
38.18521882480978
 31
0.0
  0
LINE
  5
1EA8
  8
TITLE
 10
119.70170269854771
 20
36.052997293274188
 30
0.0
 11
124.7527845258455
 21
41.10407912057223
 31
0.0
  0
LINE
  5
1EA9
  8
TITLE
 10
119.6801591723347
 20
36.118738639708681
 30
0.0
 11
124.66549965319879
 21
41.10407912057223
 31
0.0
  0
LINE
  5
1EAA
  8
TITLE
 10
119.65962101534789
 20
36.18548535537537
 30
0.0
 11
124.5782147805598
 21
41.10407912057223
 31
0.0
  0
LINE
  5
1EAB
  8
TITLE
 10
119.85068909498381
 20
35.678274453828408
 30
0.0
 11
125.2764937617289
 21
41.10407912057223
 31
0.0
  0
LINE
  5
1EAC
  8
TITLE
 10
119.82361753197441
 20
35.73848776346518
 30
0.0
 11
125.1892088890813
 21
41.10407912057223
 31
0.0
  0
LINE
  5
1EAD
  8
TITLE
 10
119.79741619693181
 20
35.79957130106925
 30
0.0
 11
125.1019240164337
 21
41.10407912057223
 31
0.0
  0
LINE
  5
1EAE
  8
TITLE
 10
119.77210340953521
 20
35.861543386320932
 30
0.0
 11
125.01463914378741
 21
41.10407912057223
 31
0.0
  0
LINE
  5
1EAF
  8
TITLE
 10
119.7476989814177
 20
35.924423830850301
 30
0.0
 11
124.92735427113981
 21
41.10407912057223
 31
0.0
  0
LINE
  5
1EB0
  8
TITLE
 10
119.7242243448936
 20
35.988234066972488
 30
0.0
 11
124.8400693984927
 21
41.10407912057223
 31
0.0
  0
LINE
  5
1EB1
  8
TITLE
 10
119.6991955842627
 20
38.494466613062869
 30
0.0
 11
122.30880809173961
 21
41.10407912057223
 31
0.0
  0
LINE
  5
1EB2
  8
TITLE
 10
119.50095923156231
 20
37.336096661273828
 30
0.0
 11
123.26894169085099
 21
41.10407912057223
 31
0.0
  0
LINE
  5
1EB3
  8
TITLE
 10
119.5033866891867
 20
37.425808991536101
 30
0.0
 11
123.1816568182039
 21
41.10407912057223
 31
0.0
  0
LINE
  5
1EB4
  8
TITLE
 10
119.5080632908662
 20
37.517770465861418
 30
0.0
 11
123.0943719455567
 21
41.10407912057223
 31
0.0
  0
LINE
  5
1EB5
  8
TITLE
 10
119.515176548241
 20
37.61216859589581
 30
0.0
 11
123.0070870729168
 21
41.10407912057223
 31
0.0
  0
LINE
  5
1EB6
  8
TITLE
 10
119.5249466109308
 20
37.709223531232851
 30
0.0
 11
122.9198022002697
 21
41.10407912057223
 31
0.0
  0
LINE
  5
1EB7
  8
TITLE
 10
119.5376348155601
 20
37.809196608509303
 30
0.0
 11
122.8325173276225
 21
41.10407912057223
 31
0.0
  0
LINE
  5
1EB8
  8
TITLE
 10
119.5535553710679
 20
37.912402036663472
 30
0.0
 11
122.7452324549749
 21
41.10407912057223
 31
0.0
  0
LINE
  5
1EB9
  8
TITLE
 10
119.57309171664239
 20
38.019223254885461
 30
0.0
 11
122.65794758232821
 21
41.10407912057223
 31
0.0
  0
LINE
  5
1EBA
  8
TITLE
 10
119.59672006767281
 20
38.130136478562797
 30
0.0
 11
122.570662709681
 21
41.10407912057223
 31
0.0
  0
LINE
  5
1EBB
  8
TITLE
 10
119.62504444435901
 20
38.24574572788277
 30
0.0
 11
122.4833778370334
 21
41.10407912057223
 31
0.0
  0
LINE
  5
1EBC
  8
TITLE
 10
119.6588508908735
 20
38.366837047043397
 30
0.0
 11
122.3960929643867
 21
41.10407912057223
 31
0.0
  0
LINE
  5
1EBD
  8
TITLE
 10
119.7475570630408
 20
38.630112964483381
 30
0.0
 11
122.2215232190924
 21
41.10407912057223
 31
0.0
  0
LINE
  5
1EBE
  8
TITLE
 10
119.87837471686809
 20
38.935500363634219
 30
0.0
 11
122.0469534738054
 21
41.10407912057223
 31
0.0
  0
LINE
  5
1EBF
  8
TITLE
 10
119.8061210691303
 20
38.77596184321375
 30
0.0
 11
122.1342383464453
 21
41.10407912057223
 31
0.0
  0
LINE
  5
1EC0
  8
TITLE
 10
119.97055903818359
 20
39.114969557597867
 30
0.0
 11
121.9596686011582
 21
41.10407912057223
 31
0.0
  0
LINE
  5
1EC1
  8
TITLE
 10
119.50061965915749
 20
37.248472216222567
 30
0.0
 11
123.3562265634982
 21
41.10407912057223
 31
0.0
  0
LINE
  5
1EC2
  8
TITLE
 10
119.99855021796149
 20
35.389711213578501
 30
0.0
 11
122.0544190242494
 21
37.44558001986514
 31
0.0
  0
LINE
  5
1EC3
  8
TITLE
 10
119.9673574068533
 20
35.445803275119722
 30
0.0
 11
122.07292524772851
 21
37.551371115991969
 31
0.0
  0
LINE
  5
1EC4
  8
TITLE
 10
119.9369620260149
 20
35.502692766959527
 30
0.0
 11
122.1051251839026
 21
37.670855924819648
 31
0.0
  0
LINE
  5
1EC5
  8
TITLE
 10
119.9073764141267
 20
35.560392027709561
 30
0.0
 11
122.1607584701223
 21
37.813774083683832
 31
0.0
  0
LINE
  5
1EC6
  8
TITLE
 10
119.8786139441458
 20
35.618914430321752
 30
0.0
 11
122.2803928826206
 21
38.020693368814712
 31
0.0
  0
LINE
  5
1EC7
  8
TITLE
 10
120.0305290909705
 20
35.334405213938233
 30
0.0
 11
122.04537152320739
 21
37.349247646174952
 31
0.0
  0
LINE
  5
1EC8
  8
TITLE
 10
120.47256755522849
 20
34.729025206448227
 30
0.0
 11
122.27930117902859
 21
36.535758830238251
 31
0.0
  0
LINE
  5
1EC9
  8
TITLE
 10
120.59925251611
 20
34.593855549403322
 30
0.0
 11
122.3975003441046
 21
36.392103377374951
 31
0.0
  0
LINE
  5
1ECA
  8
TITLE
 10
120.5563192463169
 20
34.638207152264492
 30
0.0
 11
122.3559745190459
 21
36.437862424963427
 31
0.0
  0
LINE
  5
1ECB
  8
TITLE
 10
120.514090557313
 20
34.68326333588027
 30
0.0
 11
122.3165647872934
 21
36.48573756585585
 31
0.0
  0
LINE
  5
1ECC
  8
TITLE
 10
120.3916458255553
 20
34.822673222058597
 30
0.0
 11
122.21141576110131
 21
36.642443157604127
 31
0.0
  0
LINE
  5
1ECD
  8
TITLE
 10
120.3522521212294
 20
34.870564390380203
 30
0.0
 11
122.1809433794769
 21
36.699255648627847
 31
0.0
  0
LINE
  5
1ECE
  8
TITLE
 10
120.3135741703727
 20
34.91917131217042
 30
0.0
 11
122.1529221823248
 21
36.758519324122631
 31
0.0
  0
LINE
  5
1ECF
  8
TITLE
 10
120.27561595025691
 20
34.968497964702692
 30
0.0
 11
122.12749083113459
 21
36.820372845580209
 31
0.0
  0
LINE
  5
1ED0
  8
TITLE
 10
120.16610875714279
 20
35.12084538950797
 30
0.0
 11
122.06873736886109
 21
37.023474001244153
 31
0.0
  0
LINE
  5
1ED1
  8
TITLE
 10
120.2383820510445
 20
35.018548938136291
 30
0.0
 11
122.104824553463
 21
36.884991440554813
 31
0.0
  0
LINE
  5
1ED2
  8
TITLE
 10
120.20187769474791
 20
35.069329454486933
 30
0.0
 11
122.0851454223889
 21
36.952597182127867
 31
0.0
  0
LINE
  5
1ED3
  8
TITLE
 10
120.1310817927647
 20
35.17310329781867
 30
0.0
 11
122.0559687700524
 21
37.097990275081102
 31
0.0
  0
LINE
  5
1ED4
  8
TITLE
 10
120.0968040634875
 20
35.226110441196283
 30
0.0
 11
122.0473277703136
 21
37.176634147990057
 31
0.0
  0
LINE
  5
1ED5
  8
TITLE
 10
120.06328357058329
 20
35.279874820909981
 30
0.0
 11
122.0434802906088
 21
37.260071540929189
 31
0.0
  0
LINE
  5
1ED6
  8
TITLE
 10
120.4317519027408
 20
34.775494426607452
 30
0.0
 11
122.2442300364996
 21
36.587972560356206
 31
0.0
  0
LINE
  5
1ED7
  8
TITLE
 10
121.7420937297893
 20
41.10407912057223
 30
0.0
 11
120.6213018105436
 21
39.983287201326682
 31
0.0
  0
LINE
  5
1ED8
  8
TITLE
 10
120.30236018531239
 20
39.62134045001519
 30
0.0
 11
121.78509885586389
 21
41.10407912057223
 31
0.0
  0
LINE
  5
1ED9
  8
TITLE
 10
120.0962783141608
 20
39.327973706222679
 30
0.0
 11
121.8723837285111
 21
41.10407912057223
 31
0.0
  0
LINE
  5
1EDA
  8
TITLE
 10
129.5928977933286
 20
39.278520822373707
 30
0.0
 11
130.15961215527881
 21
39.845235184330811
 31
0.0
  0
LINE
  5
1EDB
  8
TITLE
 10
129.5928977933286
 20
39.19123594972973
 30
0.0
 11
130.246897027926
 21
39.845235184330811
 31
0.0
  0
LINE
  5
1EDC
  8
TITLE
 10
129.5928977933286
 20
39.01666620443882
 30
0.0
 11
130.4214667732202
 21
39.845235184330811
 31
0.0
  0
LINE
  5
1EDD
  8
TITLE
 10
129.5928977933286
 20
38.92938133179166
 30
0.0
 11
130.5087516458679
 21
39.845235184330811
 31
0.0
  0
LINE
  5
1EDE
  8
TITLE
 10
129.5928977933286
 20
38.842096459144372
 30
0.0
 11
130.59603651851461
 21
39.845235184330811
 31
0.0
  0
LINE
  5
1EDF
  8
TITLE
 10
129.5928977933286
 20
38.754811586497681
 30
0.0
 11
130.6833213911618
 21
39.845235184330811
 31
0.0
  0
LINE
  5
1EE0
  8
TITLE
 10
129.5928977933286
 20
38.056532605327448
 30
0.0
 11
131.3816003723318
 21
39.845235184330811
 31
0.0
  0
LINE
  5
1EE1
  8
TITLE
 10
129.5928977933286
 20
37.969247732680287
 30
0.0
 11
131.46888524497899
 21
39.845235184330811
 31
0.0
  0
LINE
  5
1EE2
  8
TITLE
 10
129.5928977933286
 20
38.492956968555852
 30
0.0
 11
130.94517600909651
 21
39.845235184330811
 31
0.0
  0
LINE
  5
1EE3
  8
TITLE
 10
129.5928977933286
 20
38.405672095908812
 30
0.0
 11
131.03246088174319
 21
39.845235184330811
 31
0.0
  0
LINE
  5
1EE4
  8
TITLE
 10
129.5928977933286
 20
38.318387223265169
 30
0.0
 11
131.11974575439021
 21
39.845235184330811
 31
0.0
  0
LINE
  5
1EE5
  8
TITLE
 10
129.5928977933286
 20
38.231102350618023
 30
0.0
 11
131.20703062703751
 21
39.845235184330811
 31
0.0
  0
LINE
  5
1EE6
  8
TITLE
 10
129.5928977933286
 20
38.143817477970742
 30
0.0
 11
131.29431549968459
 21
39.845235184330811
 31
0.0
  0
LINE
  5
1EE7
  8
TITLE
 10
129.5928977933286
 20
38.667526713850293
 30
0.0
 11
130.77060626380899
 21
39.845235184330811
 31
0.0
  0
LINE
  5
1EE8
  8
TITLE
 10
129.5928977933286
 20
38.580241841203019
 30
0.0
 11
130.857891136456
 21
39.845235184330811
 31
0.0
  0
LINE
  5
1EE9
  8
TITLE
 10
129.5928977933286
 20
39.103951077082471
 30
0.0
 11
130.33418190057321
 21
39.845235184330811
 31
0.0
  0
LINE
  5
1EEA
  8
TITLE
 10
129.5928977933286
 20
37.881962860033141
 30
0.0
 11
131.5561701176261
 21
39.845235184330811
 31
0.0
  0
LINE
  5
1EEB
  8
TITLE
 10
124.5264229374816
 20
37.735462116931792
 30
0.0
 11
125.2781235865677
 21
38.487162766017718
 31
0.0
  0
LINE
  5
1EEC
  8
TITLE
 10
124.5491310620004
 20
37.67088536880317
 30
0.0
 11
125.3654084592149
 21
38.487162766017491
 31
0.0
  0
LINE
  5
1EED
  8
TITLE
 10
124.5688556840168
 20
37.60332511816614
 30
0.0
 11
125.4526933318748
 21
38.487162766017491
 31
0.0
  0
LINE
  5
1EEE
  8
TITLE
 10
124.58531391526731
 20
37.53249847678353
 30
0.0
 11
125.53997820450191
 21
38.487162766017718
 31
0.0
  0
LINE
  5
1EEF
  8
TITLE
 10
124.59813882611979
 20
37.458038514988729
 30
0.0
 11
125.6272630771485
 21
38.487162766017718
 31
0.0
  0
LINE
  5
1EF0
  8
TITLE
 10
124.6068443657982
 20
37.37945918202081
 30
0.0
 11
125.7145479497953
 21
38.487162766017718
 31
0.0
  0
LINE
  5
1EF1
  8
TITLE
 10
124.6089690745243
 20
37.207014145452021
 30
0.0
 11
125.88911769509011
 21
38.487162766017718
 31
0.0
  0
LINE
  5
1EF2
  8
TITLE
 10
124.6000397123871
 20
37.110799910667431
 30
0.0
 11
125.9764025677373
 21
38.487162766017718
 31
0.0
  0
LINE
  5
1EF3
  8
TITLE
 10
124.581695215696
 20
37.005170541328987
 30
0.0
 11
126.0636874403849
 21
38.487162766017718
 31
0.0
  0
LINE
  5
1EF4
  8
TITLE
 10
124.6107677956052
 20
37.296097739180148
 30
0.0
 11
125.8018328224429
 21
38.487162766017718
 31
0.0
  0
LINE
  5
1EF5
  8
TITLE
 10
124.5497433491296
 20
36.885933802115908
 30
0.0
 11
126.150972313032
 21
38.487162766017491
 31
0.0
  0
LINE
  5
1EF6
  8
TITLE
 10
123.78421616629061
 20
38.477098180735197
 30
0.0
 11
123.79428075157369
 21
38.487162766017718
 31
0.0
  0
LINE
  5
1EF7
  8
TITLE
 10
123.8460696877482
 20
38.451666829545729
 30
0.0
 11
123.8815656242204
 21
38.487162766017718
 31
0.0
  0
LINE
  5
1EF8
  8
TITLE
 10
124.2124856345076
 20
38.207088667754761
 30
0.0
 11
124.49255973277469
 21
38.487162766017718
 31
0.0
  0
LINE
  5
1EF9
  8
TITLE
 10
124.1667265869232
 20
38.248614492810589
 30
0.0
 11
124.4052748601343
 21
38.487162766017953
 31
0.0
  0
LINE
  5
1EFA
  8
TITLE
 10
124.06883018163811
 20
38.32528783283783
 30
0.0
 11
124.2307051148191
 21
38.487162766017953
 31
0.0
  0
LINE
  5
1EFB
  8
TITLE
 10
124.1188514460177
 20
38.28802422457489
 30
0.0
 11
124.3179899874612
 21
38.487162766017718
 31
0.0
  0
LINE
  5
1EFC
  8
TITLE
 10
123.962145854266
 20
38.393173250769571
 30
0.0
 11
124.05613536951419
 21
38.487162766017718
 31
0.0
  0
LINE
  5
1EFD
  8
TITLE
 10
123.9053333632428
 20
38.423645632392997
 30
0.0
 11
123.96885049686711
 21
38.487162766017718
 31
0.0
  0
LINE
  5
1EFE
  8
TITLE
 10
124.01661645152031
 20
38.360358975367149
 30
0.0
 11
124.1434202421719
 21
38.487162766017953
 31
0.0
  0
LINE
  5
1EFF
  8
TITLE
 10
124.3744360268479
 20
38.019899569533891
 30
0.0
 11
124.8416992233324
 21
38.487162766017718
 31
0.0
  0
LINE
  5
1F00
  8
TITLE
 10
124.4423873928958
 20
37.913281190288103
 30
0.0
 11
125.01626896862579
 21
38.487162766017718
 31
0.0
  0
LINE
  5
1F01
  8
TITLE
 10
124.5009526056255
 20
37.797276657723152
 30
0.0
 11
125.1908387139206
 21
38.487162766017718
 31
0.0
  0
LINE
  5
1F02
  8
TITLE
 10
124.472894695139
 20
37.8565036198844
 30
0.0
 11
125.1035538412729
 21
38.487162766017718
 31
0.0
  0
LINE
  5
1F03
  8
TITLE
 10
124.4095396027069
 20
37.967718272745863
 30
0.0
 11
124.92898409597861
 21
38.487162766017718
 31
0.0
  0
LINE
  5
1F04
  8
TITLE
 10
124.33714078677851
 20
38.069889202111881
 30
0.0
 11
124.7544143506848
 21
38.487162766017718
 31
0.0
  0
LINE
  5
1F05
  8
TITLE
 10
124.2561433951964
 20
38.163461555839831
 30
0.0
 11
124.5798446053718
 21
38.487162766017718
 31
0.0
  0
LINE
  5
1F06
  8
TITLE
 10
124.29769997573059
 20
38.11773326371042
 30
0.0
 11
124.6671294780375
 21
38.487162766017718
 31
0.0
  0
LINE
  5
1F07
  8
TITLE
 10
124.4945869165049
 20
36.743492496843828
 30
0.0
 11
126.2382571856788
 21
38.487162766017491
 31
0.0
  0
LINE
  5
1F08
  8
TITLE
 10
124.3769474790779
 20
36.538568186776729
 30
0.0
 11
126.3255420583059
 21
38.487162766017718
 31
0.0
  0
LINE
  5
1F09
  8
TITLE
 10
124.8234209858055
 20
33.755501405585392
 30
0.0
 11
126.8490876062874
 21
35.781168026070397
 31
0.0
  0
LINE
  5
1F0A
  8
TITLE
 10
124.67774191356369
 20
33.697107205987209
 30
0.0
 11
126.90748180588299
 21
35.926847098305757
 31
0.0
  0
LINE
  5
1F0B
  8
TITLE
 10
124.98272433684311
 20
33.827519883972172
 30
0.0
 11
126.7770691278983
 21
35.621864675026593
 31
0.0
  0
LINE
  5
1F0C
  8
TITLE
 10
125.1618332045709
 20
33.91934387905394
 30
0.0
 11
126.6852451328141
 21
35.442755807295839
 31
0.0
  0
LINE
  5
1F0D
  8
TITLE
 10
125.66539193621099
 20
34.248332865401949
 30
0.0
 11
126.3562561464687
 21
34.939197075659081
 31
0.0
  0
LINE
  5
1F0E
  8
TITLE
 10
125.3741686879834
 20
34.04439448982145
 30
0.0
 11
126.5601945220492
 21
35.230420323887301
 31
0.0
  0
LINE
  5
1F0F
  8
TITLE
 10
124.5422261388139
 20
33.64887630388786
 30
0.0
 11
126.9557127079824
 21
36.0623628730566
 31
0.0
  0
LINE
  5
1F10
  8
TITLE
 10
124.2936969420907
 20
33.574916852455203
 30
0.0
 11
127.029672159415
 21
36.310892069779811
 31
0.0
  0
LINE
  5
1F11
  8
TITLE
 10
124.41470140681891
 20
33.608636444536273
 30
0.0
 11
126.9959525673339
 21
36.189887605051467
 31
0.0
  0
LINE
  5
1F12
  8
TITLE
 10
124.1781613964545
 20
33.546666179466342
 30
0.0
 11
127.057922832404
 21
36.426427615416067
 31
0.0
  0
LINE
  5
1F13
  8
TITLE
 10
124.06731190958
 20
33.52310156523879
 30
0.0
 11
127.0814874466309
 21
36.53727710228555
 31
0.0
  0
LINE
  5
1F14
  8
TITLE
 10
130.75522780646949
 20
37.036740802303846
 30
0.0
 11
130.87271801804991
 21
37.154231013884228
 31
0.0
  0
LINE
  5
1F15
  8
TITLE
 10
130.84251267911671
 20
37.036740802303846
 30
0.0
 11
130.87271801804991
 21
37.066946141237047
 31
0.0
  0
LINE
  5
1F16
  8
TITLE
 10
130.49337318852761
 20
37.036740802303846
 30
0.0
 11
130.87271801804991
 21
37.416085631822291
 31
0.0
  0
LINE
  5
1F17
  8
TITLE
 10
130.5806580611752
 20
37.036740802303846
 30
0.0
 11
130.87271801804991
 21
37.328800759175117
 31
0.0
  0
LINE
  5
1F18
  8
TITLE
 10
130.66794293382219
 20
37.036740802303846
 30
0.0
 11
130.87271801804991
 21
37.241515886531147
 31
0.0
  0
LINE
  5
1F19
  8
TITLE
 10
130.2315185705942
 20
37.036740802303846
 30
0.0
 11
130.87271801804991
 21
37.677940249759899
 31
0.0
  0
LINE
  5
1F1A
  8
TITLE
 10
130.31880344324051
 20
37.036740802303846
 30
0.0
 11
130.87271801804991
 21
37.590655377112739
 31
0.0
  0
LINE
  5
1F1B
  8
TITLE
 10
130.4060883158881
 20
37.036740802303846
 30
0.0
 11
130.87271801804991
 21
37.503370504469217
 31
0.0
  0
LINE
  5
1F1C
  8
TITLE
 10
129.88237908000519
 20
37.036740802303846
 30
0.0
 11
130.87271801804991
 21
38.02707974034854
 31
0.0
  0
LINE
  5
1F1D
  8
TITLE
 10
129.9696639526523
 20
37.036740802303846
 30
0.0
 11
130.87271801804991
 21
37.939794867701508
 31
0.0
  0
LINE
  5
1F1E
  8
TITLE
 10
130.05694882529949
 20
37.036740802303846
 30
0.0
 11
130.87271801804991
 21
37.85250999505422
 31
0.0
  0
LINE
  5
1F1F
  8
TITLE
 10
130.14423369794659
 20
37.036740802303846
 30
0.0
 11
130.87271801804991
 21
37.765225122407173
 31
0.0
  0
LINE
  5
1F20
  8
TITLE
 10
129.5928977933286
 20
37.358253624153797
 30
0.0
 11
130.87271801804991
 21
38.638073848871151
 31
0.0
  0
LINE
  5
1F21
  8
TITLE
 10
129.5928977933286
 20
37.270968751506757
 30
0.0
 11
130.87271801804991
 21
38.550788976224339
 31
0.0
  0
LINE
  5
1F22
  8
TITLE
 10
129.62052446206371
 20
37.036740802303846
 30
0.0
 11
130.87271801804991
 21
38.288934358286269
 31
0.0
  0
LINE
  5
1F23
  8
TITLE
 10
129.70780933471079
 20
37.036740802303846
 30
0.0
 11
130.87271801804991
 21
38.20164948564274
 31
0.0
  0
LINE
  5
1F24
  8
TITLE
 10
129.79509420735749
 20
37.036740802303846
 30
0.0
 11
130.87271801804991
 21
38.114364612995928
 31
0.0
  0
LINE
  5
1F25
  8
TITLE
 10
129.5928977933286
 20
37.183683878863242
 30
0.0
 11
130.87271801804991
 21
38.46350410358081
 31
0.0
  0
LINE
  5
1F26
  8
TITLE
 10
129.5928977933286
 20
37.096399006216082
 30
0.0
 11
130.87271801804991
 21
38.376219230933998
 31
0.0
  0
LINE
  5
1F27
  8
TITLE
 10
130.27855805706531
 20
34.290664364088229
 30
0.0
 11
131.33598280988869
 21
35.348089116911297
 31
0.0
  0
LINE
  5
1F28
  8
TITLE
 10
130.36584292970559
 20
34.290664364088229
 30
0.0
 11
131.42326768253579
 21
35.348089116911297
 31
0.0
  0
LINE
  5
1F29
  8
TITLE
 10
130.45312780235281
 20
34.290664364088229
 30
0.0
 11
131.51055255517619
 21
35.348089116911297
 31
0.0
  0
LINE
  5
1F2A
  8
TITLE
 10
130.1617067820934
 20
35.308516433522207
 30
0.0
 11
130.20127946548291
 21
35.348089116911297
 31
0.0
  0
LINE
  5
1F2B
  8
TITLE
 10
130.1617067820934
 20
34.87209207029332
 30
0.0
 11
130.63770382871141
 21
35.348089116911297
 31
0.0
  0
LINE
  5
1F2C
  8
TITLE
 10
130.1617067820934
 20
34.78480719764616
 30
0.0
 11
130.7249887013586
 21
35.348089116911297
 31
0.0
  0
LINE
  5
1F2D
  8
TITLE
 10
130.1617067820934
 20
34.697522324999341
 30
0.0
 11
130.8122735740057
 21
35.348089116911297
 31
0.0
  0
LINE
  5
1F2E
  8
TITLE
 10
130.1617067820934
 20
34.610237452351953
 30
0.0
 11
130.8995584466528
 21
35.348089116911297
 31
0.0
  0
LINE
  5
1F2F
  8
TITLE
 10
130.1617067820934
 20
34.522952579704679
 30
0.0
 11
130.98684331930011
 21
35.348089116911297
 31
0.0
  0
LINE
  5
1F30
  8
TITLE
 10
130.1617067820934
 20
34.435667707057519
 30
0.0
 11
131.07412819194721
 21
35.348089116911297
 31
0.0
  0
LINE
  5
1F31
  8
TITLE
 10
130.1617067820934
 20
34.3483828344106
 30
0.0
 11
131.1614130645944
 21
35.348089116911297
 31
0.0
  0
LINE
  5
1F32
  8
TITLE
 10
130.19127318441861
 20
34.290664364088229
 30
0.0
 11
131.2486979372415
 21
35.348089116911297
 31
0.0
  0
LINE
  5
1F33
  8
TITLE
 10
130.1617067820934
 20
35.133946688231163
 30
0.0
 11
130.3758492107772
 21
35.348089116911297
 31
0.0
  0
LINE
  5
1F34
  8
TITLE
 10
130.1617067820934
 20
35.04666181558413
 30
0.0
 11
130.46313408342439
 21
35.348089116911297
 31
0.0
  0
LINE
  5
1F35
  8
TITLE
 10
130.1617067820934
 20
34.959376942936842
 30
0.0
 11
130.55041895606419
 21
35.348089116911297
 31
0.0
  0
LINE
  5
1F36
  8
TITLE
 10
130.1617067820934
 20
35.221231560875033
 30
0.0
 11
130.28856433812999
 21
35.348089116911297
 31
0.0
  0
LINE
  5
1F37
  8
TITLE
 10
129.5928977933286
 20
39.627660312961893
 30
0.0
 11
129.8104726646975
 21
39.845235184330811
 31
0.0
  0
LINE
  5
1F38
  8
TITLE
 10
129.5928977933286
 20
39.8022300582561
 30
0.0
 11
129.63590291940321
 21
39.845235184330811
 31
0.0
  0
LINE
  5
1F39
  8
TITLE
 10
129.5928977933286
 20
39.714945185609189
 30
0.0
 11
129.72318779205031
 21
39.845235184330811
 31
0.0
  0
LINE
  5
1F3A
  8
TITLE
 10
129.5928977933286
 20
39.365805695020413
 30
0.0
 11
130.0723272826321
 21
39.845235184330811
 31
0.0
  0
LINE
  5
1F3B
  8
TITLE
 10
129.5928977933286
 20
39.54037544031474
 30
0.0
 11
129.8977575373446
 21
39.845235184330811
 31
0.0
  0
LINE
  5
1F3C
  8
TITLE
 10
129.5928977933286
 20
39.45309056766758
 30
0.0
 11
129.98504240998449
 21
39.845235184330811
 31
0.0
  0
LINE
  5
1F3D
  8
TITLE
 10
139.875
 20
52.5
 30
0.0
 11
139.875
 21
42.5
 31
0.0
  0
LINE
  5
1F3E
  8
TITLE
 10
147.73553258635269
 20
34.290664364088229
 30
0.0
 11
149.43569176582741
 21
35.99082354356279
 31
0.0
  0
LINE
  5
1F3F
  8
TITLE
 10
147.82281745899991
 20
34.290664364088229
 30
0.0
 11
149.3898134447486
 21
35.857660349836813
 31
0.0
  0
LINE
  5
1F40
  8
TITLE
 10
147.91010233164701
 20
34.290664364088229
 30
0.0
 11
149.34393512367021
 21
35.72449715611107
 31
0.0
  0
LINE
  5
1F41
  8
TITLE
 10
147.6481874641326
 20
34.552458732449281
 30
0.0
 11
149.6192050501422
 21
36.523476318458393
 31
0.0
  0
LINE
  5
1F42
  8
TITLE
 10
147.6481874641326
 20
34.465173859801901
 30
0.0
 11
149.5733267290629
 21
36.390313124733098
 31
0.0
  0
LINE
  5
1F43
  8
TITLE
 10
147.6481874641326
 20
34.377888987154734
 30
0.0
 11
149.52744840798459
 21
36.257149931010652
 31
0.0
  0
LINE
  5
1F44
  8
TITLE
 10
147.64824771371281
 20
34.290664364088229
 30
0.0
 11
149.48157008690609
 21
36.123986737284781
 31
0.0
  0
LINE
  5
1F45
  8
TITLE
 10
147.6481874641326
 20
34.814313350390762
 30
0.0
 11
149.75684001337819
 21
36.922965899635869
 31
0.0
  0
LINE
  5
1F46
  8
TITLE
 10
147.6481874641326
 20
34.727028477743488
 30
0.0
 11
149.71096169229881
 21
36.789802705910347
 31
0.0
  0
LINE
  5
1F47
  8
TITLE
 10
147.6481874641326
 20
34.639743605096221
 30
0.0
 11
149.66508337122059
 21
36.656639512184711
 31
0.0
  0
LINE
  5
1F48
  8
TITLE
 10
147.6481874641326
 20
35.338022586266447
 30
0.0
 11
150.03210993984251
 21
37.721945061983433
 31
0.0
  0
LINE
  5
1F49
  8
TITLE
 10
147.6481874641326
 20
35.25073771361906
 30
0.0
 11
149.9862316187637
 21
37.588781868257684
 31
0.0
  0
LINE
  5
1F4A
  8
TITLE
 10
147.6481874641326
 20
35.163452840975879
 30
0.0
 11
149.94035329768531
 21
37.455618674532147
 31
0.0
  0
LINE
  5
1F4B
  8
TITLE
 10
147.6481874641326
 20
35.076167968328377
 30
0.0
 11
149.8944749766064
 21
37.32245548080607
 31
0.0
  0
LINE
  5
1F4C
  8
TITLE
 10
147.6481874641326
 20
34.988883095681111
 30
0.0
 11
149.84859665553489
 21
37.189292287084299
 31
0.0
  0
LINE
  5
1F4D
  8
TITLE
 10
147.6481874641326
 20
34.901598223037809
 30
0.0
 11
149.80271833445661
 21
37.056129093358102
 31
0.0
  0
LINE
  5
1F4E
  8
TITLE
 10
139.62562638847379
 20
38.13878571877558
 30
0.0
 11
141.32660142470601
 21
39.839760755008342
 31
0.0
  0
LINE
  5
1F4F
  8
TITLE
 10
138.0822591989286
 20
37.206412637753509
 30
0.0
 11
140.5272332402119
 21
39.651386679040797
 31
0.0
  0
LINE
  5
1F50
  8
TITLE
 10
138.17835846748949
 20
37.215227033663162
 30
0.0
 11
140.651211909133
 21
39.68808047531104
 31
0.0
  0
LINE
  5
1F51
  8
TITLE
 10
138.17835846748949
 20
37.127942161019639
 30
0.0
 11
140.7713804755158
 21
39.72096416904629
 31
0.0
  0
LINE
  5
1F52
  8
TITLE
 10
138.17835846748949
 20
37.04065728837282
 30
0.0
 11
140.88812516274169
 21
39.750423983625872
 31
0.0
  0
LINE
  5
1F53
  8
TITLE
 10
138.17835846748949
 20
36.953372415725532
 30
0.0
 11
141.00176757038659
 21
39.776781518622784
 31
0.0
  0
LINE
  5
1F54
  8
TITLE
 10
138.17835846748949
 20
36.8660875430785
 30
0.0
 11
141.11257891923881
 21
39.80030799483508
 31
0.0
  0
LINE
  5
1F55
  8
TITLE
 10
138.17835846748949
 20
36.778802670431219
 30
0.0
 11
141.22079048910419
 21
39.821234692053849
 31
0.0
  0
LINE
  5
1F56
  8
TITLE
 10
137.9246858038359
 20
37.13612411530471
 30
0.0
 11
140.39897371736879
 21
39.61041202884055
 31
0.0
  0
LINE
  5
1F57
  8
TITLE
 10
137.37058204309909
 20
36.931159845160103
 30
0.0
 11
139.82868408240751
 21
39.38926188446851
 31
0.0
  0
LINE
  5
1F58
  8
TITLE
 10
137.50014370117421
 20
36.973436630584487
 30
0.0
 11
139.98182835518631
 21
39.455121284592558
 31
0.0
  0
LINE
  5
1F59
  8
TITLE
 10
137.635039327627
 20
37.021047384393448
 30
0.0
 11
140.12712112781171
 21
39.51312918457802
 31
0.0
  0
LINE
  5
1F5A
  8
TITLE
 10
137.7761585635744
 20
37.07488174768617
 30
0.0
 11
140.26584947541551
 21
39.564572659535202
 31
0.0
  0
LINE
  5
1F5B
  8
TITLE
 10
137.2456657119819
 20
36.893528386682981
 30
0.0
 11
139.66589271248861
 21
39.313755387196807
 31
0.0
  0
LINE
  5
1F5C
  8
TITLE
 10
133.8234146472609
 20
38.010090699581497
 30
0.0
 11
135.1387854337799
 21
39.325461486096742
 31
0.0
  0
LINE
  5
1F5D
  8
TITLE
 10
133.8234146472609
 20
38.446515062813781
 30
0.0
 11
135.1387854337799
 21
39.76188584933255
 31
0.0
  0
LINE
  5
1F5E
  8
TITLE
 10
133.8234146472609
 20
38.3592301901665
 30
0.0
 11
135.1387854337799
 21
39.674600976685163
 31
0.0
  0
LINE
  5
1F5F
  8
TITLE
 10
133.8234146472609
 20
38.27194531751946
 30
0.0
 11
135.1387854337799
 21
39.587316104038223
 31
0.0
  0
LINE
  5
1F60
  8
TITLE
 10
133.8234146472609
 20
38.184660444872172
 30
0.0
 11
135.1387854337799
 21
39.500031231391397
 31
0.0
  0
LINE
  5
1F61
  8
TITLE
 10
133.8234146472609
 20
38.097375572224898
 30
0.0
 11
135.1387854337799
 21
39.412746358744023
 31
0.0
  0
LINE
  5
1F62
  8
TITLE
 10
133.8234146472609
 20
38.533799935460941
 30
0.0
 11
135.13484989613099
 21
39.845235184330811
 31
0.0
  0
LINE
  5
1F63
  8
TITLE
 10
133.8048868924111
 20
38.689841925901888
 30
0.0
 11
134.9602801508363
 21
39.845235184330811
 31
0.0
  0
LINE
  5
1F64
  8
TITLE
 10
133.8234146472609
 20
38.621084808108321
 30
0.0
 11
135.04756502348391
 21
39.845235184330811
 31
0.0
  0
LINE
  5
1F65
  8
TITLE
 10
131.62276507624659
 20
38.689841925901888
 30
0.0
 11
132.7781583346723
 21
39.845235184330811
 31
0.0
  0
LINE
  5
1F66
  8
TITLE
 10
131.71004994889381
 20
38.689841925901888
 30
0.0
 11
132.8654432073194
 21
39.845235184330811
 31
0.0
  0
LINE
  5
1F67
  8
TITLE
 10
131.7973348215408
 20
38.689841925901888
 30
0.0
 11
132.95272807996659
 21
39.845235184330811
 31
0.0
  0
LINE
  5
1F68
  8
TITLE
 10
131.8846196941881
 20
38.689841925901888
 30
0.0
 11
133.04001295261381
 21
39.845235184330811
 31
0.0
  0
LINE
  5
1F69
  8
TITLE
 10
131.97190456683569
 20
38.689841925901888
 30
0.0
 11
133.12729782526091
 21
39.845235184330811
 31
0.0
  0
LINE
  5
1F6A
  8
TITLE
 10
132.0591894394824
 20
38.689841925901888
 30
0.0
 11
133.21458269790759
 21
39.845235184330811
 31
0.0
  0
LINE
  5
1F6B
  8
TITLE
 10
132.14647431213001
 20
38.689841925901888
 30
0.0
 11
133.3018675705552
 21
39.845235184330811
 31
0.0
  0
LINE
  5
1F6C
  8
TITLE
 10
132.2337591847772
 20
38.689841925901888
 30
0.0
 11
133.38915244320239
 21
39.845235184330811
 31
0.0
  0
LINE
  5
1F6D
  8
TITLE
 10
132.32104405741711
 20
38.689841925901888
 30
0.0
 11
133.4764373158491
 21
39.845235184330811
 31
0.0
  0
LINE
  5
1F6E
  8
TITLE
 10
132.40832893006379
 20
38.689841925901888
 30
0.0
 11
133.56372218849631
 21
39.845235184330811
 31
0.0
  0
LINE
  5
1F6F
  8
TITLE
 10
132.4956138027114
 20
38.689841925901888
 30
0.0
 11
133.6510070611366
 21
39.845235184330811
 31
0.0
  0
LINE
  5
1F70
  8
TITLE
 10
132.58289867535811
 20
38.689841925901888
 30
0.0
 11
133.73829193378381
 21
39.845235184330811
 31
0.0
  0
LINE
  5
1F71
  8
TITLE
 10
132.6701835480057
 20
38.689841925901888
 30
0.0
 11
133.8255768064308
 21
39.845235184330811
 31
0.0
  0
LINE
  5
1F72
  8
TITLE
 10
132.7574684206524
 20
38.689841925901888
 30
0.0
 11
133.91286167907759
 21
39.845235184330811
 31
0.0
  0
LINE
  5
1F73
  8
TITLE
 10
132.84475329329959
 20
38.689841925901888
 30
0.0
 11
134.00014655172521
 21
39.845235184330811
 31
0.0
  0
LINE
  5
1F74
  8
TITLE
 10
132.93203816594681
 20
38.689841925901888
 30
0.0
 11
134.0874314243724
 21
39.845235184330811
 31
0.0
  0
LINE
  5
1F75
  8
TITLE
 10
133.01932303859391
 20
38.689841925901888
 30
0.0
 11
134.17471629701959
 21
39.845235184330811
 31
0.0
  0
LINE
  5
1F76
  8
TITLE
 10
133.1066079112411
 20
38.689841925901888
 30
0.0
 11
134.26200116966669
 21
39.845235184330811
 31
0.0
  0
LINE
  5
1F77
  8
TITLE
 10
133.19389278388141
 20
38.689841925901888
 30
0.0
 11
134.34928604231391
 21
39.845235184330811
 31
0.0
  0
LINE
  5
1F78
  8
TITLE
 10
133.2811776565286
 20
38.689841925901888
 30
0.0
 11
134.4365709149609
 21
39.845235184330811
 31
0.0
  0
LINE
  5
1F79
  8
TITLE
 10
133.3684625291757
 20
38.689841925901888
 30
0.0
 11
134.5238557876082
 21
39.845235184330811
 31
0.0
  0
LINE
  5
1F7A
  8
TITLE
 10
133.45574740182241
 20
38.689841925901888
 30
0.0
 11
134.6111406602476
 21
39.845235184330811
 31
0.0
  0
LINE
  5
1F7B
  8
TITLE
 10
133.54303227447011
 20
38.689841925901888
 30
0.0
 11
134.69842553289479
 21
39.845235184330811
 31
0.0
  0
LINE
  5
1F7C
  8
TITLE
 10
133.63031714711681
 20
38.689841925901888
 30
0.0
 11
134.7857104055424
 21
39.845235184330811
 31
0.0
  0
LINE
  5
1F7D
  8
TITLE
 10
133.7176020197638
 20
38.689841925901888
 30
0.0
 11
134.87299527818959
 21
39.845235184330811
 31
0.0
  0
LINE
  5
1F7E
  8
TITLE
 10
135.6009427371518
 20
37.692781845951352
 30
0.0
 11
135.72795005783831
 21
37.819789166644803
 31
0.0
  0
LINE
  5
1F7F
  8
TITLE
 10
135.6009427371518
 20
37.60549697330714
 30
0.0
 11
135.81755557183391
 21
37.822109807993463
 31
0.0
  0
LINE
  5
1F80
  8
TITLE
 10
135.6009427371518
 20
36.994502864780877
 30
0.0
 11
136.4901525553237
 21
37.883712682960208
 31
0.0
  0
LINE
  5
1F81
  8
TITLE
 10
135.6009427371518
 20
36.907217992133852
 30
0.0
 11
136.5939931766024
 21
37.900268431588408
 31
0.0
  0
LINE
  5
1F82
  8
TITLE
 10
135.6009427371518
 20
36.819933119486791
 30
0.0
 11
136.7002008248237
 21
37.919191207166477
 31
0.0
  0
LINE
  5
1F83
  8
TITLE
 10
135.6009427371518
 20
36.732648246842928
 30
0.0
 11
136.8089712692263
 21
37.940676778921222
 31
0.0
  0
LINE
  5
1F84
  8
TITLE
 10
135.61900412636621
 20
36.663424763414149
 30
0.0
 11
136.92053195825559
 21
37.964952595300467
 31
0.0
  0
LINE
  5
1F85
  8
TITLE
 10
135.6009427371518
 20
37.169072610075091
 30
0.0
 11
136.28891381967969
 21
37.857043692603852
 31
0.0
  0
LINE
  5
1F86
  8
TITLE
 10
135.6009427371518
 20
37.08178773742781
 30
0.0
 11
136.3885090000158
 21
37.869354000292219
 31
0.0
  0
LINE
  5
1F87
  8
TITLE
 10
135.6009427371518
 20
37.518212100660087
 30
0.0
 11
135.90860738553459
 21
37.825876749046763
 31
0.0
  0
LINE
  5
1F88
  8
TITLE
 10
135.6009427371518
 20
37.430927228016571
 30
0.0
 11
136.00118090381011
 21
37.831165394675402
 31
0.0
  0
LINE
  5
1F89
  8
TITLE
 10
135.6009427371518
 20
37.343642355369397
 30
0.0
 11
136.09535955470389
 21
37.838059172922272
 31
0.0
  0
LINE
  5
1F8A
  8
TITLE
 10
135.6009427371518
 20
37.256357482722137
 30
0.0
 11
136.19123603529621
 21
37.846650780866639
 31
0.0
  0
LINE
  5
1F8B
  8
TITLE
 10
135.6009427371518
 20
37.780066718598171
 30
0.0
 11
135.63972242446201
 21
37.818846405916027
 31
0.0
  0
LINE
  5
1F8C
  8
TITLE
 10
133.8234146472609
 20
37.835520954290587
 30
0.0
 11
135.1387854337799
 21
39.150891740802649
 31
0.0
  0
LINE
  5
1F8D
  8
TITLE
 10
133.8234146472609
 20
37.748236081643427
 30
0.0
 11
135.1387854337799
 21
39.063606868159141
 31
0.0
  0
LINE
  5
1F8E
  8
TITLE
 10
133.8234146472609
 20
37.399096591054899
 30
0.0
 11
135.1387854337799
 21
38.714467377573769
 31
0.0
  0
LINE
  5
1F8F
  8
TITLE
 10
133.8234146472609
 20
37.311811718408201
 30
0.0
 11
135.1387854337799
 21
38.627182504926623
 31
0.0
  0
LINE
  5
1F90
  8
TITLE
 10
133.8234146472609
 20
37.22452684576092
 30
0.0
 11
135.1387854337799
 21
38.539897632279811
 31
0.0
  0
LINE
  5
1F91
  8
TITLE
 10
133.82171391762631
 20
36.960971498188208
 30
0.0
 11
135.1387854337799
 21
38.278043014338209
 31
0.0
  0
LINE
  5
1F92
  8
TITLE
 10
133.81484334510969
 20
36.866816053027613
 30
0.0
 11
135.1387854337799
 21
38.19075814169436
 31
0.0
  0
LINE
  5
1F93
  8
TITLE
 10
133.8234146472609
 20
37.137241973117057
 30
0.0
 11
135.1387854337799
 21
38.45261275963253
 31
0.0
  0
LINE
  5
1F94
  8
TITLE
 10
133.8234146472609
 20
37.049957100469783
 30
0.0
 11
135.1387854337799
 21
38.365327886985142
 31
0.0
  0
LINE
  5
1F95
  8
TITLE
 10
133.8234146472609
 20
37.486381463702067
 30
0.0
 11
135.1387854337799
 21
38.801752250220829
 31
0.0
  0
LINE
  5
1F96
  8
TITLE
 10
133.8234146472609
 20
37.660951208996487
 30
0.0
 11
135.1387854337799
 21
38.97632199551186
 31
0.0
  0
LINE
  5
1F97
  8
TITLE
 10
133.8234146472609
 20
37.573666336349362
 30
0.0
 11
135.1387854337799
 21
38.889037122868103
 31
0.0
  0
LINE
  5
1F98
  8
TITLE
 10
133.80161933378349
 20
36.766307169047529
 30
0.0
 11
135.1387854337799
 21
38.10347326904764
 31
0.0
  0
LINE
  5
1F99
  8
TITLE
 10
133.78033264299981
 20
36.657735605623998
 30
0.0
 11
135.1387854337799
 21
38.016188396400253
 31
0.0
  0
LINE
  5
1F9A
  8
TITLE
 10
133.74817320077901
 20
36.538291290752468
 30
0.0
 11
135.1387854337799
 21
37.928903523756958
 31
0.0
  0
LINE
  5
1F9B
  8
TITLE
 10
133.69985969700781
 20
36.402692914337308
 30
0.0
 11
135.1387854337799
 21
37.841618651109449
 31
0.0
  0
LINE
  5
1F9C
  8
TITLE
 10
133.62269831766571
 20
36.238246662352033
 30
0.0
 11
135.1387854337799
 21
37.754333778462069
 31
0.0
  0
LINE
  5
1F9D
  8
TITLE
 10
133.9649085022256
 20
34.747474521331917
 30
0.0
 11
134.68197527653581
 21
35.46454129564291
 31
0.0
  0
LINE
  5
1F9E
  8
TITLE
 10
131.58783114675859
 20
34.290664364088229
 30
0.0
 11
132.76881084983461
 21
35.471644067164789
 31
0.0
  0
LINE
  5
1F9F
  8
TITLE
 10
131.67511601940581
 20
34.290664364088229
 30
0.0
 11
132.9332571018235
 21
35.548805446506208
 31
0.0
  0
LINE
  5
1FA0
  8
TITLE
 10
131.76240089205291
 20
34.290664364088229
 30
0.0
 11
133.19069160982869
 21
35.718955081863903
 31
0.0
  0
LINE
  5
1FA1
  8
TITLE
 10
133.4204500329497
 20
34.464870669998291
 30
0.0
 11
134.96457912786991
 21
36.008999764918258
 31
0.0
  0
LINE
  5
1FA2
  8
TITLE
 10
133.7429555842746
 20
34.612806476028247
 30
0.0
 11
134.81664332183931
 21
35.686494213593278
 31
0.0
  0
LINE
  5
1FA3
  8
TITLE
 10
133.56978837649461
 20
34.526924140895737
 30
0.0
 11
134.9025256569725
 21
35.859661421373183
 31
0.0
  0
LINE
  5
1FA4
  8
TITLE
 10
131.8496857647001
 20
34.290664364088229
 30
0.0
 11
135.1387854337799
 21
37.57976403316809
 31
0.0
  0
LINE
  5
1FA5
  8
TITLE
 10
131.9369706373472
 20
34.290664364088229
 30
0.0
 11
135.1387854337799
 21
37.492479160520809
 31
0.0
  0
LINE
  5
1FA6
  8
TITLE
 10
132.02425550999391
 20
34.290664364088229
 30
0.0
 11
135.1387854337799
 21
37.405194287873996
 31
0.0
  0
LINE
  5
1FA7
  8
TITLE
 10
132.11154038264161
 20
34.290664364088229
 30
0.0
 11
135.1387854337799
 21
37.317909415226502
 31
0.0
  0
LINE
  5
1FA8
  8
TITLE
 10
132.19882525528141
 20
34.290664364088229
 30
0.0
 11
135.1387854337799
 21
37.230624542582973
 31
0.0
  0
LINE
  5
1FA9
  8
TITLE
 10
132.28611012792911
 20
34.290664364088229
 30
0.0
 11
135.1387854337799
 21
37.143339669935813
 31
0.0
  0
LINE
  5
1FAA
  8
TITLE
 10
132.37339500057581
 20
34.290664364088229
 30
0.0
 11
135.1387854337799
 21
37.056054797292532
 31
0.0
  0
LINE
  5
1FAB
  8
TITLE
 10
132.4606798732228
 20
34.290664364088229
 30
0.0
 11
135.1387854337799
 21
36.96876992464513
 31
0.0
  0
LINE
  5
1FAC
  8
TITLE
 10
132.54906446653101
 20
34.291764084749389
 30
0.0
 11
135.13768571311849
 21
36.880385331336917
 31
0.0
  0
LINE
  5
1FAD
  8
TITLE
 10
132.64055128721469
 20
34.295966032789131
 30
0.0
 11
135.1334837650752
 21
36.788898510649801
 31
0.0
  0
LINE
  5
1FAE
  8
TITLE
 10
132.73554203711231
 20
34.303671910036307
 30
0.0
 11
135.1257778878321
 21
36.693907760755692
 31
0.0
  0
LINE
  5
1FAF
  8
TITLE
 10
132.83451018011959
 20
34.315355180399933
 30
0.0
 11
135.11409461746459
 21
36.59493961774821
 31
0.0
  0
LINE
  5
1FB0
  8
TITLE
 10
132.93806686818101
 20
34.331626995810318
 30
0.0
 11
135.09782280205741
 21
36.491382929686893
 31
0.0
  0
LINE
  5
1FB1
  8
TITLE
 10
133.04702469539049
 20
34.353299950380233
 30
0.0
 11
135.0761498474881
 21
36.38242510247413
 31
0.0
  0
LINE
  5
1FB2
  8
TITLE
 10
133.1625056264688
 20
34.381496008807517
 30
0.0
 11
135.0479537890574
 21
36.26694417139948
 31
0.0
  0
LINE
  5
1FB3
  8
TITLE
 10
133.28613763006021
 20
34.417843139748243
 30
0.0
 11
135.0116066581198
 21
36.14331216780807
 31
0.0
  0
LINE
  5
1FB4
  8
TITLE
 10
133.45254868230811
 20
35.980812154347291
 30
0.0
 11
135.1387854337799
 21
37.66704890581525
 31
0.0
  0
LINE
  5
1FB5
  8
TITLE
 10
133.8234146472609
 20
37.92280582693423
 30
0.0
 11
135.1387854337799
 21
39.23817661344993
 31
0.0
  0
LINE
  5
1FB6
  8
TITLE
 10
135.979095482638
 20
36.674376629097758
 30
0.0
 11
137.40085015379191
 21
38.0961313002515
 31
0.0
  0
LINE
  5
1FB7
  8
TITLE
 10
136.07288564064129
 20
36.680881914460663
 30
0.0
 11
137.5316075596383
 21
38.139603833454309
 31
0.0
  0
LINE
  5
1FB8
  8
TITLE
 10
136.16835074212031
 20
36.68906214329273
 30
0.0
 11
137.66788887180061
 21
38.1886002729658
 31
0.0
  0
LINE
  5
1FB9
  8
TITLE
 10
138.17835846748949
 20
36.080523689261092
 30
0.0
 11
139.4937292540007
 21
37.395894475776451
 31
0.0
  0
LINE
  5
1FBA
  8
TITLE
 10
138.17835846748949
 20
36.342378307199191
 30
0.0
 11
139.4937292540007
 21
37.65774909371455
 31
0.0
  0
LINE
  5
1FBB
  8
TITLE
 10
138.17835846748949
 20
36.255093434555192
 30
0.0
 11
139.4937292540007
 21
37.570464221067247
 31
0.0
  0
LINE
  5
1FBC
  8
TITLE
 10
138.17835846748949
 20
36.16780856190838
 30
0.0
 11
139.4937292540007
 21
37.483179348423732
 31
0.0
  0
LINE
  5
1FBD
  8
TITLE
 10
138.17835846748949
 20
36.691517797784059
 30
0.0
 11
139.4937292540007
 21
38.006888584302828
 31
0.0
  0
LINE
  5
1FBE
  8
TITLE
 10
138.17835846748949
 20
36.604232925136792
 30
0.0
 11
139.4937292540007
 21
37.91960371165591
 31
0.0
  0
LINE
  5
1FBF
  8
TITLE
 10
138.17835846748949
 20
36.516948052493269
 30
0.0
 11
139.4937292540007
 21
37.832318839008849
 31
0.0
  0
LINE
  5
1FC0
  8
TITLE
 10
138.17835846748949
 20
36.42966317984633
 30
0.0
 11
139.4937292540007
 21
37.745033966361802
 31
0.0
  0
LINE
  5
1FC1
  8
TITLE
 10
136.26559155389481
 20
36.69901808241287
 30
0.0
 11
137.81064334461729
 21
38.244069873139097
 31
0.0
  0
LINE
  5
1FC2
  8
TITLE
 10
136.36472098974991
 20
36.710862645627799
 30
0.0
 11
137.96114514669441
 21
38.30728680256891
 31
0.0
  0
LINE
  5
1FC3
  8
TITLE
 10
137.00768852730599
 20
36.830120947301012
 30
0.0
 11
139.29926065819831
 21
39.121693078193744
 31
0.0
  0
LINE
  5
1FC4
  8
TITLE
 10
136.67480150505571
 20
36.759088542992451
 30
0.0
 11
138.4835440896168
 21
38.567831127553411
 31
0.0
  0
LINE
  5
1FC5
  8
TITLE
 10
136.4658662677252
 20
36.724723050955852
 30
0.0
 11
138.1211753907109
 21
38.38003217394192
 31
0.0
  0
LINE
  5
1FC6
  8
TITLE
 10
136.56917158942679
 20
36.74074350000717
 30
0.0
 11
138.29336139830909
 21
38.464933308892803
 31
0.0
  0
LINE
  5
1FC7
  8
TITLE
 10
136.78294519211201
 20
36.779947357401397
 30
0.0
 11
138.82879720034271
 21
38.825799365632172
 31
0.0
  0
LINE
  5
1FC8
  8
TITLE
 10
136.8938219711826
 20
36.803539263828853
 30
0.0
 11
139.08383951003401
 21
38.993556802679791
 31
0.0
  0
LINE
  5
1FC9
  8
TITLE
 10
138.17835846748949
 20
34.683965726917343
 30
0.0
 11
139.4937292540007
 21
35.999336513432702
 31
0.0
  0
LINE
  5
1FCA
  8
TITLE
 10
138.17835846748949
 20
34.596680854269948
 30
0.0
 11
139.4937292540007
 21
35.912051640785648
 31
0.0
  0
LINE
  5
1FCB
  8
TITLE
 10
138.17835846748949
 20
34.509395981623129
 30
0.0
 11
139.4937292540007
 21
35.824766768138382
 31
0.0
  0
LINE
  5
1FCC
  8
TITLE
 10
138.17835846748949
 20
34.422111108979493
 30
0.0
 11
139.4937292540007
 21
35.737481895494859
 31
0.0
  0
LINE
  5
1FCD
  8
TITLE
 10
138.17835846748949
 20
34.334826236332219
 30
0.0
 11
139.4937292540007
 21
35.650197022847678
 31
0.0
  0
LINE
  5
1FCE
  8
TITLE
 10
138.22148146789169
 20
34.290664364088229
 30
0.0
 11
139.4937292540007
 21
35.562912150200532
 31
0.0
  0
LINE
  5
1FCF
  8
TITLE
 10
138.5706209584805
 20
34.290664364088229
 30
0.0
 11
139.4937292540007
 21
35.213772659615529
 31
0.0
  0
LINE
  5
1FD0
  8
TITLE
 10
138.65790583112039
 20
34.290664364088229
 30
0.0
 11
139.4937292540007
 21
35.126487786968603
 31
0.0
  0
LINE
  5
1FD1
  8
TITLE
 10
138.74519070376749
 20
34.290664364088229
 30
0.0
 11
139.4937292540007
 21
35.03920291432123
 31
0.0
  0
LINE
  5
1FD2
  8
TITLE
 10
138.83247557641471
 20
34.290664364088229
 30
0.0
 11
139.4937292540007
 21
34.951918041674048
 31
0.0
  0
LINE
  5
1FD3
  8
TITLE
 10
138.48333608583329
 20
34.290664364088229
 30
0.0
 11
139.4937292540007
 21
35.30105753226281
 31
0.0
  0
LINE
  5
1FD4
  8
TITLE
 10
138.30876634053951
 20
34.290664364088229
 30
0.0
 11
139.4937292540007
 21
35.475627277557138
 31
0.0
  0
LINE
  5
1FD5
  8
TITLE
 10
138.39605121318621
 20
34.290664364088229
 30
0.0
 11
139.4937292540007
 21
35.388342404909856
 31
0.0
  0
LINE
  5
1FD6
  8
TITLE
 10
138.91976044906181
 20
34.290664364088229
 30
0.0
 11
139.4937292540007
 21
34.864633169026888
 31
0.0
  0
LINE
  5
1FD7
  8
TITLE
 10
139.007045321709
 20
34.290664364088229
 30
0.0
 11
139.4937292540007
 21
34.777348296383373
 31
0.0
  0
LINE
  5
1FD8
  8
TITLE
 10
139.09433019435619
 20
34.290664364088229
 30
0.0
 11
139.4937292540007
 21
34.690063423736319
 31
0.0
  0
LINE
  5
1FD9
  8
TITLE
 10
139.1816150670038
 20
34.290664364088229
 30
0.0
 11
139.4937292540007
 21
34.602778551089159
 31
0.0
  0
LINE
  5
1FDA
  8
TITLE
 10
139.26889993965091
 20
34.290664364088229
 30
0.0
 11
139.4937292540007
 21
34.515493678445871
 31
0.0
  0
LINE
  5
1FDB
  8
TITLE
 10
139.3561848122977
 20
34.290664364088229
 30
0.0
 11
139.4937292540007
 21
34.428208805798818
 31
0.0
  0
LINE
  5
1FDC
  8
TITLE
 10
139.4434696849448
 20
34.290664364088229
 30
0.0
 11
139.4937292540007
 21
34.34092393315121
 31
0.0
  0
LINE
  5
1FDD
  8
TITLE
 10
138.17835846748949
 20
35.905953943966892
 30
0.0
 11
139.4937292540007
 21
37.221324730485662
 31
0.0
  0
LINE
  5
1FDE
  8
TITLE
 10
138.17835846748949
 20
35.818669071319619
 30
0.0
 11
139.4937292540007
 21
37.134039857838403
 31
0.0
  0
LINE
  5
1FDF
  8
TITLE
 10
138.17835846748949
 20
35.731384198672792
 30
0.0
 11
139.4937292540007
 21
37.046754985191342
 31
0.0
  0
LINE
  5
1FE0
  8
TITLE
 10
138.17835846748949
 20
35.644099326025639
 30
0.0
 11
139.4937292540007
 21
36.959470112544309
 31
0.0
  0
LINE
  5
1FE1
  8
TITLE
 10
138.17835846748949
 20
35.556814453381662
 30
0.0
 11
139.4937292540007
 21
36.872185239897249
 31
0.0
  0
LINE
  5
1FE2
  8
TITLE
 10
138.17835846748949
 20
35.469529580734722
 30
0.0
 11
139.4937292540007
 21
36.784900367250103
 31
0.0
  0
LINE
  5
1FE3
  8
TITLE
 10
138.17835846748949
 20
35.38224470809098
 30
0.0
 11
139.4937292540007
 21
36.697615494602807
 31
0.0
  0
LINE
  5
1FE4
  8
TITLE
 10
138.17835846748949
 20
34.771250599561078
 30
0.0
 11
139.4937292540007
 21
36.086621386079848
 31
0.0
  0
LINE
  5
1FE5
  8
TITLE
 10
138.17835846748949
 20
35.294959835443599
 30
0.0
 11
139.4937292540007
 21
36.610330621959072
 31
0.0
  0
LINE
  5
1FE6
  8
TITLE
 10
138.17835846748949
 20
35.207674962796773
 30
0.0
 11
139.4937292540007
 21
36.523045749312011
 31
0.0
  0
LINE
  5
1FE7
  8
TITLE
 10
138.17835846748949
 20
35.120390090149499
 30
0.0
 11
139.4937292540007
 21
36.435760876664851
 31
0.0
  0
LINE
  5
1FE8
  8
TITLE
 10
138.17835846748949
 20
35.033105217502211
 30
0.0
 11
139.4937292540007
 21
36.348476004021222
 31
0.0
  0
LINE
  5
1FE9
  8
TITLE
 10
138.17835846748949
 20
34.945820344855179
 30
0.0
 11
139.4937292540007
 21
36.261191131374183
 31
0.0
  0
LINE
  5
1FEA
  8
TITLE
 10
138.17835846748949
 20
34.858535472208011
 30
0.0
 11
139.4937292540007
 21
36.173906258726788
 31
0.0
  0
LINE
  5
1FEB
  8
TITLE
 10
138.17835846748949
 20
35.993238816613832
 30
0.0
 11
139.4937292540007
 21
37.308609603133171
 31
0.0
  0
LINE
  5
1FEC
  8
TITLE
 10
135.70691449470951
 20
36.66405025911024
 30
0.0
 11
137.03514973620389
 21
37.992285500604801
 31
0.0
  0
LINE
  5
1FED
  8
TITLE
 10
135.7961874517286
 20
36.666038343485411
 30
0.0
 11
137.15314117007529
 21
38.022992061829079
 31
0.0
  0
LINE
  5
1FEE
  8
TITLE
 10
135.886889893708
 20
36.66945591281808
 30
0.0
 11
137.27488665635019
 21
38.057452675456943
 31
0.0
  0
LINE
  5
1FEF
  8
TITLE
 10
137.12484853071871
 20
36.859996078069798
 30
0.0
 11
139.4908127055173
 21
39.225960252872262
 31
0.0
  0
LINE
  5
1FF0
  8
TITLE
 10
141.8134034113063
 20
39.279144269850008
 30
0.0
 11
142.3895473928151
 21
39.855288251358161
 31
0.0
  0
LINE
  5
1FF1
  8
TITLE
 10
141.8134034113063
 20
39.191859397202613
 30
0.0
 11
142.47683226546209
 21
39.855288251358161
 31
0.0
  0
LINE
  5
1FF2
  8
TITLE
 10
143.66203262479209
 20
38.421942431288372
 30
0.0
 11
145.09537844485521
 21
39.855288251358161
 31
0.0
  0
LINE
  5
1FF3
  8
TITLE
 10
143.66203262479209
 20
38.334657558645048
 30
0.0
 11
145.1826633175024
 21
39.855288251358161
 31
0.0
  0
LINE
  5
1FF4
  8
TITLE
 10
143.66203262479209
 20
38.247372685997682
 30
0.0
 11
145.26994819014911
 21
39.855288251358161
 31
0.0
  0
LINE
  5
1FF5
  8
TITLE
 10
143.66203262479209
 20
38.160087813350742
 30
0.0
 11
145.35723306279669
 21
39.855288251358161
 31
0.0
  0
LINE
  5
1FF6
  8
TITLE
 10
143.66203262479209
 20
38.072802940706993
 30
0.0
 11
145.4445179354438
 21
39.855288251358161
 31
0.0
  0
LINE
  5
1FF7
  8
TITLE
 10
143.66203262479209
 20
37.985518068059598
 30
0.0
 11
145.53180280809099
 21
39.855288251358161
 31
0.0
  0
LINE
  5
1FF8
  8
TITLE
 10
143.66203262479209
 20
37.898233195412793
 30
0.0
 11
145.61908768073809
 21
39.855288251358161
 31
0.0
  0
LINE
  5
1FF9
  8
TITLE
 10
143.66203262479209
 20
37.810948322765739
 30
0.0
 11
145.7063725533848
 21
39.855288251358161
 31
0.0
  0
LINE
  5
1FFA
  8
TITLE
 10
143.66203262479209
 20
37.723663450118238
 30
0.0
 11
145.79365742603201
 21
39.855288251358161
 31
0.0
  0
LINE
  5
1FFB
  8
TITLE
 10
143.3722638535728
 20
38.743167768598482
 30
0.0
 11
144.48438433633231
 21
39.855288251358161
 31
0.0
  0
LINE
  5
1FFC
  8
TITLE
 10
143.45954872621951
 20
38.743167768598482
 30
0.0
 11
144.57166920897899
 21
39.855288251358161
 31
0.0
  0
LINE
  5
1FFD
  8
TITLE
 10
143.54683359886661
 20
38.743167768598482
 30
0.0
 11
144.65895408162669
 21
39.855288251358161
 31
0.0
  0
LINE
  5
1FFE
  8
TITLE
 10
143.6341184715138
 20
38.743167768598482
 30
0.0
 11
144.74623895427339
 21
39.855288251358161
 31
0.0
  0
LINE
  5
1FFF
  8
TITLE
 10
143.66203262479209
 20
38.683797049229852
 30
0.0
 11
144.83352382692101
 21
39.855288251358161
 31
0.0
  0
LINE
  5
2000
  8
TITLE
 10
143.66203262479209
 20
38.596512176582912
 30
0.0
 11
144.9208086995682
 21
39.855288251358161
 31
0.0
  0
LINE
  5
2001
  8
TITLE
 10
143.66203262479209
 20
38.509227303935518
 30
0.0
 11
145.008093572208
 21
39.855288251358161
 31
0.0
  0
LINE
  5
2002
  8
TITLE
 10
143.66203262479209
 20
37.636378577471191
 30
0.0
 11
145.88094229867241
 21
39.855288251358161
 31
0.0
  0
LINE
  5
2003
  8
TITLE
 10
143.66203262479209
 20
37.549093704824031
 30
0.0
 11
145.96822717131951
 21
39.855288251358161
 31
0.0
  0
LINE
  5
2004
  8
TITLE
 10
142.7612697450495
 20
38.743167768598482
 30
0.0
 11
143.87339022780901
 21
39.855288251358161
 31
0.0
  0
LINE
  5
2005
  8
TITLE
 10
142.84855461768981
 20
38.743167768598482
 30
0.0
 11
143.96067510045671
 21
39.855288251358161
 31
0.0
  0
LINE
  5
2006
  8
TITLE
 10
142.935839490337
 20
38.743167768598482
 30
0.0
 11
144.04795997309611
 21
39.855288251358161
 31
0.0
  0
LINE
  5
2007
  8
TITLE
 10
143.02312436298411
 20
38.743167768598482
 30
0.0
 11
144.1352448457437
 21
39.855288251358161
 31
0.0
  0
LINE
  5
2008
  8
TITLE
 10
143.11040923563081
 20
38.743167768598482
 30
0.0
 11
144.2225297183904
 21
39.855288251358161
 31
0.0
  0
LINE
  5
2009
  8
TITLE
 10
143.19769410827851
 20
38.743167768598482
 30
0.0
 11
144.30981459103759
 21
39.855288251358161
 31
0.0
  0
LINE
  5
200A
  8
TITLE
 10
143.28497898092559
 20
38.743167768598482
 30
0.0
 11
144.39709946368521
 21
39.855288251358161
 31
0.0
  0
LINE
  5
200B
  8
TITLE
 10
142.3248453818141
 20
38.743167768598482
 30
0.0
 11
143.43696586457369
 21
39.855288251358161
 31
0.0
  0
LINE
  5
200C
  8
TITLE
 10
142.41213025446129
 20
38.743167768598482
 30
0.0
 11
143.5242507372204
 21
39.855288251358161
 31
0.0
  0
LINE
  5
200D
  8
TITLE
 10
142.49941512710799
 20
38.743167768598482
 30
0.0
 11
143.61153560986801
 21
39.855288251358161
 31
0.0
  0
LINE
  5
200E
  8
TITLE
 10
142.58669999975521
 20
38.743167768598482
 30
0.0
 11
143.69882048251469
 21
39.855288251358161
 31
0.0
  0
LINE
  5
200F
  8
TITLE
 10
142.67398487240229
 20
38.743167768598482
 30
0.0
 11
143.78610535516231
 21
39.855288251358161
 31
0.0
  0
LINE
  5
2010
  8
TITLE
 10
142.23756050916651
 20
38.743167768598482
 30
0.0
 11
143.3496809919265
 21
39.855288251358161
 31
0.0
  0
LINE
  5
2011
  8
TITLE
 10
142.15027563651941
 20
38.743167768598482
 30
0.0
 11
143.2623961192794
 21
39.855288251358161
 31
0.0
  0
LINE
  5
2012
  8
TITLE
 10
141.8134034113063
 20
39.017289651908072
 30
0.0
 11
142.6514020107561
 21
39.855288251358161
 31
0.0
  0
LINE
  5
2013
  8
TITLE
 10
141.8134034113063
 20
38.93000477926126
 30
0.0
 11
142.73868688340369
 21
39.855288251358161
 31
0.0
  0
LINE
  5
2014
  8
TITLE
 10
141.8134034113063
 20
38.842719906613873
 30
0.0
 11
142.82597175605039
 21
39.855288251358161
 31
0.0
  0
LINE
  5
2015
  8
TITLE
 10
141.8134034113063
 20
38.755435033966691
 30
0.0
 11
142.91325662869801
 21
39.855288251358161
 31
0.0
  0
LINE
  5
2016
  8
TITLE
 10
141.8884210185779
 20
38.743167768598482
 30
0.0
 11
143.00054150134471
 21
39.855288251358161
 31
0.0
  0
LINE
  5
2017
  8
TITLE
 10
141.975705891225
 20
38.743167768598482
 30
0.0
 11
143.0878263739919
 21
39.855288251358161
 31
0.0
  0
LINE
  5
2018
  8
TITLE
 10
142.06299076387259
 20
38.743167768598482
 30
0.0
 11
143.17511124663179
 21
39.855288251358161
 31
0.0
  0
LINE
  5
2019
  8
TITLE
 10
141.8134034113063
 20
39.104574524555233
 30
0.0
 11
142.56411713810891
 21
39.855288251358161
 31
0.0
  0
LINE
  5
201A
  8
TITLE
 10
144.94339156120711
 20
38.743167768598482
 30
0.0
 11
146.0555120439667
 21
39.855288251358161
 31
0.0
  0
LINE
  5
201B
  8
TITLE
 10
145.03067643385381
 20
38.743167768598482
 30
0.0
 11
146.1427969166138
 21
39.855288251358161
 31
0.0
  0
LINE
  5
201C
  8
TITLE
 10
145.117961306501
 20
38.743167768598482
 30
0.0
 11
146.23008178926099
 21
39.855288251358161
 31
0.0
  0
LINE
  5
201D
  8
TITLE
 10
145.55438566973001
 20
38.743167768598482
 30
0.0
 11
146.66650615249631
 21
39.855288251358161
 31
0.0
  0
LINE
  5
201E
  8
TITLE
 10
145.64167054237669
 20
38.743167768598482
 30
0.0
 11
146.75379102514401
 21
39.855288251358161
 31
0.0
  0
LINE
  5
201F
  8
TITLE
 10
145.72895541502379
 20
38.743167768598482
 30
0.0
 11
146.7549315011947
 21
39.769143854765723
 31
0.0
  0
LINE
  5
2020
  8
TITLE
 10
145.81624028767101
 20
38.743167768598482
 30
0.0
 11
146.7549315011947
 21
39.681858982121753
 31
0.0
  0
LINE
  5
2021
  8
TITLE
 10
145.90352516031859
 20
38.743167768598482
 30
0.0
 11
146.7549315011947
 21
39.594574109474721
 31
0.0
  0
LINE
  5
2022
  8
TITLE
 10
145.9908100329653
 20
38.743167768598482
 30
0.0
 11
146.7549315011947
 21
39.507289236827553
 31
0.0
  0
LINE
  5
2023
  8
TITLE
 10
146.0780949056128
 20
38.743167768598482
 30
0.0
 11
146.7549315011947
 21
39.420004364180272
 31
0.0
  0
LINE
  5
2024
  8
TITLE
 10
146.1653797782601
 20
38.743167768598482
 30
0.0
 11
146.7549315011947
 21
39.332719491533339
 31
0.0
  0
LINE
  5
2025
  8
TITLE
 10
145.4671007970901
 20
38.743167768598482
 30
0.0
 11
146.57922127984941
 21
39.855288251358161
 31
0.0
  0
LINE
  5
2026
  8
TITLE
 10
145.20524617914859
 20
38.743167768598482
 30
0.0
 11
146.3173666619081
 21
39.855288251358161
 31
0.0
  0
LINE
  5
2027
  8
TITLE
 10
145.29253105179581
 20
38.743167768598482
 30
0.0
 11
146.40465153455531
 21
39.855288251358161
 31
0.0
  0
LINE
  5
2028
  8
TITLE
 10
145.37981592444291
 20
38.743167768598482
 30
0.0
 11
146.49193640720199
 21
39.855288251358161
 31
0.0
  0
LINE
  5
2029
  8
TITLE
 10
139.9462940002563
 20
38.284883585264211
 30
0.0
 11
141.3601337483824
 21
39.698723333390149
 31
0.0
  0
LINE
  5
202A
  8
TITLE
 10
140.09331629552699
 20
38.344621007887781
 30
0.0
 11
141.3601337483824
 21
39.611438460742882
 31
0.0
  0
LINE
  5
202B
  8
TITLE
 10
140.23350378221721
 20
38.397523621927242
 30
0.0
 11
141.3601337483824
 21
39.524153588095828
 31
0.0
  0
LINE
  5
202C
  8
TITLE
 10
139.79104971230299
 20
38.216924169958247
 30
0.0
 11
141.3601337483824
 21
39.786008206037309
 31
0.0
  0
LINE
  5
202D
  8
TITLE
 10
140.3678826130585
 20
38.444617580124962
 30
0.0
 11
141.3601337483824
 21
39.43686871545242
 31
0.0
  0
LINE
  5
202E
  8
TITLE
 10
140.49723749477741
 20
38.48668758919689
 30
0.0
 11
141.3601337483824
 21
39.349583842805153
 31
0.0
  0
LINE
  5
202F
  8
TITLE
 10
143.66203262479209
 20
36.152535742483799
 30
0.0
 11
144.90630228770851
 21
37.396805405404052
 31
0.0
  0
LINE
  5
2030
  8
TITLE
 10
143.66203262479209
 20
36.065250869836753
 30
0.0
 11
144.90630228770851
 21
37.309520532756771
 31
0.0
  0
LINE
  5
2031
  8
TITLE
 10
143.66203262479209
 20
36.414390360421862
 30
0.0
 11
144.90630228770851
 21
37.658660023341547
 31
0.0
  0
LINE
  5
2032
  8
TITLE
 10
143.66203262479209
 20
36.327105487774702
 30
0.0
 11
144.90630228770851
 21
37.571375150694401
 31
0.0
  0
LINE
  5
2033
  8
TITLE
 10
143.66203262479209
 20
36.239820615130732
 30
0.0
 11
144.90630228770851
 21
37.484090278050871
 31
0.0
  0
LINE
  5
2034
  8
TITLE
 10
143.66203262479209
 20
37.461808832177098
 30
0.0
 11
144.90630228770851
 21
38.706078495100101
 31
0.0
  0
LINE
  5
2035
  8
TITLE
 10
143.66203262479209
 20
37.374523959533583
 30
0.0
 11
144.90630228770851
 21
38.618793622452813
 31
0.0
  0
LINE
  5
2036
  8
TITLE
 10
143.66203262479209
 20
37.287239086885961
 30
0.0
 11
144.90630228770851
 21
38.531508749805887
 31
0.0
  0
LINE
  5
2037
  8
TITLE
 10
143.66203262479209
 20
37.199954214242439
 30
0.0
 11
144.90630228770851
 21
38.444223877158841
 31
0.0
  0
LINE
  5
2038
  8
TITLE
 10
143.66203262479209
 20
37.112669341595172
 30
0.0
 11
144.90630228770851
 21
38.356939004515198
 31
0.0
  0
LINE
  5
2039
  8
TITLE
 10
143.66203262479209
 20
37.025384468948232
 30
0.0
 11
144.90630228770851
 21
38.269654131867931
 31
0.0
  0
LINE
  5
203A
  8
TITLE
 10
143.66203262479209
 20
36.938099596301413
 30
0.0
 11
144.90630228770851
 21
38.182369259224643
 31
0.0
  0
LINE
  5
203B
  8
TITLE
 10
143.66203262479209
 20
36.850814723653798
 30
0.0
 11
144.90630228770851
 21
38.095084386577241
 31
0.0
  0
LINE
  5
203C
  8
TITLE
 10
143.66203262479209
 20
36.763529851006972
 30
0.0
 11
144.90630228770851
 21
38.007799513930308
 31
0.0
  0
LINE
  5
203D
  8
TITLE
 10
143.66203262479209
 20
36.676244978359477
 30
0.0
 11
144.90630228770851
 21
37.920514641283148
 31
0.0
  0
LINE
  5
203E
  8
TITLE
 10
143.66203262479209
 20
36.588960105712317
 30
0.0
 11
144.90630228770851
 21
37.833229768635867
 31
0.0
  0
LINE
  5
203F
  8
TITLE
 10
143.66203262479209
 20
36.501675233069022
 30
0.0
 11
144.90630228770851
 21
37.745944895988828
 31
0.0
  0
LINE
  5
2040
  8
TITLE
 10
143.19671920873679
 20
34.290664364088229
 30
0.0
 11
144.90630228770851
 21
36.000247443059827
 31
0.0
  0
LINE
  5
2041
  8
TITLE
 10
143.2840040813839
 20
34.290664364088229
 30
0.0
 11
144.90630228770851
 21
35.912962570412787
 31
0.0
  0
LINE
  5
2042
  8
TITLE
 10
143.37128895403109
 20
34.290664364088229
 30
0.0
 11
144.90630228770851
 21
35.825677697765506
 31
0.0
  0
LINE
  5
2043
  8
TITLE
 10
143.4585738266783
 20
34.290664364088229
 30
0.0
 11
144.90630228770851
 21
35.73839282511824
 31
0.0
  0
LINE
  5
2044
  8
TITLE
 10
143.54585869932541
 20
34.290664364088229
 30
0.0
 11
144.90630228770851
 21
35.651107952474717
 31
0.0
  0
LINE
  5
2045
  8
TITLE
 10
143.6331435719726
 20
34.290664364088229
 30
0.0
 11
144.90630228770851
 21
35.563823079827571
 31
0.0
  0
LINE
  5
2046
  8
TITLE
 10
143.7204284446197
 20
34.290664364088229
 30
0.0
 11
144.90630228770851
 21
35.476538207184269
 31
0.0
  0
LINE
  5
2047
  8
TITLE
 10
143.8077133172664
 20
34.290664364088229
 30
0.0
 11
144.93623919368559
 21
35.419190240506971
 31
0.0
  0
LINE
  5
2048
  8
TITLE
 10
142.58572510021381
 20
34.290664364088229
 30
0.0
 11
144.90630228770851
 21
36.611241551586318
 31
0.0
  0
LINE
  5
2049
  8
TITLE
 10
142.67300997286111
 20
34.290664364088229
 30
0.0
 11
144.90630228770851
 21
36.523956678939157
 31
0.0
  0
LINE
  5
204A
  8
TITLE
 10
142.76029484550821
 20
34.290664364088229
 30
0.0
 11
144.90630228770851
 21
36.436671806292331
 31
0.0
  0
LINE
  5
204B
  8
TITLE
 10
142.8475797181554
 20
34.290664364088229
 30
0.0
 11
144.90630228770851
 21
36.349386933648809
 31
0.0
  0
LINE
  5
204C
  8
TITLE
 10
142.93486459080211
 20
34.290664364088229
 30
0.0
 11
144.90630228770851
 21
36.262102061001208
 31
0.0
  0
LINE
  5
204D
  8
TITLE
 10
143.02214946344969
 20
34.290664364088229
 30
0.0
 11
144.90630228770851
 21
36.174817188353828
 31
0.0
  0
LINE
  5
204E
  8
TITLE
 10
143.10943433609009
 20
34.290664364088229
 30
0.0
 11
144.90630228770851
 21
36.087532315707108
 31
0.0
  0
LINE
  5
204F
  8
TITLE
 10
143.66203262479209
 20
35.977965997189933
 30
0.0
 11
144.90630228770851
 21
37.222235660112801
 31
0.0
  0
LINE
  5
2050
  8
TITLE
 10
143.66203262479209
 20
35.890681124542532
 30
0.0
 11
144.90630228770851
 21
37.134950787465641
 31
0.0
  0
LINE
  5
2051
  8
TITLE
 10
143.66203262479209
 20
35.803396251895151
 30
0.0
 11
144.90630228770851
 21
37.047665914818602
 31
0.0
  0
LINE
  5
2052
  8
TITLE
 10
143.66203262479209
 20
35.716111379247756
 30
0.0
 11
144.90630228770851
 21
36.960381042171427
 31
0.0
  0
LINE
  5
2053
  8
TITLE
 10
143.66203262479209
 20
35.628826506604241
 30
0.0
 11
144.90630228770851
 21
36.873096169524487
 31
0.0
  0
LINE
  5
2054
  8
TITLE
 10
143.66203262479209
 20
35.54154163395777
 30
0.0
 11
144.90630228770851
 21
36.785811296877121
 31
0.0
  0
LINE
  5
2055
  8
TITLE
 10
143.66203262479209
 20
35.454256761310269
 30
0.0
 11
144.90630228770851
 21
36.698526424229861
 31
0.0
  0
LINE
  5
2056
  8
TITLE
 10
140.86074372522799
 20
38.588339201709452
 30
0.0
 11
141.3601337483824
 21
39.08772922486731
 31
0.0
  0
LINE
  5
2057
  8
TITLE
 10
141.3017276160158
 20
38.680183601908652
 30
0.0
 11
141.3601337483824
 21
38.73858973427842
 31
0.0
  0
LINE
  5
2058
  8
TITLE
 10
141.1953641685613
 20
38.661105027101478
 30
0.0
 11
141.3601337483824
 21
38.825874606925687
 31
0.0
  0
LINE
  5
2059
  8
TITLE
 10
140.9750952848899
 20
38.615405888720367
 30
0.0
 11
141.3601337483824
 21
39.000444352220264
 31
0.0
  0
LINE
  5
205A
  8
TITLE
 10
141.08655544654491
 20
38.639581177735408
 30
0.0
 11
141.3601337483824
 21
38.913159479572869
 31
0.0
  0
LINE
  5
205B
  8
TITLE
 10
142.32387048227241
 20
34.290664364088229
 30
0.0
 11
143.4523963586912
 21
35.419190240506971
 31
0.0
  0
LINE
  5
205C
  8
TITLE
 10
142.41115535491909
 20
34.290664364088229
 30
0.0
 11
143.53968123133791
 21
35.419190240506971
 31
0.0
  0
LINE
  5
205D
  8
TITLE
 10
142.49844022756679
 20
34.290664364088229
 30
0.0
 11
143.6269661039855
 21
35.419190240506971
 31
0.0
  0
LINE
  5
205E
  8
TITLE
 10
142.23658560962531
 20
34.290664364088229
 30
0.0
 11
143.36511148605081
 21
35.419190240506971
 31
0.0
  0
LINE
  5
205F
  8
TITLE
 10
142.1493007369854
 20
34.290664364088229
 30
0.0
 11
143.2778266134041
 21
35.419190240506971
 31
0.0
  0
LINE
  5
2060
  8
TITLE
 10
141.62559150110241
 20
34.290664364088229
 30
0.0
 11
142.75411737752071
 21
35.419190240506971
 31
0.0
  0
LINE
  5
2061
  8
TITLE
 10
141.71287637374959
 20
34.290664364088229
 30
0.0
 11
142.8414022501683
 21
35.419190240506971
 31
0.0
  0
LINE
  5
2062
  8
TITLE
 10
141.80016124639681
 20
34.290664364088229
 30
0.0
 11
142.92868712281501
 21
35.419190240506971
 31
0.0
  0
LINE
  5
2063
  8
TITLE
 10
141.88744611904389
 20
34.290664364088229
 30
0.0
 11
143.01597199546271
 21
35.419190240506971
 31
0.0
  0
LINE
  5
2064
  8
TITLE
 10
141.97473099169059
 20
34.290664364088229
 30
0.0
 11
143.10325686810981
 21
35.419190240506971
 31
0.0
  0
LINE
  5
2065
  8
TITLE
 10
142.06201586433809
 20
34.290664364088229
 30
0.0
 11
143.190541740757
 21
35.419190240506971
 31
0.0
  0
LINE
  5
2066
  8
TITLE
 10
141.3601337483824
 20
35.33447970106829
 30
0.0
 11
141.44484428782809
 21
35.419190240506971
 31
0.0
  0
LINE
  5
2067
  8
TITLE
 10
141.3601337483824
 20
35.24719482842125
 30
0.0
 11
141.5321291604682
 21
35.419190240506971
 31
0.0
  0
LINE
  5
2068
  8
TITLE
 10
141.3601337483824
 20
34.810770465188732
 30
0.0
 11
141.968553523704
 21
35.419190240506971
 31
0.0
  0
LINE
  5
2069
  8
TITLE
 10
141.3601337483824
 20
34.72348559254533
 30
0.0
 11
142.05583839635071
 21
35.419190240506971
 31
0.0
  0
LINE
  5
206A
  8
TITLE
 10
141.3601337483824
 20
34.898055337836013
 30
0.0
 11
141.8812686510569
 21
35.419190240506971
 31
0.0
  0
LINE
  5
206B
  8
TITLE
 10
141.3601337483824
 20
35.159909955773969
 30
0.0
 11
141.61941403311491
 21
35.419190240506971
 31
0.0
  0
LINE
  5
206C
  8
TITLE
 10
141.3601337483824
 20
35.07262508312693
 30
0.0
 11
141.70669890576241
 21
35.419190240506971
 31
0.0
  0
LINE
  5
206D
  8
TITLE
 10
141.3601337483824
 20
34.985340210479762
 30
0.0
 11
141.79398377840971
 21
35.419190240506971
 31
0.0
  0
LINE
  5
206E
  8
TITLE
 10
141.3601337483824
 20
34.636200719898277
 30
0.0
 11
142.14312326899821
 21
35.419190240506971
 31
0.0
  0
LINE
  5
206F
  8
TITLE
 10
141.3601337483824
 20
34.548915847251131
 30
0.0
 11
142.23040814164551
 21
35.419190240506971
 31
0.0
  0
LINE
  5
2070
  8
TITLE
 10
141.3601337483824
 20
34.46163097460375
 30
0.0
 11
142.31769301429259
 21
35.419190240506971
 31
0.0
  0
LINE
  5
2071
  8
TITLE
 10
141.3601337483824
 20
34.37434610195703
 30
0.0
 11
142.4049778869325
 21
35.419190240506971
 31
0.0
  0
LINE
  5
2072
  8
TITLE
 10
141.36373688316101
 20
34.290664364088229
 30
0.0
 11
142.49226275957969
 21
35.419190240506971
 31
0.0
  0
LINE
  5
2073
  8
TITLE
 10
141.45102175580769
 20
34.290664364088229
 30
0.0
 11
142.57954763222691
 21
35.419190240506971
 31
0.0
  0
LINE
  5
2074
  8
TITLE
 10
141.53830662845479
 20
34.290664364088229
 30
0.0
 11
142.66683250487401
 21
35.419190240506971
 31
0.0
  0
LINE
  5
2075
  8
TITLE
 10
140.74321866771919
 20
38.558099016847223
 30
0.0
 11
141.3601337483824
 21
39.175014097514577
 31
0.0
  0
LINE
  5
2076
  8
TITLE
 10
140.62218465666271
 20
38.524349878441967
 30
0.0
 11
141.3601337483824
 21
39.26229897016141
 31
0.0
  0
LINE
  5
2077
  8
TITLE
 10
146.68908901413579
 20
38.743167768598482
 30
0.0
 11
146.7549315011947
 21
38.809010255654023
 31
0.0
  0
LINE
  5
2078
  8
TITLE
 10
146.6018041414886
 20
38.743167768598482
 30
0.0
 11
146.7549315011947
 21
38.896295128301063
 31
0.0
  0
LINE
  5
2079
  8
TITLE
 10
147.6481874641326
 20
35.42530745891316
 30
0.0
 11
147.66171308220009
 21
35.438833076981723
 31
0.0
  0
LINE
  5
207A
  8
TITLE
 10
146.60082924195419
 20
34.290664364088229
 30
0.0
 11
147.20820116411869
 21
34.898036286252477
 31
0.0
  0
LINE
  5
207B
  8
TITLE
 10
146.6881141146018
 20
34.290664364088229
 30
0.0
 11
147.20820116411869
 21
34.810751413605203
 31
0.0
  0
LINE
  5
207C
  8
TITLE
 10
146.77539898724169
 20
34.290664364088229
 30
0.0
 11
147.20820116411869
 21
34.72346654095805
 31
0.0
  0
LINE
  5
207D
  8
TITLE
 10
146.86268385988839
 20
34.290664364088229
 30
0.0
 11
147.20820116411869
 21
34.636181668311004
 31
0.0
  0
LINE
  5
207E
  8
TITLE
 10
146.94996873253561
 20
34.290664364088229
 30
0.0
 11
147.20820116411869
 21
34.548896795667702
 31
0.0
  0
LINE
  5
207F
  8
TITLE
 10
147.03725360518271
 20
34.290664364088229
 30
0.0
 11
147.20820116411869
 21
34.461611923020321
 31
0.0
  0
LINE
  5
2080
  8
TITLE
 10
147.1245384778299
 20
34.290664364088229
 30
0.0
 11
147.20820116411869
 21
34.374327050373147
 31
0.0
  0
LINE
  5
2081
  8
TITLE
 10
143.98228306256121
 20
34.290664364088229
 30
0.0
 11
145.11080893898
 21
35.419190240506971
 31
0.0
  0
LINE
  5
2082
  8
TITLE
 10
144.06956793520109
 20
34.290664364088229
 30
0.0
 11
145.1980938116198
 21
35.419190240506971
 31
0.0
  0
LINE
  5
2083
  8
TITLE
 10
144.15685280784831
 20
34.290664364088229
 30
0.0
 11
145.28537868426699
 21
35.419190240506971
 31
0.0
  0
LINE
  5
2084
  8
TITLE
 10
144.24413768049541
 20
34.290664364088229
 30
0.0
 11
145.3726635569146
 21
35.419190240506971
 31
0.0
  0
LINE
  5
2085
  8
TITLE
 10
144.3314225531424
 20
34.290664364088229
 30
0.0
 11
145.45994842956179
 21
35.419190240506971
 31
0.0
  0
LINE
  5
2086
  8
TITLE
 10
143.89499818991359
 20
34.290664364088229
 30
0.0
 11
145.02352406633281
 21
35.419190240506971
 31
0.0
  0
LINE
  5
2087
  8
TITLE
 10
144.41870742578971
 20
34.290664364088229
 30
0.0
 11
145.5472333022085
 21
35.419190240506971
 31
0.0
  0
LINE
  5
2088
  8
TITLE
 10
144.50599229843681
 20
34.290664364088229
 30
0.0
 11
145.6345181748556
 21
35.419190240506971
 31
0.0
  0
LINE
  5
2089
  8
TITLE
 10
144.59327717108411
 20
34.290664364088229
 30
0.0
 11
145.72180304750279
 21
35.419190240506971
 31
0.0
  0
LINE
  5
208A
  8
TITLE
 10
144.6805620437317
 20
34.290664364088229
 30
0.0
 11
145.80908792014989
 21
35.419190240506971
 31
0.0
  0
LINE
  5
208B
  8
TITLE
 10
144.7678469163784
 20
34.290664364088229
 30
0.0
 11
145.89637279279711
 21
35.419190240506971
 31
0.0
  0
LINE
  5
208C
  8
TITLE
 10
144.85513178902551
 20
34.290664364088229
 30
0.0
 11
145.9836576654443
 21
35.419190240506971
 31
0.0
  0
LINE
  5
208D
  8
TITLE
 10
144.94241666166499
 20
34.290664364088229
 30
0.0
 11
146.07094253808421
 21
35.419190240506971
 31
0.0
  0
LINE
  5
208E
  8
TITLE
 10
145.02970153431261
 20
34.290664364088229
 30
0.0
 11
146.15822741073131
 21
35.419190240506971
 31
0.0
  0
LINE
  5
208F
  8
TITLE
 10
145.1169864069598
 20
34.290664364088229
 30
0.0
 11
146.2455122833789
 21
35.419190240506971
 31
0.0
  0
LINE
  5
2090
  8
TITLE
 10
145.2042712796069
 20
34.290664364088229
 30
0.0
 11
146.33279715602561
 21
35.419190240506971
 31
0.0
  0
LINE
  5
2091
  8
TITLE
 10
145.29155615225409
 20
34.290664364088229
 30
0.0
 11
146.42008202867279
 21
35.419190240506971
 31
0.0
  0
LINE
  5
2092
  8
TITLE
 10
145.37884102490119
 20
34.290664364088229
 30
0.0
 11
146.5073669013199
 21
35.419190240506971
 31
0.0
  0
LINE
  5
2093
  8
TITLE
 10
146.339949523554
 20
38.743167768598482
 30
0.0
 11
146.7549315011947
 21
39.15814974623926
 31
0.0
  0
LINE
  5
2094
  8
TITLE
 10
146.4272343961938
 20
38.743167768598482
 30
0.0
 11
146.7549315011947
 21
39.070864873592079
 31
0.0
  0
LINE
  5
2095
  8
TITLE
 10
146.51451926884141
 20
38.743167768598482
 30
0.0
 11
146.7549315011947
 21
38.983580000948088
 31
0.0
  0
LINE
  5
2096
  8
TITLE
 10
146.2516897513656
 20
34.290664364088229
 30
0.0
 11
147.20820116411869
 21
35.247175776841353
 31
0.0
  0
LINE
  5
2097
  8
TITLE
 10
146.33897462401271
 20
34.290664364088229
 30
0.0
 11
147.20820116411869
 21
35.159890904194071
 31
0.0
  0
LINE
  5
2098
  8
TITLE
 10
146.4262594966599
 20
34.290664364088229
 30
0.0
 11
147.20820116411869
 21
35.072606031546798
 31
0.0
  0
LINE
  5
2099
  8
TITLE
 10
146.513544369307
 20
34.290664364088229
 30
0.0
 11
147.20820116411869
 21
34.985321158899971
 31
0.0
  0
LINE
  5
209A
  8
TITLE
 10
145.55341077019551
 20
34.290664364088229
 30
0.0
 11
146.6819366466143
 21
35.419190240506971
 31
0.0
  0
LINE
  5
209B
  8
TITLE
 10
145.6406956428427
 20
34.290664364088229
 30
0.0
 11
146.76922151926141
 21
35.419190240506971
 31
0.0
  0
LINE
  5
209C
  8
TITLE
 10
145.72798051548989
 20
34.290664364088229
 30
0.0
 11
146.85650639190911
 21
35.419190240506971
 31
0.0
  0
LINE
  5
209D
  8
TITLE
 10
145.81526538813699
 20
34.290664364088229
 30
0.0
 11
146.94379126455581
 21
35.419190240506971
 31
0.0
  0
LINE
  5
209E
  8
TITLE
 10
145.90255026077691
 20
34.290664364088229
 30
0.0
 11
147.0310761371957
 21
35.419190240506971
 31
0.0
  0
LINE
  5
209F
  8
TITLE
 10
145.98983513342409
 20
34.290664364088229
 30
0.0
 11
147.1183610098428
 21
35.419190240506971
 31
0.0
  0
LINE
  5
20A0
  8
TITLE
 10
146.0771200060712
 20
34.290664364088229
 30
0.0
 11
147.20564588248999
 21
35.419190240506971
 31
0.0
  0
LINE
  5
20A1
  8
TITLE
 10
146.16440487871839
 20
34.290664364088229
 30
0.0
 11
147.20820116411869
 21
35.334460649484868
 31
0.0
  0
LINE
  5
20A2
  8
TITLE
 10
145.46612589754841
 20
34.290664364088229
 30
0.0
 11
146.59465177396709
 21
35.419190240506971
 31
0.0
  0
LINE
  5
20A3
  8
TITLE
 10
146.25266465090681
 20
38.743167768598482
 30
0.0
 11
146.7549315011947
 21
39.245434618886293
 31
0.0
  0
LINE
  5
20A4
  8
TITLE
 10
141.8134034113063
 20
39.628283760434897
 30
0.0
 11
142.0404079022332
 21
39.855288251358161
 31
0.0
  0
LINE
  5
20A5
  8
TITLE
 10
141.8134034113063
 20
39.540998887787509
 30
0.0
 11
142.12769277488081
 21
39.855288251358161
 31
0.0
  0
LINE
  5
20A6
  8
TITLE
 10
141.8134034113063
 20
39.8028535057257
 30
0.0
 11
141.86583815693891
 21
39.855288251358161
 31
0.0
  0
LINE
  5
20A7
  8
TITLE
 10
141.8134034113063
 20
39.715568633078192
 30
0.0
 11
141.9531230295861
 21
39.855288251358161
 31
0.0
  0
LINE
  5
20A8
  8
TITLE
 10
141.8134034113063
 20
39.453714015140797
 30
0.0
 11
142.2149776475207
 21
39.855288251358161
 31
0.0
  0
LINE
  5
20A9
  8
TITLE
 10
141.8134034113063
 20
39.366429142496827
 30
0.0
 11
142.3022625201674
 21
39.855288251358161
 31
0.0
  0
LINE
  5
20AA
  8
TITLE
 10
155.59117112453939
 20
34.290664364088229
 30
0.0
 11
157.25268124470219
 21
35.952174484254229
 31
0.0
  0
LINE
  5
20AB
  8
TITLE
 10
155.6784559971864
 20
34.290664364088229
 30
0.0
 11
157.25268124470219
 21
35.864889611607062
 31
0.0
  0
LINE
  5
20AC
  8
TITLE
 10
155.76574086983371
 20
34.290664364088229
 30
0.0
 11
157.25268124470219
 21
35.77760473896376
 31
0.0
  0
LINE
  5
20AD
  8
TITLE
 10
155.8530257424809
 20
34.290664364088229
 30
0.0
 11
157.25268124470219
 21
35.690319866316493
 31
0.0
  0
LINE
  5
20AE
  8
TITLE
 10
155.94031061512081
 20
34.290664364088229
 30
0.0
 11
157.25268124470219
 21
35.603034993669439
 31
0.0
  0
LINE
  5
20AF
  8
TITLE
 10
156.02759548776791
 20
34.290664364088229
 30
0.0
 11
157.25268124470219
 21
35.51575012102218
 31
0.0
  0
LINE
  5
20B0
  8
TITLE
 10
156.1148803604151
 20
34.290664364088229
 30
0.0
 11
157.25268124470219
 21
35.42846524837536
 31
0.0
  0
LINE
  5
20B1
  8
TITLE
 10
155.32931650659791
 20
34.290664364088229
 30
0.0
 11
156.18174856996069
 21
35.143096427454793
 31
0.0
  0
LINE
  5
20B2
  8
TITLE
 10
155.41660137924509
 20
34.290664364088229
 30
0.0
 11
157.25268124470219
 21
36.126744229544897
 31
0.0
  0
LINE
  5
20B3
  8
TITLE
 10
155.5038862518918
 20
34.290664364088229
 30
0.0
 11
157.25268124470219
 21
36.039459356901723
 31
0.0
  0
LINE
  5
20B4
  8
TITLE
 10
155.8782284782819
 20
39.029250222800002
 30
0.0
 11
156.70426650684061
 21
39.855288251358161
 31
0.0
  0
LINE
  5
20B5
  8
TITLE
 10
155.96551335092909
 20
39.029250222800002
 30
0.0
 11
156.7915513794805
 21
39.855288251358161
 31
0.0
  0
LINE
  5
20B6
  8
TITLE
 10
156.05279822357659
 20
39.029250222800002
 30
0.0
 11
156.87883625212771
 21
39.855288251358161
 31
0.0
  0
LINE
  5
20B7
  8
TITLE
 10
156.14008309621661
 20
39.029250222800002
 30
0.0
 11
156.9661211247749
 21
39.855288251358161
 31
0.0
  0
LINE
  5
20B8
  8
TITLE
 10
155.35451924239939
 20
39.029250222800002
 30
0.0
 11
156.18055727095771
 21
39.855288251358161
 31
0.0
  0
LINE
  5
20B9
  8
TITLE
 10
155.44180411504661
 20
39.029250222800002
 30
0.0
 11
156.26784214360481
 21
39.855288251358161
 31
0.0
  0
LINE
  5
20BA
  8
TITLE
 10
155.52908898769331
 20
39.029250222800002
 30
0.0
 11
156.3551270162516
 21
39.855288251358161
 31
0.0
  0
LINE
  5
20BB
  8
TITLE
 10
155.6163738603409
 20
39.029250222800002
 30
0.0
 11
156.4424118888991
 21
39.855288251358161
 31
0.0
  0
LINE
  5
20BC
  8
TITLE
 10
155.703658732988
 20
39.029250222800002
 30
0.0
 11
156.52969676154629
 21
39.855288251358161
 31
0.0
  0
LINE
  5
20BD
  8
TITLE
 10
155.79094360563519
 20
39.029250222800002
 30
0.0
 11
156.61698163419351
 21
39.855288251358161
 31
0.0
  0
LINE
  5
20BE
  8
TITLE
 10
154.20383223845741
 20
39.187836308551027
 30
0.0
 11
154.8712841812648
 21
39.855288251358161
 31
0.0
  0
LINE
  5
20BF
  8
TITLE
 10
154.20383223845741
 20
39.275121181198188
 30
0.0
 11
154.78399930861769
 21
39.855288251358161
 31
0.0
  0
LINE
  5
20C0
  8
TITLE
 10
149.2863130848659
 20
39.245554895811331
 30
0.0
 11
149.89604644041259
 21
39.855288251358161
 31
0.0
  0
LINE
  5
20C1
  8
TITLE
 10
154.48167051593509
 20
39.029250222800002
 30
0.0
 11
155.30770854449341
 21
39.855288251358161
 31
0.0
  0
LINE
  5
20C2
  8
TITLE
 10
154.5689553885818
 20
39.029250222800002
 30
0.0
 11
155.39499341714051
 21
39.855288251358161
 31
0.0
  0
LINE
  5
20C3
  8
TITLE
 10
154.6562402612289
 20
39.029250222800002
 30
0.0
 11
155.4822782897877
 21
39.855288251358161
 31
0.0
  0
LINE
  5
20C4
  8
TITLE
 10
154.74352513387609
 20
39.029250222800002
 30
0.0
 11
155.56956316243441
 21
39.855288251358161
 31
0.0
  0
LINE
  5
20C5
  8
TITLE
 10
154.83081000652331
 20
39.029250222800002
 30
0.0
 11
155.65684803508199
 21
39.855288251358161
 31
0.0
  0
LINE
  5
20C6
  8
TITLE
 10
154.91809487917041
 20
39.029250222800002
 30
0.0
 11
155.7441329077287
 21
39.855288251358161
 31
0.0
  0
LINE
  5
20C7
  8
TITLE
 10
155.0053797518176
 20
39.029250222800002
 30
0.0
 11
155.83141778037589
 21
39.855288251358161
 31
0.0
  0
LINE
  5
20C8
  8
TITLE
 10
155.09266462446459
 20
39.029250222800002
 30
0.0
 11
155.91870265301571
 21
39.855288251358161
 31
0.0
  0
LINE
  5
20C9
  8
TITLE
 10
155.1799494971051
 20
39.029250222800002
 30
0.0
 11
156.00598752566339
 21
39.855288251358161
 31
0.0
  0
LINE
  5
20CA
  8
TITLE
 10
155.2672343697522
 20
39.029250222800002
 30
0.0
 11
156.0932723983104
 21
39.855288251358161
 31
0.0
  0
LINE
  5
20CB
  8
TITLE
 10
154.20383223845741
 20
39.100551435903867
 30
0.0
 11
154.95856905390471
 21
39.855288251358161
 31
0.0
  0
LINE
  5
20CC
  8
TITLE
 10
154.21981589800041
 20
39.029250222800002
 30
0.0
 11
155.0458539265519
 21
39.855288251358161
 31
0.0
  0
LINE
  5
20CD
  8
TITLE
 10
154.3071007706408
 20
39.029250222800002
 30
0.0
 11
155.1331387991986
 21
39.855288251358161
 31
0.0
  0
LINE
  5
20CE
  8
TITLE
 10
154.3943856432879
 20
39.029250222800002
 30
0.0
 11
155.22042367184619
 21
39.855288251358161
 31
0.0
  0
LINE
  5
20CF
  8
TITLE
 10
149.19455644270869
 20
38.979228508363349
 30
0.0
 11
150.07061618570691
 21
39.855288251358161
 31
0.0
  0
LINE
  5
20D0
  8
TITLE
 10
149.1486781216299
 20
38.846065314641351
 30
0.0
 11
150.1579010583541
 21
39.855288251358161
 31
0.0
  0
LINE
  5
20D1
  8
TITLE
 10
149.10279980055111
 20
38.7129021209157
 30
0.0
 11
150.24518593100129
 21
39.855288251358161
 31
0.0
  0
LINE
  5
20D2
  8
TITLE
 10
149.05692147948
 20
38.57973892718951
 30
0.0
 11
150.33247080364839
 21
39.855288251358161
 31
0.0
  0
LINE
  5
20D3
  8
TITLE
 10
149.24043476378711
 20
39.112391702089099
 30
0.0
 11
149.98333131305981
 21
39.855288251358161
 31
0.0
  0
LINE
  5
20D4
  8
TITLE
 10
148.87340819516521
 20
38.047086152290149
 30
0.0
 11
150.68161029422981
 21
39.855288251358161
 31
0.0
  0
LINE
  5
20D5
  8
TITLE
 10
148.82752987408639
 20
37.913922958567703
 30
0.0
 11
150.76616307709341
 21
39.852556161578271
 31
0.0
  0
LINE
  5
20D6
  8
TITLE
 10
148.781651553008
 20
37.78075976484196
 30
0.0
 11
150.72028475602201
 21
39.719392967852627
 31
0.0
  0
LINE
  5
20D7
  8
TITLE
 10
149.01104315840121
 20
38.44657573346376
 30
0.0
 11
150.4197556762883
 21
39.855288251358161
 31
0.0
  0
LINE
  5
20D8
  8
TITLE
 10
148.96516483732279
 20
38.313412539738238
 30
0.0
 11
150.50704054893541
 21
39.855288251358161
 31
0.0
  0
LINE
  5
20D9
  8
TITLE
 10
148.919286516244
 20
38.180249346016012
 30
0.0
 11
150.5943254215826
 21
39.855288251358161
 31
0.0
  0
LINE
  5
20DA
  8
TITLE
 10
148.73577323192919
 20
37.647596571116431
 30
0.0
 11
150.67440643494359
 21
39.586229774130182
 31
0.0
  0
LINE
  5
20DB
  8
TITLE
 10
148.6898949108504
 20
37.514433377390112
 30
0.0
 11
150.62852811386529
 21
39.453066580404773
 31
0.0
  0
LINE
  5
20DC
  8
TITLE
 10
148.6440165897715
 20
37.381270183664931
 30
0.0
 11
150.58264979278599
 21
39.319903386678789
 31
0.0
  0
LINE
  5
20DD
  8
TITLE
 10
151.62629217665199
 20
37.221290355275869
 30
0.0
 11
152.121709991502
 21
37.716708170125692
 31
0.0
  0
LINE
  5
20DE
  8
TITLE
 10
151.642472920138
 20
37.150186226114897
 30
0.0
 11
152.20899486414919
 21
37.716708170125692
 31
0.0
  0
LINE
  5
20DF
  8
TITLE
 10
151.7233766375634
 20
36.794665580311289
 30
0.0
 11
152.64541922737769
 21
37.716708170125692
 31
0.0
  0
LINE
  5
20E0
  8
TITLE
 10
151.73955738104951
 20
36.723561451150431
 30
0.0
 11
152.7327041000249
 21
37.716708170125692
 31
0.0
  0
LINE
  5
20E1
  8
TITLE
 10
151.75573812453561
 20
36.652457321989573
 30
0.0
 11
152.7585862066571
 21
37.655305404110443
 31
0.0
  0
LINE
  5
20E2
  8
TITLE
 10
151.77191886802251
 20
36.581353192829063
 30
0.0
 11
152.77476695014309
 21
37.584201274949471
 31
0.0
  0
LINE
  5
20E3
  8
TITLE
 10
151.78809961150861
 20
36.51024906366785
 30
0.0
 11
152.79094769362931
 21
37.513097145788848
 31
0.0
  0
LINE
  5
20E4
  8
TITLE
 10
151.8042803549952
 20
36.439144934507112
 30
0.0
 11
152.80712843711581
 21
37.441993016627848
 31
0.0
  0
LINE
  5
20E5
  8
TITLE
 10
151.82046109848119
 20
36.36804080534683
 30
0.0
 11
152.82330918060231
 21
37.370888887467352
 31
0.0
  0
LINE
  5
20E6
  8
TITLE
 10
151.8366418419678
 20
36.296936676185851
 30
0.0
 11
152.83948992408841
 21
37.299784758306501
 31
0.0
  0
LINE
  5
20E7
  8
TITLE
 10
151.85282258545431
 20
36.225832547025
 30
0.0
 11
152.85567066757491
 21
37.228680629145849
 31
0.0
  0
LINE
  5
20E8
  8
TITLE
 10
151.8690033289335
 20
36.154728417864128
 30
0.0
 11
152.87185141105419
 21
37.157576499984891
 31
0.0
  0
LINE
  5
20E9
  8
TITLE
 10
151.88518407242009
 20
36.083624288703497
 30
0.0
 11
152.88803215454021
 21
37.08647237082085
 31
0.0
  0
LINE
  5
20EA
  8
TITLE
 10
151.67483440711109
 20
37.007977967793408
 30
0.0
 11
152.38356460944351
 21
37.716708170125692
 31
0.0
  0
LINE
  5
20EB
  8
TITLE
 10
151.69101515059759
 20
36.93687383863255
 30
0.0
 11
152.47084948208339
 21
37.716708170125692
 31
0.0
  0
LINE
  5
20EC
  8
TITLE
 10
151.7071958940837
 20
36.865769709471813
 30
0.0
 11
152.5581343547305
 21
37.716708170125692
 31
0.0
  0
LINE
  5
20ED
  8
TITLE
 10
151.65865366362459
 20
37.079082096953812
 30
0.0
 11
152.2962797367959
 21
37.716708170125692
 31
0.0
  0
LINE
  5
20EE
  8
TITLE
 10
151.4014972375048
 20
34.290664364088229
 30
0.0
 11
153.13074330682909
 21
36.01991043340945
 31
0.0
  0
LINE
  5
20EF
  8
TITLE
 10
151.48878211015199
 20
34.290664364088229
 30
0.0
 11
153.14692405031559
 21
35.948806304244727
 31
0.0
  0
LINE
  5
20F0
  8
TITLE
 10
151.57606698279909
 20
34.290664364088229
 30
0.0
 11
153.1631047937949
 21
35.877702175083868
 31
0.0
  0
LINE
  5
20F1
  8
TITLE
 10
151.6633518554458
 20
34.290664364088229
 30
0.0
 11
153.179285537281
 21
35.806598045923252
 31
0.0
  0
LINE
  5
20F2
  8
TITLE
 10
151.75063672809301
 20
34.290664364088229
 30
0.0
 11
153.1954662807675
 21
35.735493916762273
 31
0.0
  0
LINE
  5
20F3
  8
TITLE
 10
151.8379216007404
 20
34.290664364088229
 30
0.0
 11
153.21164702425401
 21
35.66438978760187
 31
0.0
  0
LINE
  5
20F4
  8
TITLE
 10
151.92520647338779
 20
34.290664364088229
 30
0.0
 11
153.22782776774059
 21
35.593285658440891
 31
0.0
  0
LINE
  5
20F5
  8
TITLE
 10
152.01249134603441
 20
34.290664364088229
 30
0.0
 11
153.24400851122709
 21
35.52218152928026
 31
0.0
  0
LINE
  5
20F6
  8
TITLE
 10
150.9650728742763
 20
34.290664364088229
 30
0.0
 11
153.04983958939741
 21
36.375431079212717
 31
0.0
  0
LINE
  5
20F7
  8
TITLE
 10
151.05235774692301
 20
34.290664364088229
 30
0.0
 11
153.0660203328834
 21
36.304326950052207
 31
0.0
  0
LINE
  5
20F8
  8
TITLE
 10
151.1396426195702
 20
34.290664364088229
 30
0.0
 11
153.08220107637001
 21
36.233222820891683
 31
0.0
  0
LINE
  5
20F9
  8
TITLE
 10
151.2269274922173
 20
34.290664364088229
 30
0.0
 11
153.09838181985651
 21
36.162118691730832
 31
0.0
  0
LINE
  5
20FA
  8
TITLE
 10
151.3142123648644
 20
34.290664364088229
 30
0.0
 11
153.11456256334299
 21
36.09101456256964
 31
0.0
  0
LINE
  5
20FB
  8
TITLE
 10
151.9984492768244
 20
35.585895384574791
 30
0.0
 11
153.00129735894501
 21
36.588743466695171
 31
0.0
  0
LINE
  5
20FC
  8
TITLE
 10
152.01463002030371
 20
35.514791255413797
 30
0.0
 11
153.0174781024248
 21
36.51763933753422
 31
0.0
  0
LINE
  5
20FD
  8
TITLE
 10
152.03081076379021
 20
35.44368712625284
 30
0.0
 11
153.03365884591079
 21
36.44653520837403
 31
0.0
  0
LINE
  5
20FE
  8
TITLE
 10
151.91754555939269
 20
35.941416030378257
 30
0.0
 11
152.9203936415133
 21
36.94426411249902
 31
0.0
  0
LINE
  5
20FF
  8
TITLE
 10
151.93372630287919
 20
35.870311901217519
 30
0.0
 11
152.9365743849998
 21
36.873159983338148
 31
0.0
  0
LINE
  5
2100
  8
TITLE
 10
151.9499070463653
 20
35.799207772057002
 30
0.0
 11
152.95275512848639
 21
36.802055854177517
 31
0.0
  0
LINE
  5
2101
  8
TITLE
 10
151.9660877898518
 20
35.72810364289613
 30
0.0
 11
152.9689358719728
 21
36.730951725017007
 31
0.0
  0
LINE
  5
2102
  8
TITLE
 10
151.9822685333383
 20
35.656999513735293
 30
0.0
 11
152.98511661545899
 21
36.659847595856149
 31
0.0
  0
LINE
  5
2103
  8
TITLE
 10
151.90136481590611
 20
36.012520159542653
 30
0.0
 11
152.9042128980268
 21
37.015368241659978
 31
0.0
  0
LINE
  5
2104
  8
TITLE
 10
148.41462498437889
 20
36.71545421504279
 30
0.0
 11
150.35325818739281
 21
38.654087418056982
 31
0.0
  0
LINE
  5
2105
  8
TITLE
 10
148.36874666329999
 20
36.582291021317012
 30
0.0
 11
150.30737986631451
 21
38.520924224331573
 31
0.0
  0
LINE
  5
2106
  8
TITLE
 10
148.27699002114289
 20
36.31596463386893
 30
0.0
 11
150.2156232241573
 21
38.25459783687986
 31
0.0
  0
LINE
  5
2107
  8
TITLE
 10
148.23111170006399
 20
36.182801440146811
 30
0.0
 11
150.16974490307851
 21
38.12143464315762
 31
0.0
  0
LINE
  5
2108
  8
TITLE
 10
148.32286834222171
 20
36.449127827591269
 30
0.0
 11
150.2615015452356
 21
38.387761030605247
 31
0.0
  0
LINE
  5
2109
  8
TITLE
 10
148.1852333789929
 20
36.049638246420848
 30
0.0
 11
150.12386658200009
 21
37.988271449431977
 31
0.0
  0
LINE
  5
210A
  8
TITLE
 10
148.46050330545771
 20
36.848617408768639
 30
0.0
 11
150.39913650847151
 21
38.787250611783172
 31
0.0
  0
LINE
  5
210B
  8
TITLE
 10
151.56156920271351
 20
37.505706871918733
 30
0.0
 11
151.77257050091339
 21
37.716708170125692
 31
0.0
  0
LINE
  5
210C
  8
TITLE
 10
151.5777499461928
 20
37.434602742758329
 30
0.0
 11
151.85985537356041
 21
37.716708170125692
 31
0.0
  0
LINE
  5
210D
  8
TITLE
 10
151.59393068967941
 20
37.363498613597251
 30
0.0
 11
151.94714024620771
 21
37.716708170125692
 31
0.0
  0
LINE
  5
210E
  8
TITLE
 10
151.6101114331654
 20
37.292394484436393
 30
0.0
 11
152.03442511885481
 21
37.716708170125692
 31
0.0
  0
LINE
  5
210F
  8
TITLE
 10
151.52920771574099
 20
37.647915130240683
 30
0.0
 11
151.59800075561901
 21
37.716708170125692
 31
0.0
  0
LINE
  5
2110
  8
TITLE
 10
151.54538845922701
 20
37.576811001079363
 30
0.0
 11
151.68528562826609
 21
37.716708170125692
 31
0.0
  0
LINE
  5
2111
  8
TITLE
 10
148.5522599476148
 20
37.114943796220018
 30
0.0
 11
150.49089315062881
 21
39.053576999227168
 31
0.0
  0
LINE
  5
2112
  8
TITLE
 10
148.50638162653601
 20
36.981780602494503
 30
0.0
 11
150.44501482954999
 21
38.920413805505291
 31
0.0
  0
LINE
  5
2113
  8
TITLE
 10
148.25924182223571
 20
34.290664364088229
 30
0.0
 11
149.3690350844536
 21
35.400457626305752
 31
0.0
  0
LINE
  5
2114
  8
TITLE
 10
148.34652669488281
 20
34.290664364088229
 30
0.0
 11
149.4563199570934
 21
35.400457626305752
 31
0.0
  0
LINE
  5
2115
  8
TITLE
 10
148.43381156753
 20
34.290664364088229
 30
0.0
 11
149.54360482974101
 21
35.400457626305752
 31
0.0
  0
LINE
  5
2116
  8
TITLE
 10
147.9973872042942
 20
34.290664364088229
 30
0.0
 11
149.29805680259139
 21
35.591333962385313
 31
0.0
  0
LINE
  5
2117
  8
TITLE
 10
148.08467207694139
 20
34.290664364088229
 30
0.0
 11
149.252178481513
 21
35.45817076865967
 31
0.0
  0
LINE
  5
2118
  8
TITLE
 10
148.17195694958841
 20
34.290664364088229
 30
0.0
 11
149.28175021180641
 21
35.400457626305752
 31
0.0
  0
LINE
  5
2119
  8
TITLE
 10
150.354078765753
 20
34.290664364088229
 30
0.0
 11
151.46387202796359
 21
35.400457626305752
 31
0.0
  0
LINE
  5
211A
  8
TITLE
 10
150.4413636383928
 20
34.290664364088229
 30
0.0
 11
151.5511569006112
 21
35.400457626305752
 31
0.0
  0
LINE
  5
211B
  8
TITLE
 10
150.52864851103999
 20
34.290664364088229
 30
0.0
 11
151.63844177325791
 21
35.400457626305752
 31
0.0
  0
LINE
  5
211C
  8
TITLE
 10
150.6159333836876
 20
34.290664364088229
 30
0.0
 11
151.72572664590501
 21
35.400457626305752
 31
0.0
  0
LINE
  5
211D
  8
TITLE
 10
150.70321825633431
 20
34.290664364088229
 30
0.0
 11
151.8130115185522
 21
35.400457626305752
 31
0.0
  0
LINE
  5
211E
  8
TITLE
 10
150.7905031289815
 20
34.290664364088229
 30
0.0
 11
151.90029639119939
 21
35.400457626305752
 31
0.0
  0
LINE
  5
211F
  8
TITLE
 10
150.87778800162911
 20
34.290664364088229
 30
0.0
 11
151.98758126384641
 21
35.400457626305752
 31
0.0
  0
LINE
  5
2120
  8
TITLE
 10
148.52109644017719
 20
34.290664364088229
 30
0.0
 11
149.6308897023882
 21
35.400457626305752
 31
0.0
  0
LINE
  5
2121
  8
TITLE
 10
148.6083813128171
 20
34.290664364088229
 30
0.0
 11
149.71817457503491
 21
35.400457626305752
 31
0.0
  0
LINE
  5
2122
  8
TITLE
 10
148.6956661854646
 20
34.290664364088229
 30
0.0
 11
149.8054594476821
 21
35.400457626305752
 31
0.0
  0
LINE
  5
2123
  8
TITLE
 10
148.78295105811179
 20
34.290664364088229
 30
0.0
 11
149.8927443203292
 21
35.400457626305752
 31
0.0
  0
LINE
  5
2124
  8
TITLE
 10
148.8702359307585
 20
34.290664364088229
 30
0.0
 11
149.9800291929769
 21
35.400457626305752
 31
0.0
  0
LINE
  5
2125
  8
TITLE
 10
148.95752080340571
 20
34.290664364088229
 30
0.0
 11
150.06731406562361
 21
35.400457626305752
 31
0.0
  0
LINE
  5
2126
  8
TITLE
 10
149.0448056760533
 20
34.290664364088229
 30
0.0
 11
150.15459893827071
 21
35.400457626305752
 31
0.0
  0
LINE
  5
2127
  8
TITLE
 10
149.13209054870001
 20
34.290664364088229
 30
0.0
 11
150.2418838109183
 21
35.400457626305752
 31
0.0
  0
LINE
  5
2128
  8
TITLE
 10
149.21937542134759
 20
34.290664364088229
 30
0.0
 11
150.32916868355781
 21
35.400457626305752
 31
0.0
  0
LINE
  5
2129
  8
TITLE
 10
149.3066602939943
 20
34.290664364088229
 30
0.0
 11
150.41645355620491
 21
35.400457626305752
 31
0.0
  0
LINE
  5
212A
  8
TITLE
 10
150.17950902045911
 20
34.290664364088229
 30
0.0
 11
151.2893022826693
 21
35.400457626305752
 31
0.0
  0
LINE
  5
212B
  8
TITLE
 10
150.26679389310581
 20
34.290664364088229
 30
0.0
 11
151.3765871553168
 21
35.400457626305752
 31
0.0
  0
LINE
  5
212C
  8
TITLE
 10
149.3939451666414
 20
34.290664364088229
 30
0.0
 11
150.5037384288521
 21
35.400457626305752
 31
0.0
  0
LINE
  5
212D
  8
TITLE
 10
149.4812300392887
 20
34.290664364088229
 30
0.0
 11
150.59102330149969
 21
35.400457626305752
 31
0.0
  0
LINE
  5
212E
  8
TITLE
 10
149.56851491192899
 20
34.290664364088229
 30
0.0
 11
150.67830817414639
 21
35.400457626305752
 31
0.0
  0
LINE
  5
212F
  8
TITLE
 10
149.65579978457609
 20
34.290664364088229
 30
0.0
 11
150.76559304679361
 21
35.400457626305752
 31
0.0
  0
LINE
  5
2130
  8
TITLE
 10
149.74308465722279
 20
34.290664364088229
 30
0.0
 11
150.8528779194412
 21
35.400457626305752
 31
0.0
  0
LINE
  5
2131
  8
TITLE
 10
149.83036952987001
 20
34.290664364088229
 30
0.0
 11
150.9401627920879
 21
35.400457626305752
 31
0.0
  0
LINE
  5
2132
  8
TITLE
 10
149.9176544025172
 20
34.290664364088229
 30
0.0
 11
151.02744766473501
 21
35.400457626305752
 31
0.0
  0
LINE
  5
2133
  8
TITLE
 10
150.00493927516479
 20
34.290664364088229
 30
0.0
 11
151.11473253738259
 21
35.400457626305752
 31
0.0
  0
LINE
  5
2134
  8
TITLE
 10
150.09222414781141
 20
34.290664364088229
 30
0.0
 11
151.20201741002211
 21
35.400457626305752
 31
0.0
  0
LINE
  5
2135
  8
TITLE
 10
148.08360621260999
 20
35.860726207394578
 30
0.0
 11
150.0779882609213
 21
37.855108255709638
 31
0.0
  0
LINE
  5
2136
  8
TITLE
 10
148.5981382686937
 20
37.248106989942592
 30
0.0
 11
150.5367714717076
 21
39.186740192953039
 31
0.0
  0
LINE
  5
2137
  8
TITLE
 10
154.45646778013361
 20
34.290664364088229
 30
0.0
 11
155.30889984349639
 21
35.143096427454793
 31
0.0
  0
LINE
  5
2138
  8
TITLE
 10
154.54375265278071
 20
34.290664364088229
 30
0.0
 11
155.39618471614361
 21
35.143096427454793
 31
0.0
  0
LINE
  5
2139
  8
TITLE
 10
154.6310375254279
 20
34.290664364088229
 30
0.0
 11
155.48346958879071
 21
35.143096427454793
 31
0.0
  0
LINE
  5
213A
  8
TITLE
 10
154.718322398075
 20
34.290664364088229
 30
0.0
 11
155.5707544614379
 21
35.143096427454793
 31
0.0
  0
LINE
  5
213B
  8
TITLE
 10
154.80560727072179
 20
34.290664364088229
 30
0.0
 11
155.65803933408441
 21
35.143096427454793
 31
0.0
  0
LINE
  5
213C
  8
TITLE
 10
154.89289214336941
 20
34.290664364088229
 30
0.0
 11
155.74532420673219
 21
35.143096427454793
 31
0.0
  0
LINE
  5
213D
  8
TITLE
 10
154.98017701600881
 20
34.290664364088229
 30
0.0
 11
155.83260907937981
 21
35.143096427454793
 31
0.0
  0
LINE
  5
213E
  8
TITLE
 10
155.0674618886564
 20
34.290664364088229
 30
0.0
 11
155.91989395202651
 21
35.143096427454793
 31
0.0
  0
LINE
  5
213F
  8
TITLE
 10
155.15474676130361
 20
34.290664364088229
 30
0.0
 11
156.0071788246737
 21
35.143096427454793
 31
0.0
  0
LINE
  5
2140
  8
TITLE
 10
155.2420316339508
 20
34.290664364088229
 30
0.0
 11
156.0944636973208
 21
35.143096427454793
 31
0.0
  0
LINE
  5
2141
  8
TITLE
 10
154.0260794294685
 20
34.82040961253449
 30
0.0
 11
154.3487662443849
 21
35.143096427454793
 31
0.0
  0
LINE
  5
2142
  8
TITLE
 10
154.0260794294685
 20
34.733124739887451
 30
0.0
 11
154.43605111703161
 21
35.143096427454793
 31
0.0
  0
LINE
  5
2143
  8
TITLE
 10
154.0260794294685
 20
34.907694485181771
 30
0.0
 11
154.2614813717378
 21
35.143096427454793
 31
0.0
  0
LINE
  5
2144
  8
TITLE
 10
153.0599098177936
 20
34.290664364088229
 30
0.0
 11
153.4381774330495
 21
34.668931979350987
 31
0.0
  0
LINE
  5
2145
  8
TITLE
 10
153.14719469043351
 20
34.290664364088229
 30
0.0
 11
153.45435817653561
 21
34.597827850190129
 31
0.0
  0
LINE
  5
2146
  8
TITLE
 10
153.23447956308061
 20
34.290664364088229
 30
0.0
 11
153.47053892002211
 21
34.526723721029498
 31
0.0
  0
LINE
  5
2147
  8
TITLE
 10
153.3217644357278
 20
34.290664364088229
 30
0.0
 11
153.48671966350861
 21
34.455619591868881
 31
0.0
  0
LINE
  5
2148
  8
TITLE
 10
153.4090493083749
 20
34.290664364088229
 30
0.0
 11
153.50290040699471
 21
34.384515462708123
 31
0.0
  0
LINE
  5
2149
  8
TITLE
 10
153.49633418102209
 20
34.290664364088229
 30
0.0
 11
153.51908115048079
 21
34.313411333547151
 31
0.0
  0
LINE
  5
214A
  8
TITLE
 10
154.0260794294685
 20
35.082264230472788
 30
0.0
 11
154.0869116264507
 21
35.143096427454793
 31
0.0
  0
LINE
  5
214B
  8
TITLE
 10
154.0260794294685
 20
34.994979357828932
 30
0.0
 11
154.17419649909789
 21
35.143096427454793
 31
0.0
  0
LINE
  5
214C
  8
TITLE
 10
154.10732828954491
 20
34.290664364088229
 30
0.0
 11
154.959760352915
 21
35.143096427454793
 31
0.0
  0
LINE
  5
214D
  8
TITLE
 10
154.1946131621921
 20
34.290664364088229
 30
0.0
 11
155.04704522556219
 21
35.143096427454793
 31
0.0
  0
LINE
  5
214E
  8
TITLE
 10
154.2818980348388
 20
34.290664364088229
 30
0.0
 11
155.1343300982094
 21
35.143096427454793
 31
0.0
  0
LINE
  5
214F
  8
TITLE
 10
154.36918290748639
 20
34.290664364088229
 30
0.0
 11
155.2216149708492
 21
35.143096427454793
 31
0.0
  0
LINE
  5
2150
  8
TITLE
 10
154.0260794294685
 20
34.296700376655281
 30
0.0
 11
154.87247548026789
 21
35.143096427454793
 31
0.0
  0
LINE
  5
2151
  8
TITLE
 10
154.0260794294685
 20
34.64583986724017
 30
0.0
 11
154.5233359896792
 21
35.143096427454793
 31
0.0
  0
LINE
  5
2152
  8
TITLE
 10
154.0260794294685
 20
34.55855499459301
 30
0.0
 11
154.61062086232641
 21
35.143096427454793
 31
0.0
  0
LINE
  5
2153
  8
TITLE
 10
154.0260794294685
 20
34.471270121945857
 30
0.0
 11
154.6979057349734
 21
35.143096427454793
 31
0.0
  0
LINE
  5
2154
  8
TITLE
 10
154.0260794294685
 20
34.383985249299137
 30
0.0
 11
154.78519060762071
 21
35.143096427454793
 31
0.0
  0
LINE
  5
2155
  8
TITLE
 10
152.2743459639691
 20
34.290664364088229
 30
0.0
 11
153.29255074167881
 21
35.3088691417978
 31
0.0
  0
LINE
  5
2156
  8
TITLE
 10
152.3616308366158
 20
34.290664364088229
 30
0.0
 11
153.308731485165
 21
35.237765012637283
 31
0.0
  0
LINE
  5
2157
  8
TITLE
 10
152.4489157092635
 20
34.290664364088229
 30
0.0
 11
153.3249122286515
 21
35.166660883476531
 31
0.0
  0
LINE
  5
2158
  8
TITLE
 10
152.53620058191041
 20
34.290664364088229
 30
0.0
 11
153.34109297213811
 21
35.09555675431546
 31
0.0
  0
LINE
  5
2159
  8
TITLE
 10
152.62348545455779
 20
34.290664364088229
 30
0.0
 11
153.3572737156241
 21
35.024452625154822
 31
0.0
  0
LINE
  5
215A
  8
TITLE
 10
152.7107703272049
 20
34.290664364088229
 30
0.0
 11
153.373454459111
 21
34.953348495994078
 31
0.0
  0
LINE
  5
215B
  8
TITLE
 10
152.79805519985209
 20
34.290664364088229
 30
0.0
 11
153.38963520259719
 21
34.882244366833341
 31
0.0
  0
LINE
  5
215C
  8
TITLE
 10
152.88534007249919
 20
34.290664364088229
 30
0.0
 11
153.40581594608321
 21
34.811140237672817
 31
0.0
  0
LINE
  5
215D
  8
TITLE
 10
152.97262494514641
 20
34.290664364088229
 30
0.0
 11
153.4219966895698
 21
34.740036108511838
 31
0.0
  0
LINE
  5
215E
  8
TITLE
 10
152.09977621868211
 20
34.290664364088229
 30
0.0
 11
153.26018925471311
 21
35.451077400119402
 31
0.0
  0
LINE
  5
215F
  8
TITLE
 10
152.18706109132921
 20
34.290664364088229
 30
0.0
 11
153.2763699981997
 21
35.379973270958892
 31
0.0
  0
LINE
  5
2160
  8
TITLE
 10
149.33219140594429
 20
39.378718089537188
 30
0.0
 11
149.8087615677654
 21
39.855288251358161
 31
0.0
  0
LINE
  5
2161
  8
TITLE
 10
149.42394804810189
 20
39.645044476988801
 30
0.0
 11
149.63419182247111
 21
39.855288251358161
 31
0.0
  0
LINE
  5
2162
  8
TITLE
 10
149.37806972702299
 20
39.511881283263172
 30
0.0
 11
149.7214766951183
 21
39.855288251358161
 31
0.0
  0
LINE
  5
2163
  8
TITLE
 10
149.46982636918071
 20
39.778207670714551
 30
0.0
 11
149.54690694982401
 21
39.855288251358161
 31
0.0
  0
LINE
  5
2164
  8
TITLE
 10
154.20383223845741
 20
39.624260671786828
 30
0.0
 11
154.4348598180286
 21
39.855288251358161
 31
0.0
  0
LINE
  5
2165
  8
TITLE
 10
154.20383223845741
 20
39.798830417077632
 30
0.0
 11
154.26029007273419
 21
39.855288251358161
 31
0.0
  0
LINE
  5
2166
  8
TITLE
 10
154.20383223845741
 20
39.711545544430692
 30
0.0
 11
154.34757494538181
 21
39.855288251358161
 31
0.0
  0
LINE
  5
2167
  8
TITLE
 10
154.20383223845741
 20
39.536975799139903
 30
0.0
 11
154.52214469067559
 21
39.855288251358161
 31
0.0
  0
LINE
  5
2168
  8
TITLE
 10
154.20383223845741
 20
39.449690926492508
 30
0.0
 11
154.60942956332281
 21
39.855288251358161
 31
0.0
  0
LINE
  5
2169
  8
TITLE
 10
154.20383223845741
 20
39.362406053845362
 30
0.0
 11
154.69671443597011
 21
39.855288251358161
 31
0.0
  0
LINE
  5
216A
  8
TITLE
 10
160.0148037945464
 20
39.238006269974903
 30
0.0
 11
160.1915126332328
 21
39.414715108664723
 31
0.0
  0
LINE
  5
216B
  8
TITLE
 10
163.46718671854069
 20
38.762569924883337
 30
0.0
 11
164.11933190232591
 21
39.414715108664723
 31
0.0
  0
LINE
  5
216C
  8
TITLE
 10
163.55447159118779
 20
38.762569924883337
 30
0.0
 11
164.2066167749731
 21
39.414715108664723
 31
0.0
  0
LINE
  5
216D
  8
TITLE
 10
160.1503615579781
 20
38.762569924883337
 30
0.0
 11
161.23812704838741
 21
39.850335415292882
 31
0.0
  0
LINE
  5
216E
  8
TITLE
 10
160.23764643062481
 20
38.762569924883337
 30
0.0
 11
161.2660825583207
 21
39.79100605257554
 31
0.0
  0
LINE
  5
216F
  8
TITLE
 10
160.324931303272
 20
38.762569924883337
 30
0.0
 11
161.29403806824709
 21
39.731676689861843
 31
0.0
  0
LINE
  5
2170
  8
TITLE
 10
160.41221617591921
 20
38.762569924883337
 30
0.0
 11
161.3219935781803
 21
39.672347327144401
 31
0.0
  0
LINE
  5
2171
  8
TITLE
 10
160.49950104856629
 20
38.762569924883337
 30
0.0
 11
161.3499490881068
 21
39.613017964427058
 31
0.0
  0
LINE
  5
2172
  8
TITLE
 10
160.5867859212062
 20
38.762569924883337
 30
0.0
 11
161.3779045980404
 21
39.553688601713361
 31
0.0
  0
LINE
  5
2173
  8
TITLE
 10
160.67407079385379
 20
38.762569924883337
 30
0.0
 11
161.40586010797369
 21
39.494359239000119
 31
0.0
  0
LINE
  5
2174
  8
TITLE
 10
160.761355666501
 20
38.762569924883337
 30
0.0
 11
161.43381561790011
 21
39.435029876278918
 31
0.0
  0
LINE
  5
2175
  8
TITLE
 10
160.73022861085241
 20
37.771309270119673
 30
0.0
 11
162.4860067238028
 21
39.52708738306967
 31
0.0
  0
LINE
  5
2176
  8
TITLE
 10
160.0148037945464
 20
38.976151652037402
 30
0.0
 11
160.45336725117431
 21
39.414715108664723
 31
0.0
  0
LINE
  5
2177
  8
TITLE
 10
160.0148037945464
 20
38.888866779390149
 30
0.0
 11
160.54065212382099
 21
39.414715108664723
 31
0.0
  0
LINE
  5
2178
  8
TITLE
 10
160.0148037945464
 20
38.801581906742641
 30
0.0
 11
160.62793699646861
 21
39.414715108664723
 31
0.0
  0
LINE
  5
2179
  8
TITLE
 10
160.0630766853304
 20
38.762569924883337
 30
0.0
 11
160.71522186911579
 21
39.414715108664723
 31
0.0
  0
LINE
  5
217A
  8
TITLE
 10
158.75862927561681
 20
39.029250222800002
 30
0.0
 11
159.30611452061461
 21
39.576735467801669
 31
0.0
  0
LINE
  5
217B
  8
TITLE
 10
158.8459141482563
 20
39.029250222800002
 30
0.0
 11
159.30611452061461
 21
39.489450595154267
 31
0.0
  0
LINE
  5
217C
  8
TITLE
 10
158.9331990209038
 20
39.029250222800002
 30
0.0
 11
159.30611452061461
 21
39.402165722507107
 31
0.0
  0
LINE
  5
217D
  8
TITLE
 10
159.02048389355099
 20
39.029250222800002
 30
0.0
 11
159.30611452061461
 21
39.314880849863698
 31
0.0
  0
LINE
  5
217E
  8
TITLE
 10
160.0148037945464
 20
39.063436524684228
 30
0.0
 11
160.3660823785271
 21
39.414715108664723
 31
0.0
  0
LINE
  5
217F
  8
TITLE
 10
160.0148037945464
 20
39.150721397331509
 30
0.0
 11
160.27879750587999
 21
39.414715108664723
 31
0.0
  0
LINE
  5
2180
  8
TITLE
 10
162.68162286472401
 20
38.762569924883337
 30
0.0
 11
163.77434119120241
 21
39.855288251358161
 31
0.0
  0
LINE
  5
2181
  8
TITLE
 10
162.76890773737111
 20
38.762569924883337
 30
0.0
 11
163.8616260638496
 21
39.855288251358161
 31
0.0
  0
LINE
  5
2182
  8
TITLE
 10
160.84864053914771
 20
38.762569924883337
 30
0.0
 11
161.5007857229329
 21
39.414715108664723
 31
0.0
  0
LINE
  5
2183
  8
TITLE
 10
160.93592541179481
 20
38.762569924883337
 30
0.0
 11
161.58807059558009
 21
39.414715108664723
 31
0.0
  0
LINE
  5
2184
  8
TITLE
 10
161.023210284442
 20
38.762569924883337
 30
0.0
 11
161.67535546822731
 21
39.414715108664723
 31
0.0
  0
LINE
  5
2185
  8
TITLE
 10
161.11049515708919
 20
38.762569924883337
 30
0.0
 11
161.76264034086711
 21
39.414715108664723
 31
0.0
  0
LINE
  5
2186
  8
TITLE
 10
161.1776747199369
 20
38.742464615086881
 30
0.0
 11
162.29049835620799
 21
39.855288251358161
 31
0.0
  0
LINE
  5
2187
  8
TITLE
 10
161.983343883554
 20
38.762569924883337
 30
0.0
 11
162.63548906733141
 21
39.414715108664723
 31
0.0
  0
LINE
  5
2188
  8
TITLE
 10
160.81751348349229
 20
37.771309270119673
 30
0.0
 11
162.4860067238028
 21
39.439802510422737
 31
0.0
  0
LINE
  5
2189
  8
TITLE
 10
160.90479835613951
 20
37.771309270119673
 30
0.0
 11
162.54820419469161
 21
39.414715108664723
 31
0.0
  0
LINE
  5
218A
  8
TITLE
 10
161.23592678136581
 20
38.451577185927249
 30
0.0
 11
162.4860067238028
 21
39.701657128360686
 31
0.0
  0
LINE
  5
218B
  8
TITLE
 10
161.2504897967228
 20
38.378855328637201
 30
0.0
 11
162.4860067238028
 21
39.614372255717051
 31
0.0
  0
LINE
  5
218C
  8
TITLE
 10
161.1922377352939
 20
38.66974275779728
 30
0.0
 11
162.37778322885509
 21
39.855288251358161
 31
0.0
  0
LINE
  5
218D
  8
TITLE
 10
161.20680075065141
 20
38.597020900507118
 30
0.0
 11
162.46506810150271
 21
39.855288251358161
 31
0.0
  0
LINE
  5
218E
  8
TITLE
 10
161.22136376600881
 20
38.524299043217518
 30
0.0
 11
162.4860067238028
 21
39.788942001008202
 31
0.0
  0
LINE
  5
218F
  8
TITLE
 10
162.59433799207679
 20
38.762569924883337
 30
0.0
 11
163.68705631855531
 21
39.855288251358161
 31
0.0
  0
LINE
  5
2190
  8
TITLE
 10
162.41976824678201
 20
38.762569924883337
 30
0.0
 11
163.07191343056729
 21
39.414715108664723
 31
0.0
  0
LINE
  5
2191
  8
TITLE
 10
162.5070531194296
 20
38.762569924883337
 30
0.0
 11
163.1591983032144
 21
39.414715108664723
 31
0.0
  0
LINE
  5
2192
  8
TITLE
 10
162.0706287562007
 20
38.762569924883337
 30
0.0
 11
162.72277393997859
 21
39.414715108664723
 31
0.0
  0
LINE
  5
2193
  8
TITLE
 10
162.15791362884781
 20
38.762569924883337
 30
0.0
 11
162.81005881262621
 21
39.414715108664723
 31
0.0
  0
LINE
  5
2194
  8
TITLE
 10
162.24519850149539
 20
38.762569924883337
 30
0.0
 11
162.897343685273
 21
39.414715108664723
 31
0.0
  0
LINE
  5
2195
  8
TITLE
 10
162.3324833741421
 20
38.762569924883337
 30
0.0
 11
162.9846285579201
 21
39.414715108664723
 31
0.0
  0
LINE
  5
2196
  8
TITLE
 10
162.85619261001781
 20
38.762569924883337
 30
0.0
 11
163.8775382128438
 21
39.783915527705531
 31
0.0
  0
LINE
  5
2197
  8
TITLE
 10
162.943477482665
 20
38.762569924883337
 30
0.0
 11
163.8775382128438
 21
39.696630655058591
 31
0.0
  0
LINE
  5
2198
  8
TITLE
 10
163.03076235531219
 20
38.762569924883337
 30
0.0
 11
163.8775382128438
 21
39.60934578241141
 31
0.0
  0
LINE
  5
2199
  8
TITLE
 10
163.11804722795969
 20
38.762569924883337
 30
0.0
 11
163.8775382128438
 21
39.52206090976383
 31
0.0
  0
LINE
  5
219A
  8
TITLE
 10
163.20533210060691
 20
38.762569924883337
 30
0.0
 11
163.8775382128438
 21
39.434776037120521
 31
0.0
  0
LINE
  5
219B
  8
TITLE
 10
163.29261697324679
 20
38.762569924883337
 30
0.0
 11
163.94476215703159
 21
39.414715108664723
 31
0.0
  0
LINE
  5
219C
  8
TITLE
 10
163.37990184589401
 20
38.762569924883337
 30
0.0
 11
164.03204702967881
 21
39.414715108664723
 31
0.0
  0
LINE
  5
219D
  8
TITLE
 10
156.2572655143635
 20
38.971862895652521
 30
0.0
 11
157.14069087006919
 21
39.855288251358161
 31
0.0
  0
LINE
  5
219E
  8
TITLE
 10
156.2572655143635
 20
38.884578023009112
 30
0.0
 11
157.2279757427163
 21
39.855288251358161
 31
0.0
  0
LINE
  5
219F
  8
TITLE
 10
156.2572655143635
 20
38.797293150361853
 30
0.0
 11
157.31526061536351
 21
39.855288251358161
 31
0.0
  0
LINE
  5
21A0
  8
TITLE
 10
156.2572655143635
 20
38.273583914482522
 30
0.0
 11
157.8389698512392
 21
39.855288251358161
 31
0.0
  0
LINE
  5
21A1
  8
TITLE
 10
156.2572655143635
 20
38.186299041835468
 30
0.0
 11
157.9262547238863
 21
39.855288251358161
 31
0.0
  0
LINE
  5
21A2
  8
TITLE
 10
156.2572655143635
 20
38.099014169188187
 30
0.0
 11
158.01353959653341
 21
39.855288251358161
 31
0.0
  0
LINE
  5
21A3
  8
TITLE
 10
156.2572655143635
 20
38.448153659776608
 30
0.0
 11
157.6644001059521
 21
39.855288251358161
 31
0.0
  0
LINE
  5
21A4
  8
TITLE
 10
156.2572655143635
 20
38.360868787129462
 30
0.0
 11
157.7516849785919
 21
39.855288251358161
 31
0.0
  0
LINE
  5
21A5
  8
TITLE
 10
156.2572655143635
 20
38.710008277715012
 30
0.0
 11
157.4025454880105
 21
39.855288251358161
 31
0.0
  0
LINE
  5
21A6
  8
TITLE
 10
156.2572655143635
 20
38.622723405071163
 30
0.0
 11
157.48983036065781
 21
39.855288251358161
 31
0.0
  0
LINE
  5
21A7
  8
TITLE
 10
156.2572655143635
 20
38.53543853242423
 30
0.0
 11
157.57711523330499
 21
39.855288251358161
 31
0.0
  0
LINE
  5
21A8
  8
TITLE
 10
156.22736796886329
 20
39.029250222800002
 30
0.0
 11
157.05340599742161
 21
39.855288251358161
 31
0.0
  0
LINE
  5
21A9
  8
TITLE
 10
157.27478644062239
 20
39.029250222800002
 30
0.0
 11
158.10082446918071
 21
39.855288251358161
 31
0.0
  0
LINE
  5
21AA
  8
TITLE
 10
157.3620713132695
 20
39.029250222800002
 30
0.0
 11
158.18810934182781
 21
39.855288251358161
 31
0.0
  0
LINE
  5
21AB
  8
TITLE
 10
157.4493561859162
 20
39.029250222800002
 30
0.0
 11
158.275394214475
 21
39.855288251358161
 31
0.0
  0
LINE
  5
21AC
  8
TITLE
 10
157.5366410585639
 20
39.029250222800002
 30
0.0
 11
158.3626790871221
 21
39.855288251358161
 31
0.0
  0
LINE
  5
21AD
  8
TITLE
 10
157.62392593121101
 20
39.029250222800002
 30
0.0
 11
158.44996395976929
 21
39.855288251358161
 31
0.0
  0
LINE
  5
21AE
  8
TITLE
 10
157.71121080385819
 20
39.029250222800002
 30
0.0
 11
158.53724883241651
 21
39.855288251358161
 31
0.0
  0
LINE
  5
21AF
  8
TITLE
 10
157.7984956765049
 20
39.029250222800002
 30
0.0
 11
158.62453370505631
 21
39.855288251358161
 31
0.0
  0
LINE
  5
21B0
  8
TITLE
 10
158.58405953032241
 20
39.029250222800002
 30
0.0
 11
159.30611452061461
 21
39.751305213092451
 31
0.0
  0
LINE
  5
21B1
  8
TITLE
 10
158.67134440296971
 20
39.029250222800002
 30
0.0
 11
159.30611452061461
 21
39.66402034044517
 31
0.0
  0
LINE
  5
21B2
  8
TITLE
 10
158.4094897850282
 20
39.029250222800002
 30
0.0
 11
159.2355278135864
 21
39.855288251358161
 31
0.0
  0
LINE
  5
21B3
  8
TITLE
 10
158.4967746576753
 20
39.029250222800002
 30
0.0
 11
159.30611452061461
 21
39.838590085739717
 31
0.0
  0
LINE
  5
21B4
  8
TITLE
 10
157.88578054914569
 20
39.029250222800002
 30
0.0
 11
158.7118185777035
 21
39.855288251358161
 31
0.0
  0
LINE
  5
21B5
  8
TITLE
 10
157.97306542179189
 20
39.029250222800002
 30
0.0
 11
158.79910345035071
 21
39.855288251358161
 31
0.0
  0
LINE
  5
21B6
  8
TITLE
 10
158.0603502944395
 20
39.029250222800002
 30
0.0
 11
158.88638832299779
 21
39.855288251358161
 31
0.0
  0
LINE
  5
21B7
  8
TITLE
 10
158.14763516708621
 20
39.029250222800002
 30
0.0
 11
158.97367319564501
 21
39.855288251358161
 31
0.0
  0
LINE
  5
21B8
  8
TITLE
 10
158.23492003973379
 20
39.029250222800002
 30
0.0
 11
159.06095806829211
 21
39.855288251358161
 31
0.0
  0
LINE
  5
21B9
  8
TITLE
 10
158.32220491238101
 20
39.029250222800002
 30
0.0
 11
159.1482429409393
 21
39.855288251358161
 31
0.0
  0
LINE
  5
21BA
  8
TITLE
 10
160.19255660353559
 20
38.019201116620373
 30
0.0
 11
160.51855254333981
 21
38.345197056431289
 31
0.0
  0
LINE
  5
21BB
  8
TITLE
 10
160.19255660353559
 20
37.931916243973092
 30
0.0
 11
160.60583741598651
 21
38.345197056431289
 31
0.0
  0
LINE
  5
21BC
  8
TITLE
 10
160.19255660353559
 20
37.84463137132628
 30
0.0
 11
160.69312228863421
 21
38.345197056431289
 31
0.0
  0
LINE
  5
21BD
  8
TITLE
 10
160.2065193749695
 20
37.771309270119673
 30
0.0
 11
160.78040716128089
 21
38.345197056431289
 31
0.0
  0
LINE
  5
21BE
  8
TITLE
 10
160.19255660353559
 20
38.10648598926754
 30
0.0
 11
160.43126767069219
 21
38.345197056431289
 31
0.0
  0
LINE
  5
21BF
  8
TITLE
 10
160.19255660353559
 20
38.193770861914572
 30
0.0
 11
160.34398279805231
 21
38.345197056431289
 31
0.0
  0
LINE
  5
21C0
  8
TITLE
 10
160.19255660353559
 20
37.059067517508893
 30
0.0
 11
160.40916809021741
 21
37.27567900419411
 31
0.0
  0
LINE
  5
21C1
  8
TITLE
 10
160.19255660353559
 20
36.971782644861833
 30
0.0
 11
160.49645296286459
 21
37.27567900419411
 31
0.0
  0
LINE
  5
21C2
  8
TITLE
 10
160.19255660353559
 20
36.884497772214672
 30
0.0
 11
160.58373783551221
 21
37.27567900419411
 31
0.0
  0
LINE
  5
21C3
  8
TITLE
 10
160.19255660353559
 20
36.797212899570823
 30
0.0
 11
160.67102270815889
 21
37.27567900419411
 31
0.0
  0
LINE
  5
21C4
  8
TITLE
 10
160.2365914337756
 20
36.753962857166933
 30
0.0
 11
160.7583075808061
 21
37.27567900419411
 31
0.0
  0
LINE
  5
21C5
  8
TITLE
 10
160.19255660353559
 20
37.146352390155812
 30
0.0
 11
160.3218832175707
 21
37.27567900419411
 31
0.0
  0
LINE
  5
21C6
  8
TITLE
 10
160.0426995914558
 20
34.29066432604305
 30
0.0
 11
160.9916490559317
 21
35.239613790511392
 31
0.0
  0
LINE
  5
21C7
  8
TITLE
 10
160.0148037945464
 20
34.524623147068162
 30
0.0
 11
160.49168987092881
 21
35.001509223450398
 31
0.0
  0
LINE
  5
21C8
  8
TITLE
 10
160.0148037945464
 20
34.437338274420767
 30
0.0
 11
160.60971195709681
 21
35.03224643697127
 31
0.0
  0
LINE
  5
21C9
  8
TITLE
 10
160.0148037945464
 20
34.350053401773948
 30
0.0
 11
160.75361888464741
 21
35.088868491874791
 31
0.0
  0
LINE
  5
21CA
  8
TITLE
 10
160.0148037945464
 20
34.699192892358838
 30
0.0
 11
160.29421345776379
 21
34.978602555579421
 31
0.0
  0
LINE
  5
21CB
  8
TITLE
 10
160.0148037945464
 20
34.611908019715202
 30
0.0
 11
160.38807530412569
 21
34.985179529294442
 31
0.0
  0
LINE
  5
21CC
  8
TITLE
 10
160.1299843450528
 20
34.290664206992801
 30
0.0
 11
162.1237383645753
 21
36.284418226511548
 31
0.0
  0
LINE
  5
21CD
  8
TITLE
 10
160.2178847076257
 20
34.291279696910813
 30
0.0
 11
162.21102323722241
 21
36.284418226511548
 31
0.0
  0
LINE
  5
21CE
  8
TITLE
 10
160.0148037945464
 20
35.921181109408067
 30
0.0
 11
160.37804091164659
 21
36.284418226511548
 31
0.0
  0
LINE
  5
21CF
  8
TITLE
 10
160.0148037945464
 20
35.833896236761241
 30
0.0
 11
160.4653257842933
 21
36.284418226511548
 31
0.0
  0
LINE
  5
21D0
  8
TITLE
 10
160.0569803910189
 20
35.788787960585871
 30
0.0
 11
160.5526106569404
 21
36.284418226511548
 31
0.0
  0
LINE
  5
21D1
  8
TITLE
 10
160.144265263666
 20
35.788787960585871
 30
0.0
 11
160.6398955295881
 21
36.284418226511548
 31
0.0
  0
LINE
  5
21D2
  8
TITLE
 10
160.23155013631319
 20
35.788787960585871
 30
0.0
 11
160.72718040223481
 21
36.284418226511548
 31
0.0
  0
LINE
  5
21D3
  8
TITLE
 10
160.0148037945464
 20
36.008465982055213
 30
0.0
 11
160.2907560389994
 21
36.284418226511548
 31
0.0
  0
LINE
  5
21D4
  8
TITLE
 10
159.19505363884531
 20
39.029250222800002
 30
0.0
 11
159.30611452061461
 21
39.140311104569598
 31
0.0
  0
LINE
  5
21D5
  8
TITLE
 10
159.2823385114925
 20
39.029250222800002
 30
0.0
 11
159.30611452061461
 21
39.053026231922793
 31
0.0
  0
LINE
  5
21D6
  8
TITLE
 10
160.0148037945464
 20
36.183035727349647
 30
0.0
 11
160.11618629370511
 21
36.284418226511548
 31
0.0
  0
LINE
  5
21D7
  8
TITLE
 10
160.0148037945464
 20
36.095750854702722
 30
0.0
 11
160.20347116635179
 21
36.284418226511548
 31
0.0
  0
LINE
  5
21D8
  8
TITLE
 10
160.0148037945464
 20
36.270320599996808
 30
0.0
 11
160.0289014210648
 21
36.284418226511548
 31
0.0
  0
LINE
  5
21D9
  8
TITLE
 10
160.19255660353559
 20
37.233637262802851
 30
0.0
 11
160.2345983449236
 21
37.27567900419411
 31
0.0
  0
LINE
  5
21DA
  8
TITLE
 10
158.73342653980811
 20
34.290664364088229
 30
0.0
 11
159.48386732960401
 21
35.041105153880281
 31
0.0
  0
LINE
  5
21DB
  8
TITLE
 10
158.82071141245521
 20
34.290664364088229
 30
0.0
 11
159.48386732960401
 21
34.953820281233341
 31
0.0
  0
LINE
  5
21DC
  8
TITLE
 10
160.0148037945464
 20
34.786477765006111
 30
0.0
 11
160.2076590933639
 21
34.97933306382663
 31
0.0
  0
LINE
  5
21DD
  8
TITLE
 10
160.0148037945464
 20
34.873762637653037
 30
0.0
 11
160.1211690158425
 21
34.980127858948777
 31
0.0
  0
LINE
  5
21DE
  8
TITLE
 10
158.9079962851024
 20
34.290664364088229
 30
0.0
 11
159.48386732960401
 21
34.866535408589698
 31
0.0
  0
LINE
  5
21DF
  8
TITLE
 10
158.99528115774999
 20
34.290664364088229
 30
0.0
 11
159.48386732960401
 21
34.779250535942431
 31
0.0
  0
LINE
  5
21E0
  8
TITLE
 10
159.08256603039669
 20
34.290664364088229
 30
0.0
 11
159.48386732960401
 21
34.691965663295257
 31
0.0
  0
LINE
  5
21E1
  8
TITLE
 10
159.16985090304391
 20
34.290664364088229
 30
0.0
 11
159.48386732960401
 21
34.604680790648111
 31
0.0
  0
LINE
  5
21E2
  8
TITLE
 10
159.25713577569101
 20
34.290664364088229
 30
0.0
 11
159.48386732960401
 21
34.517395918001171
 31
0.0
  0
LINE
  5
21E3
  8
TITLE
 10
159.3444206483382
 20
34.290664364088229
 30
0.0
 11
159.48386732960401
 21
34.430111045353897
 31
0.0
  0
LINE
  5
21E4
  8
TITLE
 10
159.43170552098579
 20
34.290664364088229
 30
0.0
 11
159.48386732960401
 21
34.342826172707191
 31
0.0
  0
LINE
  5
21E5
  8
TITLE
 10
160.0148037945464
 20
34.961047510296801
 30
0.0
 11
160.0338841431948
 21
34.980127858948777
 31
0.0
  0
LINE
  5
21E6
  8
TITLE
 10
158.55885679452101
 20
34.290664364088229
 30
0.0
 11
159.41128885788379
 21
35.143096427454793
 31
0.0
  0
LINE
  5
21E7
  8
TITLE
 10
158.6461416671608
 20
34.290664364088229
 30
0.0
 11
159.48386732960401
 21
35.128390026527541
 31
0.0
  0
LINE
  5
21E8
  8
TITLE
 10
158.38428704922671
 20
34.290664364088229
 30
0.0
 11
159.23671911259001
 21
35.143096427454793
 31
0.0
  0
LINE
  5
21E9
  8
TITLE
 10
158.4715719218739
 20
34.290664364088229
 30
0.0
 11
159.32400398523669
 21
35.143096427454793
 31
0.0
  0
LINE
  5
21EA
  8
TITLE
 10
158.0351475586381
 20
34.290664364088229
 30
0.0
 11
158.88757962200091
 21
35.143096427454793
 31
0.0
  0
LINE
  5
21EB
  8
TITLE
 10
158.1224324312852
 20
34.290664364088229
 30
0.0
 11
158.97486449464799
 21
35.143096427454793
 31
0.0
  0
LINE
  5
21EC
  8
TITLE
 10
158.20971730393239
 20
34.290664364088229
 30
0.0
 11
159.06214936729521
 21
35.143096427454793
 31
0.0
  0
LINE
  5
21ED
  8
TITLE
 10
158.2970021765795
 20
34.290664364088229
 30
0.0
 11
159.14943423994231
 21
35.143096427454793
 31
0.0
  0
LINE
  5
21EE
  8
TITLE
 10
156.2572655143635
 20
37.837159551250252
 30
0.0
 11
157.25268124470219
 21
38.83257528158537
 31
0.0
  0
LINE
  5
21EF
  8
TITLE
 10
156.2572655143635
 20
37.749874678606723
 30
0.0
 11
157.25268124470219
 21
38.745290408941742
 31
0.0
  0
LINE
  5
21F0
  8
TITLE
 10
156.2572655143635
 20
38.011729296540921
 30
0.0
 11
157.25268124470219
 21
39.007145026879812
 31
0.0
  0
LINE
  5
21F1
  8
TITLE
 10
156.2572655143635
 20
37.924444423897278
 30
0.0
 11
157.25268124470219
 21
38.919860154232417
 31
0.0
  0
LINE
  5
21F2
  8
TITLE
 10
156.2572655143635
 20
36.702456206847728
 30
0.0
 11
157.25268124470219
 21
37.697871937182967
 31
0.0
  0
LINE
  5
21F3
  8
TITLE
 10
156.2572655143635
 20
36.615171334200909
 30
0.0
 11
157.25268124470219
 21
37.610587064539793
 31
0.0
  0
LINE
  5
21F4
  8
TITLE
 10
156.2572655143635
 20
36.527886461553848
 30
0.0
 11
157.25268124470219
 21
37.523302191892419
 31
0.0
  0
LINE
  5
21F5
  8
TITLE
 10
156.2572655143635
 20
36.440601588906581
 30
0.0
 11
157.25268124470219
 21
37.436017319245032
 31
0.0
  0
LINE
  5
21F6
  8
TITLE
 10
156.2572655143635
 20
36.353316716259783
 30
0.0
 11
157.25268124470219
 21
37.348732446597751
 31
0.0
  0
LINE
  5
21F7
  8
TITLE
 10
156.2572655143635
 20
36.266031843612033
 30
0.0
 11
157.25268124470219
 21
37.261447573950711
 31
0.0
  0
LINE
  5
21F8
  8
TITLE
 10
156.2572655143635
 20
36.178746970968753
 30
0.0
 11
157.25268124470219
 21
37.174162701303892
 31
0.0
  0
LINE
  5
21F9
  8
TITLE
 10
156.2572655143635
 20
36.091462098321358
 30
0.0
 11
157.25268124470219
 21
37.086877828656732
 31
0.0
  0
LINE
  5
21FA
  8
TITLE
 10
156.2572655143635
 20
37.662589805959442
 30
0.0
 11
157.25268124470219
 21
38.65800553629424
 31
0.0
  0
LINE
  5
21FB
  8
TITLE
 10
156.2572655143635
 20
37.575304933312182
 30
0.0
 11
157.25268124470219
 21
38.570720663647748
 31
0.0
  0
LINE
  5
21FC
  8
TITLE
 10
156.2572655143635
 20
37.226165442723868
 30
0.0
 11
157.25268124470219
 21
38.221581173062077
 31
0.0
  0
LINE
  5
21FD
  8
TITLE
 10
156.2572655143635
 20
37.138880570076473
 30
0.0
 11
157.25268124470219
 21
38.134296300415258
 31
0.0
  0
LINE
  5
21FE
  8
TITLE
 10
156.2572655143635
 20
37.488020060665249
 30
0.0
 11
157.25268124470219
 21
38.483435791003899
 31
0.0
  0
LINE
  5
21FF
  8
TITLE
 10
156.2572655143635
 20
37.400735188017848
 30
0.0
 11
157.25268124470219
 21
38.396150918356852
 31
0.0
  0
LINE
  5
2200
  8
TITLE
 10
156.2572655143635
 20
37.313450315370801
 30
0.0
 11
157.25268124470219
 21
38.308866045709472
 31
0.0
  0
LINE
  5
2201
  8
TITLE
 10
156.2572655143635
 20
36.964310824785677
 30
0.0
 11
157.25268124470219
 21
37.95972655512071
 31
0.0
  0
LINE
  5
2202
  8
TITLE
 10
156.2572655143635
 20
36.877025952138872
 30
0.0
 11
157.25268124470219
 21
37.872441682477302
 31
0.0
  0
LINE
  5
2203
  8
TITLE
 10
156.2572655143635
 20
36.789741079495002
 30
0.0
 11
157.25268124470219
 21
37.785156809830262
 31
0.0
  0
LINE
  5
2204
  8
TITLE
 10
156.2572655143635
 20
37.051595697433072
 30
0.0
 11
157.25268124470219
 21
38.047011427768091
 31
0.0
  0
LINE
  5
2205
  8
TITLE
 10
156.2021652330622
 20
34.290664364088229
 30
0.0
 11
157.25268124470219
 21
35.341180375727959
 31
0.0
  0
LINE
  5
2206
  8
TITLE
 10
156.28945010570939
 20
34.290664364088229
 30
0.0
 11
157.25268124470219
 21
35.253895503080798
 31
0.0
  0
LINE
  5
2207
  8
TITLE
 10
156.37673497835701
 20
34.290664364088229
 30
0.0
 11
157.25268124470219
 21
35.166610630433411
 31
0.0
  0
LINE
  5
2208
  8
TITLE
 10
156.46401985100371
 20
34.290664364088229
 30
0.0
 11
157.3164519143665
 21
35.143096427454793
 31
0.0
  0
LINE
  5
2209
  8
TITLE
 10
156.5513047236509
 20
34.290664364088229
 30
0.0
 11
157.40373678701371
 21
35.143096427454793
 31
0.0
  0
LINE
  5
220A
  8
TITLE
 10
156.638589596298
 20
34.290664364088229
 30
0.0
 11
157.49102165966079
 21
35.143096427454793
 31
0.0
  0
LINE
  5
220B
  8
TITLE
 10
156.72587446894519
 20
34.290664364088229
 30
0.0
 11
157.57830653230801
 21
35.143096427454793
 31
0.0
  0
LINE
  5
220C
  8
TITLE
 10
156.81315934158511
 20
34.290664364088229
 30
0.0
 11
157.66559140495559
 21
35.143096427454793
 31
0.0
  0
LINE
  5
220D
  8
TITLE
 10
156.90044421423221
 20
34.290664364088229
 30
0.0
 11
157.7528762776023
 21
35.143096427454793
 31
0.0
  0
LINE
  5
220E
  8
TITLE
 10
156.98772908687991
 20
34.290664364088229
 30
0.0
 11
157.8401611502494
 21
35.143096427454793
 31
0.0
  0
LINE
  5
220F
  8
TITLE
 10
157.07501395952659
 20
34.290664364088229
 30
0.0
 11
157.9274460228898
 21
35.143096427454793
 31
0.0
  0
LINE
  5
2210
  8
TITLE
 10
156.2572655143635
 20
35.567752862442148
 30
0.0
 11
157.25268124470219
 21
36.563168592780698
 31
0.0
  0
LINE
  5
2211
  8
TITLE
 10
156.2572655143635
 20
35.480467989795102
 30
0.0
 11
157.25268124470219
 21
36.475883720133879
 31
0.0
  0
LINE
  5
2212
  8
TITLE
 10
156.2572655143635
 20
35.393183117147707
 30
0.0
 11
157.25268124470219
 21
36.388598847486492
 31
0.0
  0
LINE
  5
2213
  8
TITLE
 10
156.2572655143635
 20
35.305898244500888
 30
0.0
 11
157.25268124470219
 21
36.301313974839218
 31
0.0
  0
LINE
  5
2214
  8
TITLE
 10
156.2572655143635
 20
35.21861337185716
 30
0.0
 11
157.25268124470219
 21
36.214029102192512
 31
0.0
  0
LINE
  5
2215
  8
TITLE
 10
156.2572655143635
 20
35.916892353030789
 30
0.0
 11
157.25268124470219
 21
36.912308083366163
 31
0.0
  0
LINE
  5
2216
  8
TITLE
 10
156.2572655143635
 20
35.829607480383856
 30
0.0
 11
157.25268124470219
 21
36.825023210718548
 31
0.0
  0
LINE
  5
2217
  8
TITLE
 10
156.2572655143635
 20
35.742322607736469
 30
0.0
 11
157.25268124470219
 21
36.73773833807536
 31
0.0
  0
LINE
  5
2218
  8
TITLE
 10
156.2572655143635
 20
35.655037735089209
 30
0.0
 11
157.25268124470219
 21
36.650453465427852
 31
0.0
  0
LINE
  5
2219
  8
TITLE
 10
156.2572655143635
 20
36.004177225674312
 30
0.0
 11
157.25268124470219
 21
36.999592956009337
 31
0.0
  0
LINE
  5
221A
  8
TITLE
 10
157.16229883217369
 20
34.290664364088229
 30
0.0
 11
158.0147308955365
 21
35.143096427454793
 31
0.0
  0
LINE
  5
221B
  8
TITLE
 10
157.24958370482091
 20
34.290664364088229
 30
0.0
 11
158.10201576818369
 21
35.143096427454793
 31
0.0
  0
LINE
  5
221C
  8
TITLE
 10
157.33686857746801
 20
34.290664364088229
 30
0.0
 11
158.18930064083079
 21
35.143096427454793
 31
0.0
  0
LINE
  5
221D
  8
TITLE
 10
157.4241534501152
 20
34.290664364088229
 30
0.0
 11
158.27658551347841
 21
35.143096427454793
 31
0.0
  0
LINE
  5
221E
  8
TITLE
 10
157.51143832276281
 20
34.290664364088229
 30
0.0
 11
158.3638703861252
 21
35.143096427454793
 31
0.0
  0
LINE
  5
221F
  8
TITLE
 10
157.59872319540941
 20
34.290664364088229
 30
0.0
 11
158.45115525877279
 21
35.143096427454793
 31
0.0
  0
LINE
  5
2220
  8
TITLE
 10
157.6860080680498
 20
34.290664364088229
 30
0.0
 11
158.53844013141941
 21
35.143096427454793
 31
0.0
  0
LINE
  5
2221
  8
TITLE
 10
157.77329294069659
 20
34.290664364088229
 30
0.0
 11
158.62572500406671
 21
35.143096427454793
 31
0.0
  0
LINE
  5
2222
  8
TITLE
 10
157.8605778133437
 20
34.290664364088229
 30
0.0
 11
158.71300987671381
 21
35.143096427454793
 31
0.0
  0
LINE
  5
2223
  8
TITLE
 10
157.94786268599091
 20
34.290664364088229
 30
0.0
 11
158.8002947493604
 21
35.143096427454793
 31
0.0
  0
LINE
  5
2224
  8
TITLE
 10
159.10776876619821
 20
39.029250222800002
 30
0.0
 11
159.30611452061461
 21
39.2275959772169
 31
0.0
  0
LINE
  5
2225
  8
TITLE
 10
160.19255660353559
 20
38.281055734561839
 30
0.0
 11
160.25669792540521
 21
38.345197056431289
 31
0.0
  0
LINE
  5
2226
  8
TITLE
 10
163.72798633964021
 20
36.753962857166933
 30
0.0
 11
164.24970248666381
 21
37.27567900419411
 31
0.0
  0
LINE
  5
2227
  8
TITLE
 10
163.8152712122874
 20
36.753962857166933
 30
0.0
 11
164.336987359311
 21
37.27567900419411
 31
0.0
  0
LINE
  5
2228
  8
TITLE
 10
163.66372972693171
 20
35.11857853682784
 30
0.0
 11
164.33267756657139
 21
35.787526376463802
 31
0.0
  0
LINE
  5
2229
  8
TITLE
 10
163.70606493347799
 20
35.073628870726907
 30
0.0
 11
164.3550569315961
 21
35.722620868848942
 31
0.0
  0
LINE
  5
222A
  8
TITLE
 10
160.29380424761661
 20
37.771309270119673
 30
0.0
 11
160.86769203392851
 21
38.345197056431289
 31
0.0
  0
LINE
  5
222B
  8
TITLE
 10
160.38108912026379
 20
37.771309270119673
 30
0.0
 11
160.95497690657521
 21
38.345197056431289
 31
0.0
  0
LINE
  5
222C
  8
TITLE
 10
160.46837399291101
 20
37.771309270119673
 30
0.0
 11
161.0422617792228
 21
38.345197056431289
 31
0.0
  0
LINE
  5
222D
  8
TITLE
 10
160.55565886555809
 20
37.771309270119673
 30
0.0
 11
161.1295466518695
 21
38.345197056431289
 31
0.0
  0
LINE
  5
222E
  8
TITLE
 10
160.64294373820559
 20
37.771309270119673
 30
0.0
 11
161.21683152451669
 21
38.345197056431289
 31
0.0
  0
LINE
  5
222F
  8
TITLE
 10
160.32387630642279
 20
36.753962857166933
 30
0.0
 11
160.84559245345369
 21
37.27567900419411
 31
0.0
  0
LINE
  5
2230
  8
TITLE
 10
160.41116117906989
 20
36.753962857166933
 30
0.0
 11
160.93287732610091
 21
37.27567900419411
 31
0.0
  0
LINE
  5
2231
  8
TITLE
 10
160.49844605171711
 20
36.753962857166933
 30
0.0
 11
161.02016219874071
 21
37.27567900419411
 31
0.0
  0
LINE
  5
2232
  8
TITLE
 10
160.58573092436379
 20
36.753962857166933
 30
0.0
 11
161.10744707138741
 21
37.27567900419411
 31
0.0
  0
LINE
  5
2233
  8
TITLE
 10
160.673015797011
 20
36.753962857166933
 30
0.0
 11
161.19473194403511
 21
37.27567900419411
 31
0.0
  0
LINE
  5
2234
  8
TITLE
 10
160.76030066965811
 20
36.753962857166933
 30
0.0
 11
161.28201681668219
 21
37.27567900419411
 31
0.0
  0
LINE
  5
2235
  8
TITLE
 10
160.9920832287871
 20
37.771309270119673
 30
0.0
 11
161.94853797750781
 21
38.727764018840162
 31
0.0
  0
LINE
  5
2236
  8
TITLE
 10
161.0793681014338
 20
37.771309270119673
 30
0.0
 11
161.96310099286481
 21
38.655042161550568
 31
0.0
  0
LINE
  5
2237
  8
TITLE
 10
161.16665297408099
 20
37.771309270119673
 30
0.0
 11
161.97766400822181
 21
38.582320304256882
 31
0.0
  0
LINE
  5
2238
  8
TITLE
 10
161.25393784672809
 20
37.771309270119673
 30
0.0
 11
161.99222702357881
 21
38.50959844696672
 31
0.0
  0
LINE
  5
2239
  8
TITLE
 10
161.34122271937531
 20
37.771309270119673
 30
0.0
 11
162.00679003893629
 21
38.436876589676672
 31
0.0
  0
LINE
  5
223A
  8
TITLE
 10
161.42850759202241
 20
37.771309270119673
 30
0.0
 11
162.02135305428601
 21
38.364154732383092
 31
0.0
  0
LINE
  5
223B
  8
TITLE
 10
161.5157924646696
 20
37.771309270119673
 30
0.0
 11
162.08968025098139
 21
38.345197056431289
 31
0.0
  0
LINE
  5
223C
  8
TITLE
 10
161.60307733731679
 20
37.771309270119673
 30
0.0
 11
162.17696512362821
 21
38.345197056431289
 31
0.0
  0
LINE
  5
223D
  8
TITLE
 10
161.69036220995699
 20
37.771309270119673
 30
0.0
 11
162.26424999627531
 21
38.345197056431289
 31
0.0
  0
LINE
  5
223E
  8
TITLE
 10
161.77764708260381
 20
37.771309270119673
 30
0.0
 11
162.3515348689148
 21
38.345197056431289
 31
0.0
  0
LINE
  5
223F
  8
TITLE
 10
161.86493195525139
 20
37.771309270119673
 30
0.0
 11
162.43881974156281
 21
38.345197056431289
 31
0.0
  0
LINE
  5
2240
  8
TITLE
 10
161.9522168278981
 20
37.771309270119673
 30
0.0
 11
162.5261046142094
 21
38.345197056431289
 31
0.0
  0
LINE
  5
2241
  8
TITLE
 10
162.03950170054571
 20
37.771309270119673
 30
0.0
 11
162.6133894868567
 21
38.345197056431289
 31
0.0
  0
LINE
  5
2242
  8
TITLE
 10
160.8475855423053
 20
36.753962857166933
 30
0.0
 11
161.36930168932889
 21
37.27567900419411
 31
0.0
  0
LINE
  5
2243
  8
TITLE
 10
160.9348704149524
 20
36.753962857166933
 30
0.0
 11
161.45658656197651
 21
37.27567900419411
 31
0.0
  0
LINE
  5
2244
  8
TITLE
 10
161.02215528759999
 20
36.753962857166933
 30
0.0
 11
161.54387143462361
 21
37.27567900419411
 31
0.0
  0
LINE
  5
2245
  8
TITLE
 10
161.10944016024681
 20
36.753962857166933
 30
0.0
 11
161.6311563072704
 21
37.27567900419411
 31
0.0
  0
LINE
  5
2246
  8
TITLE
 10
161.1967250328866
 20
36.753962857166933
 30
0.0
 11
161.71844117991799
 21
37.27567900419411
 31
0.0
  0
LINE
  5
2247
  8
TITLE
 10
161.28400990553379
 20
36.753962857166933
 30
0.0
 11
161.80572605256461
 21
37.27567900419411
 31
0.0
  0
LINE
  5
2248
  8
TITLE
 10
161.37129477818141
 20
36.753962857166933
 30
0.0
 11
161.89301092520509
 21
37.27567900419411
 31
0.0
  0
LINE
  5
2249
  8
TITLE
 10
161.4585796508286
 20
36.753962857166933
 30
0.0
 11
161.98029579785219
 21
37.27567900419411
 31
0.0
  0
LINE
  5
224A
  8
TITLE
 10
161.5458645234757
 20
36.753962857166933
 30
0.0
 11
162.06758067049941
 21
37.27567900419411
 31
0.0
  0
LINE
  5
224B
  8
TITLE
 10
161.63314939612289
 20
36.753962857166933
 30
0.0
 11
162.1548655431466
 21
37.27567900419411
 31
0.0
  0
LINE
  5
224C
  8
TITLE
 10
161.72043426876959
 20
36.753962857166933
 30
0.0
 11
162.2421504157933
 21
37.27567900419411
 31
0.0
  0
LINE
  5
224D
  8
TITLE
 10
161.80771914141721
 20
36.753962857166933
 30
0.0
 11
162.32943528844081
 21
37.27567900419411
 31
0.0
  0
LINE
  5
224E
  8
TITLE
 10
162.40239210711391
 20
37.610490440808583
 30
0.0
 11
163.13709872274009
 21
38.345197056431289
 31
0.0
  0
LINE
  5
224F
  8
TITLE
 10
162.40239210711391
 20
37.52320556816143
 30
0.0
 11
163.22438359538
 21
38.345197056431289
 31
0.0
  0
LINE
  5
2250
  8
TITLE
 10
162.40239210711391
 20
37.43592069551778
 30
0.0
 11
163.31166846802671
 21
38.345197056431289
 31
0.0
  0
LINE
  5
2251
  8
TITLE
 10
162.40239210711391
 20
37.348635822870961
 30
0.0
 11
163.39895334067381
 21
38.345197056431289
 31
0.0
  0
LINE
  5
2252
  8
TITLE
 10
161.8950040140644
 20
36.753962857166933
 30
0.0
 11
163.486238213321
 21
38.345197056431289
 31
0.0
  0
LINE
  5
2253
  8
TITLE
 10
161.9822888867111
 20
36.753962857166933
 30
0.0
 11
163.57352308596819
 21
38.345197056431289
 31
0.0
  0
LINE
  5
2254
  8
TITLE
 10
162.1267865731929
 20
37.771309270119673
 30
0.0
 11
162.70067435950381
 21
38.345197056431289
 31
0.0
  0
LINE
  5
2255
  8
TITLE
 10
162.21407144584009
 20
37.771309270119673
 30
0.0
 11
162.78795923215151
 21
38.345197056431289
 31
0.0
  0
LINE
  5
2256
  8
TITLE
 10
162.3013563184868
 20
37.771309270119673
 30
0.0
 11
162.87524410479821
 21
38.345197056431289
 31
0.0
  0
LINE
  5
2257
  8
TITLE
 10
162.38864119113441
 20
37.771309270119673
 30
0.0
 11
162.96252897744529
 21
38.345197056431289
 31
0.0
  0
LINE
  5
2258
  8
TITLE
 10
162.40239210711391
 20
37.697775313452098
 30
0.0
 11
163.0498138500929
 21
38.345197056431289
 31
0.0
  0
LINE
  5
2259
  8
TITLE
 10
162.33142837729289
 20
36.753962857166933
 30
0.0
 11
163.29115615205859
 21
37.713690631932892
 31
0.0
  0
LINE
  5
225A
  8
TITLE
 10
162.40239210711391
 20
36.73764171434415
 30
0.0
 11
163.29115615205859
 21
37.626405759286058
 31
0.0
  0
LINE
  5
225B
  8
TITLE
 10
162.40239210711391
 20
36.650356841696727
 30
0.0
 11
163.29115615205859
 21
37.539120886638791
 31
0.0
  0
LINE
  5
225C
  8
TITLE
 10
162.40239210711391
 20
36.563071969049929
 30
0.0
 11
163.29115615205859
 21
37.451836013995148
 31
0.0
  0
LINE
  5
225D
  8
TITLE
 10
162.40239210711391
 20
36.475787096406179
 30
0.0
 11
163.29115615205859
 21
37.364551141347761
 31
0.0
  0
LINE
  5
225E
  8
TITLE
 10
162.40239210711391
 20
36.38850222375936
 30
0.0
 11
163.29115615205859
 21
37.2772662687006
 31
0.0
  0
LINE
  5
225F
  8
TITLE
 10
162.40239210711391
 20
36.301217351111852
 30
0.0
 11
163.37685376019951
 21
37.27567900419411
 31
0.0
  0
LINE
  5
2260
  8
TITLE
 10
162.66124580890161
 20
34.290664364088229
 30
0.0
 11
163.29115615205859
 21
34.920574707245457
 31
0.0
  0
LINE
  5
2261
  8
TITLE
 10
162.7485306815488
 20
34.290664364088229
 30
0.0
 11
163.29115615205859
 21
34.833289834598759
 31
0.0
  0
LINE
  5
2262
  8
TITLE
 10
162.8358155541959
 20
34.290664364088229
 30
0.0
 11
163.29115615205859
 21
34.746004961954782
 31
0.0
  0
LINE
  5
2263
  8
TITLE
 10
162.92310042684261
 20
34.290664364088229
 30
0.0
 11
163.29115615205859
 21
34.65872008930797
 31
0.0
  0
LINE
  5
2264
  8
TITLE
 10
163.0103852994898
 20
34.290664364088229
 30
0.0
 11
163.29115615205859
 21
34.571435216660461
 31
0.0
  0
LINE
  5
2265
  8
TITLE
 10
163.09767017213741
 20
34.290664364088229
 30
0.0
 11
163.29115615205859
 21
34.484150344016832
 31
0.0
  0
LINE
  5
2266
  8
TITLE
 10
163.1849550447773
 20
34.290664364088229
 30
0.0
 11
163.29115615205859
 21
34.396865471369772
 31
0.0
  0
LINE
  5
2267
  8
TITLE
 10
163.27223991742451
 20
34.290664364088229
 30
0.0
 11
163.29115615205859
 21
34.309580598722732
 31
0.0
  0
LINE
  5
2268
  8
TITLE
 10
161.44498062361481
 20
34.645526886440052
 30
0.0
 11
162.35071042157551
 21
35.55125668439689
 31
0.0
  0
LINE
  5
2269
  8
TITLE
 10
161.71786840926279
 20
34.831129799436781
 30
0.0
 11
162.16510750857509
 21
35.27836889874937
 31
0.0
  0
LINE
  5
226A
  8
TITLE
 10
162.40239210711391
 20
34.730089643477868
 30
0.0
 11
163.29115615205859
 21
35.618853688419229
 31
0.0
  0
LINE
  5
226B
  8
TITLE
 10
162.40239210711391
 20
34.642804770830722
 30
0.0
 11
163.29115615205859
 21
35.531568815772182
 31
0.0
  0
LINE
  5
226C
  8
TITLE
 10
162.40239210711391
 20
34.55551989818332
 30
0.0
 11
163.29115615205859
 21
35.444283943124901
 31
0.0
  0
LINE
  5
226D
  8
TITLE
 10
162.40239210711391
 20
34.46823502553606
 30
0.0
 11
163.29115615205859
 21
35.35699907048113
 31
0.0
  0
LINE
  5
226E
  8
TITLE
 10
162.40239210711391
 20
34.380950152888772
 30
0.0
 11
163.29115615205859
 21
35.269714197834332
 31
0.0
  0
LINE
  5
226F
  8
TITLE
 10
162.40239210711391
 20
34.29366528024174
 30
0.0
 11
163.29115615205859
 21
35.182429325186952
 31
0.0
  0
LINE
  5
2270
  8
TITLE
 10
162.48667606360721
 20
34.290664364088229
 30
0.0
 11
163.29115615205859
 21
35.095144452540133
 31
0.0
  0
LINE
  5
2271
  8
TITLE
 10
162.573960936254
 20
34.290664364088229
 30
0.0
 11
163.29115615205859
 21
35.007859579892738
 31
0.0
  0
LINE
  5
2272
  8
TITLE
 10
160.30949041180199
 20
34.295600528440097
 30
0.0
 11
162.29830810986959
 21
36.284418226511548
 31
0.0
  0
LINE
  5
2273
  8
TITLE
 10
160.40476624130361
 20
34.303591485298632
 30
0.0
 11
162.3855929825167
 21
36.284418226511548
 31
0.0
  0
LINE
  5
2274
  8
TITLE
 10
160.3188350089531
 20
35.788787960585871
 30
0.0
 11
160.8144652748818
 21
36.284418226511548
 31
0.0
  0
LINE
  5
2275
  8
TITLE
 10
160.4061198816002
 20
35.788787960585871
 30
0.0
 11
160.90175014752961
 21
36.284418226511548
 31
0.0
  0
LINE
  5
2276
  8
TITLE
 10
160.49340475424739
 20
35.788787960585871
 30
0.0
 11
160.9890350201695
 21
36.284418226511548
 31
0.0
  0
LINE
  5
2277
  8
TITLE
 10
160.58068962689461
 20
35.788787960585871
 30
0.0
 11
161.07631989281711
 21
36.284418226511548
 31
0.0
  0
LINE
  5
2278
  8
TITLE
 10
160.66797449954171
 20
35.788787960585871
 30
0.0
 11
161.16360476546379
 21
36.284418226511548
 31
0.0
  0
LINE
  5
2279
  8
TITLE
 10
160.7552593721889
 20
35.788787960585871
 30
0.0
 11
161.25088963811081
 21
36.284418226511548
 31
0.0
  0
LINE
  5
227A
  8
TITLE
 10
160.50423453726211
 20
34.31577490860969
 30
0.0
 11
163.4641386328467
 21
37.27567900419411
 31
0.0
  0
LINE
  5
227B
  8
TITLE
 10
160.6085784827246
 20
34.332833981428507
 30
0.0
 11
163.5514235054934
 21
37.27567900419411
 31
0.0
  0
LINE
  5
227C
  8
TITLE
 10
160.718721629127
 20
34.35569225518384
 30
0.0
 11
163.63870837814099
 21
37.27567900419411
 31
0.0
  0
LINE
  5
227D
  8
TITLE
 10
160.84254424483601
 20
35.788787960585871
 30
0.0
 11
161.33817451075811
 21
36.284418226511548
 31
0.0
  0
LINE
  5
227E
  8
TITLE
 10
160.92982911748319
 20
35.788787960585871
 30
0.0
 11
161.42545938340481
 21
36.284418226511548
 31
0.0
  0
LINE
  5
227F
  8
TITLE
 10
161.01711399013041
 20
35.788787960585871
 30
0.0
 11
161.5127442560524
 21
36.284418226511548
 31
0.0
  0
LINE
  5
2280
  8
TITLE
 10
161.1043988627774
 20
35.788787960585871
 30
0.0
 11
161.60002912869959
 21
36.284418226511548
 31
0.0
  0
LINE
  5
2281
  8
TITLE
 10
161.1916837354174
 20
35.788787960585871
 30
0.0
 11
161.68731400134629
 21
36.284418226511548
 31
0.0
  0
LINE
  5
2282
  8
TITLE
 10
161.27896860806499
 20
35.788787960585871
 30
0.0
 11
161.77459887399391
 21
36.284418226511548
 31
0.0
  0
LINE
  5
2283
  8
TITLE
 10
161.3589777037532
 20
35.781512183627569
 30
0.0
 11
161.86188374664101
 21
36.284418226511548
 31
0.0
  0
LINE
  5
2284
  8
TITLE
 10
161.30235564884961
 20
35.637605256076881
 30
0.0
 11
161.9491686192809
 21
36.284418226511548
 31
0.0
  0
LINE
  5
2285
  8
TITLE
 10
161.1516103502131
 20
35.3995750847929
 30
0.0
 11
162.03645349192811
 21
36.284418226511548
 31
0.0
  0
LINE
  5
2286
  8
TITLE
 10
160.96226088844691
 20
34.424661769209592
 30
0.0
 11
163.29115615205859
 21
36.75355703282149
 31
0.0
  0
LINE
  5
2287
  8
TITLE
 10
161.10075752885271
 20
34.47587353697179
 30
0.0
 11
163.29115615205859
 21
36.666272160174572
 31
0.0
  0
LINE
  5
2288
  8
TITLE
 10
161.25724562885301
 20
34.545076764320918
 30
0.0
 11
163.29115615205859
 21
36.578987287530822
 31
0.0
  0
LINE
  5
2289
  8
TITLE
 10
162.40239210711391
 20
35.60293836994186
 30
0.0
 11
163.29115615205859
 21
36.491702414883548
 31
0.0
  0
LINE
  5
228A
  8
TITLE
 10
162.40239210711391
 20
35.515653497294579
 30
0.0
 11
163.29115615205859
 21
36.404417542236281
 31
0.0
  0
LINE
  5
228B
  8
TITLE
 10
162.40239210711391
 20
35.428368624647753
 30
0.0
 11
163.29115615205859
 21
36.317132669592873
 31
0.0
  0
LINE
  5
228C
  8
TITLE
 10
162.40239210711391
 20
35.341083752000372
 30
0.0
 11
163.34572658162779
 21
36.284418226511548
 31
0.0
  0
LINE
  5
228D
  8
TITLE
 10
162.40239210711391
 20
35.253798879352992
 30
0.0
 11
163.4330114542754
 21
36.284418226511548
 31
0.0
  0
LINE
  5
228E
  8
TITLE
 10
162.40239210711391
 20
35.166514006706173
 30
0.0
 11
163.52029632692251
 21
36.284418226511548
 31
0.0
  0
LINE
  5
228F
  8
TITLE
 10
162.40239210711391
 20
35.079229134059119
 30
0.0
 11
163.60758119956969
 21
36.284418226511548
 31
0.0
  0
LINE
  5
2290
  8
TITLE
 10
163.6407014669926
 20
36.753962857166933
 30
0.0
 11
164.1624176140167
 21
37.27567900419411
 31
0.0
  0
LINE
  5
2291
  8
TITLE
 10
163.29156197640441
 20
36.753962857166933
 30
0.0
 11
163.81327812342801
 21
37.27567900419411
 31
0.0
  0
LINE
  5
2292
  8
TITLE
 10
162.06957375935141
 20
36.753962857166933
 30
0.0
 11
163.66080795861529
 21
38.345197056431289
 31
0.0
  0
LINE
  5
2293
  8
TITLE
 10
163.37884684905151
 20
36.753962857166933
 30
0.0
 11
163.90056299607519
 21
37.27567900419411
 31
0.0
  0
LINE
  5
2294
  8
TITLE
 10
163.4661317216987
 20
36.753962857166933
 30
0.0
 11
163.98784786872241
 21
37.27567900419411
 31
0.0
  0
LINE
  5
2295
  8
TITLE
 10
163.55341659434541
 20
36.753962857166933
 30
0.0
 11
164.07513274136949
 21
37.27567900419411
 31
0.0
  0
LINE
  5
2296
  8
TITLE
 10
163.36358074300281
 20
35.516708534072109
 30
0.0
 11
164.13129043544541
 21
36.284418226511548
 31
0.0
  0
LINE
  5
2297
  8
TITLE
 10
163.3972585987535
 20
35.463101517168887
 30
0.0
 11
164.21857530809251
 21
36.284418226511548
 31
0.0
  0
LINE
  5
2298
  8
TITLE
 10
163.43206153260959
 20
35.41061957838464
 30
0.0
 11
164.3058601807397
 21
36.284418226511548
 31
0.0
  0
LINE
  5
2299
  8
TITLE
 10
160.83596690959439
 20
34.38565266300418
 30
0.0
 11
163.7259932507809
 21
37.27567900419411
 31
0.0
  0
LINE
  5
229A
  8
TITLE
 10
162.40239210711391
 20
34.991944261411859
 30
0.0
 11
163.69486607220941
 21
36.284418226511548
 31
0.0
  0
LINE
  5
229B
  8
TITLE
 10
162.40239210711391
 20
34.904659388768209
 30
0.0
 11
163.78215094485671
 21
36.284418226511548
 31
0.0
  0
LINE
  5
229C
  8
TITLE
 10
163.29967983550611
 20
35.627377371866373
 30
0.0
 11
163.95672069015109
 21
36.284418226511548
 31
0.0
  0
LINE
  5
229D
  8
TITLE
 10
163.33104717638199
 20
35.5714598400981
 30
0.0
 11
164.04400556279819
 21
36.284418226511548
 31
0.0
  0
LINE
  5
229E
  8
TITLE
 10
162.40239210711391
 20
34.817374516121163
 30
0.0
 11
163.8694358175039
 21
36.284418226511548
 31
0.0
  0
LINE
  5
229F
  8
TITLE
 10
160.0148037945464
 20
39.412576015269451
 30
0.0
 11
160.01694288793851
 21
39.414715108664723
 31
0.0
  0
LINE
  5
22A0
  8
TITLE
 10
160.0148037945464
 20
39.32529114262217
 30
0.0
 11
160.1042277605857
 21
39.414715108664723
 31
0.0
  0
LINE
  5
22A1
  8
TITLE
 10
160.61614987812891
 20
39.664782608266712
 30
0.0
 11
160.8066555212213
 21
39.855288251358161
 31
0.0
  0
LINE
  5
22A2
  8
TITLE
 10
160.64410538805529
 20
39.605453245545853
 30
0.0
 11
160.89394039386801
 21
39.855288251358161
 31
0.0
  0
LINE
  5
22A3
  8
TITLE
 10
160.6720608979885
 20
39.546123882831921
 30
0.0
 11
160.98122526651511
 21
39.855288251358161
 31
0.0
  0
LINE
  5
22A4
  8
TITLE
 10
160.700016407915
 20
39.486794520118004
 30
0.0
 11
161.0685101391623
 21
39.855288251358161
 31
0.0
  0
LINE
  5
22A5
  8
TITLE
 10
160.72797191784841
 20
39.42746515739713
 30
0.0
 11
161.1557950118094
 21
39.855288251358161
 31
0.0
  0
LINE
  5
22A6
  8
TITLE
 10
160.5322833483356
 20
39.842770696411208
 30
0.0
 11
160.54480090327979
 21
39.855288251358161
 31
0.0
  0
LINE
  5
22A7
  8
TITLE
 10
160.5602388582692
 20
39.783441333693759
 30
0.0
 11
160.6320857759265
 21
39.855288251358161
 31
0.0
  0
LINE
  5
22A8
  8
TITLE
 10
160.58819436819519
 20
39.724111970980182
 30
0.0
 11
160.7193706485736
 21
39.855288251358161
 31
0.0
  0
LINE
  5
22A9
  8
TITLE
 10
163.20754153537641
 20
39.63762808612114
 30
0.0
 11
163.4252017006138
 21
39.855288251358161
 31
0.0
  0
LINE
  5
22AA
  8
TITLE
 10
163.20754153537641
 20
39.5503432134741
 30
0.0
 11
163.5124865732609
 21
39.855288251358161
 31
0.0
  0
LINE
  5
22AB
  8
TITLE
 10
163.20754153537641
 20
39.463058340826713
 30
0.0
 11
163.5997714459086
 21
39.855288251358161
 31
0.0
  0
LINE
  5
22AC
  8
TITLE
 10
163.20754153537641
 20
39.812197831411829
 30
0.0
 11
163.25063195531939
 21
39.855288251358161
 31
0.0
  0
LINE
  5
22AD
  8
TITLE
 10
163.20754153537641
 20
39.724912958765003
 30
0.0
 11
163.33791682796661
 21
39.855288251358161
 31
0.0
  0
LINE
  5
22AE
  8
TITLE
 10
161.81601004633561
 20
39.642654559420073
 30
0.0
 11
162.02864373827379
 21
39.855288251358161
 31
0.0
  0
LINE
  5
22AF
  8
TITLE
 10
161.81601004633561
 20
39.555369686772792
 30
0.0
 11
162.1159286109208
 21
39.855288251358161
 31
0.0
  0
LINE
  5
22B0
  8
TITLE
 10
161.81601004633561
 20
39.468084814125632
 30
0.0
 11
162.20321348356811
 21
39.855288251358161
 31
0.0
  0
LINE
  5
22B1
  8
TITLE
 10
161.81601004633561
 20
39.817224304714152
 30
0.0
 11
161.85407399297981
 21
39.855288251358161
 31
0.0
  0
LINE
  5
22B2
  8
TITLE
 10
161.81601004633561
 20
39.729939432067113
 30
0.0
 11
161.9413588656266
 21
39.855288251358161
 31
0.0
  0
LINE
  5
22B3
  8
TITLE
 10
154.875
 20
67.5
 30
0.0
 11
154.875
 21
52.5
 31
0.0
  0
LINE
  5
22B4
  8
TITLE
 10
169.875
 20
52.5
 30
0.0
 11
169.875
 21
42.5
 31
0.0
  0
LINE
  5
22B5
  8
TITLE
 10
180.62811698430551
 20
36.284403845184897
 30
0.0
 11
181.33196672157911
 21
36.988253582461773
 31
0.0
  0
LINE
  5
22B6
  8
TITLE
 10
180.71540185694539
 20
36.284403845184897
 30
0.0
 11
181.4192515942259
 21
36.988253582461773
 31
0.0
  0
LINE
  5
22B7
  8
TITLE
 10
180.55314311294839
 20
37.431418190884422
 30
0.0
 11
181.33519837659151
 21
38.213473454524433
 31
0.0
  0
LINE
  5
22B8
  8
TITLE
 10
180.64042798559601
 20
37.431418190884422
 30
0.0
 11
181.42248324923159
 21
38.213473454524433
 31
0.0
  0
LINE
  5
22B9
  8
TITLE
 10
180.54083211165829
 20
36.284403845184897
 30
0.0
 11
181.24468184893161
 21
36.988253582461773
 31
0.0
  0
LINE
  5
22BA
  8
TITLE
 10
180.02943387707231
 20
37.431418190884422
 30
0.0
 11
180.811489140709
 21
38.213473454524433
 31
0.0
  0
LINE
  5
22BB
  8
TITLE
 10
180.11671874971941
 20
37.431418190884422
 30
0.0
 11
180.8987740133561
 21
38.213473454524433
 31
0.0
  0
LINE
  5
22BC
  8
TITLE
 10
180.2040036223668
 20
37.431418190884422
 30
0.0
 11
180.98605888600281
 21
38.213473454524433
 31
0.0
  0
LINE
  5
22BD
  8
TITLE
 10
180.2912884950068
 20
37.431418190884422
 30
0.0
 11
181.0733437586504
 21
38.213473454524433
 31
0.0
  0
LINE
  5
22BE
  8
TITLE
 10
180.3785733676541
 20
37.431418190884422
 30
0.0
 11
181.16062863129761
 21
38.213473454524433
 31
0.0
  0
LINE
  5
22BF
  8
TITLE
 10
180.46585824030109
 20
37.431418190884422
 30
0.0
 11
181.2479135039448
 21
38.213473454524433
 31
0.0
  0
LINE
  5
22C0
  8
TITLE
 10
180.64192957407201
 20
34.290664364088229
 30
0.0
 11
181.3583122065088
 21
35.007046996521808
 31
0.0
  0
LINE
  5
22C1
  8
TITLE
 10
180.72921444671911
 20
34.290664364088229
 30
0.0
 11
181.44559707914911
 21
35.007046996521808
 31
0.0
  0
LINE
  5
22C2
  8
TITLE
 10
180.1182203381959
 20
34.290664364088229
 30
0.0
 11
180.83460297062581
 21
35.007046996521808
 31
0.0
  0
LINE
  5
22C3
  8
TITLE
 10
180.205505210843
 20
34.290664364088229
 30
0.0
 11
180.921887843273
 21
35.007046996521808
 31
0.0
  0
LINE
  5
22C4
  8
TITLE
 10
180.2927900834901
 20
34.290664364088229
 30
0.0
 11
181.0091727159201
 21
35.007046996521808
 31
0.0
  0
LINE
  5
22C5
  8
TITLE
 10
180.3800749561378
 20
34.290664364088229
 30
0.0
 11
181.09645758856729
 21
35.007046996521808
 31
0.0
  0
LINE
  5
22C6
  8
TITLE
 10
180.46735982878451
 20
34.290664364088229
 30
0.0
 11
181.18374246121451
 21
35.007046996521808
 31
0.0
  0
LINE
  5
22C7
  8
TITLE
 10
180.55464470142491
 20
34.290664364088229
 30
0.0
 11
181.2710273338615
 21
35.007046996521808
 31
0.0
  0
LINE
  5
22C8
  8
TITLE
 10
179.42597096264521
 20
35.605967059410773
 30
0.0
 11
180.8082574856958
 21
36.988253582461773
 31
0.0
  0
LINE
  5
22C9
  8
TITLE
 10
178.7072920514297
 20
34.80000327554491
 30
0.0
 11
180.89554235834279
 21
36.988253582461773
 31
0.0
  0
LINE
  5
22CA
  8
TITLE
 10
178.7072920514297
 20
34.712718402897728
 30
0.0
 11
180.9828272309901
 21
36.988253582461773
 31
0.0
  0
LINE
  5
22CB
  8
TITLE
 10
178.7072920514297
 20
34.625433530250923
 30
0.0
 11
181.07011210363771
 21
36.988253582461773
 31
0.0
  0
LINE
  5
22CC
  8
TITLE
 10
178.7072920514297
 20
34.538148657607181
 30
0.0
 11
181.15739697628479
 21
36.988253582461773
 31
0.0
  0
LINE
  5
22CD
  8
TITLE
 10
180.72771285824231
 20
37.431418190884422
 30
0.0
 11
181.50976812187841
 21
38.213473454524433
 31
0.0
  0
LINE
  5
22CE
  8
TITLE
 10
179.30763632220351
 20
37.844323980424527
 30
0.0
 11
181.31860059313701
 21
39.855288251358161
 31
0.0
  0
LINE
  5
22CF
  8
TITLE
 10
179.9825343084444
 20
38.344652221363852
 30
0.0
 11
181.4931703384313
 21
39.855288251358161
 31
0.0
  0
LINE
  5
22D0
  8
TITLE
 10
179.80890453483059
 20
38.258307320404469
 30
0.0
 11
181.40588546578411
 21
39.855288251358161
 31
0.0
  0
LINE
  5
22D1
  8
TITLE
 10
179.0937551089996
 20
37.97958225780247
 30
0.0
 11
180.96946110255561
 21
39.855288251358161
 31
0.0
  0
LINE
  5
22D2
  8
TITLE
 10
179.22271149789859
 20
38.021253774057868
 30
0.0
 11
181.0567459752028
 21
39.855288251358161
 31
0.0
  0
LINE
  5
22D3
  8
TITLE
 10
179.30763632220351
 20
38.018893725715202
 30
0.0
 11
181.14403084784951
 21
39.855288251358161
 31
0.0
  0
LINE
  5
22D4
  8
TITLE
 10
179.30763632220351
 20
37.931608853071907
 30
0.0
 11
181.2313157204899
 21
39.855288251358161
 31
0.0
  0
LINE
  5
22D5
  8
TITLE
 10
178.85011463170619
 20
37.91051152580701
 30
0.0
 11
180.79489135726121
 21
39.855288251358161
 31
0.0
  0
LINE
  5
22D6
  8
TITLE
 10
178.96976362207991
 20
37.942875643533398
 30
0.0
 11
180.88217622990851
 21
39.855288251358161
 31
0.0
  0
LINE
  5
22D7
  8
TITLE
 10
180.673038484198
 20
38.773301779179747
 30
0.0
 11
181.7324988401233
 21
39.832762135112489
 31
0.0
  0
LINE
  5
22D8
  8
TITLE
 10
180.174956612263
 20
38.449789652542691
 30
0.0
 11
181.5804552110784
 21
39.855288251358161
 31
0.0
  0
LINE
  5
22D9
  8
TITLE
 10
180.39642081793039
 20
38.58396898555965
 30
0.0
 11
181.6677400837257
 21
39.855288251354871
 31
0.0
  0
LINE
  5
22DA
  8
TITLE
 10
172.57787504294851
 20
36.962649168479047
 30
0.0
 11
173.33436338238559
 21
37.719137507916351
 31
0.0
  0
LINE
  5
22DB
  8
TITLE
 10
172.467552497817
 20
38.42345433098194
 30
0.0
 11
173.17186919796671
 21
39.127771031131147
 31
0.0
  0
LINE
  5
22DC
  8
TITLE
 10
172.5548373704641
 20
38.42345433098194
 30
0.0
 11
173.2591540706139
 21
39.127771031131147
 31
0.0
  0
LINE
  5
22DD
  8
TITLE
 10
172.4514693816254
 20
37.010813252449907
 30
0.0
 11
173.15979363709161
 21
37.719137507916351
 31
0.0
  0
LINE
  5
22DE
  8
TITLE
 10
172.4905901703014
 20
36.962649168479047
 30
0.0
 11
173.2470785097384
 21
37.719137507916351
 31
0.0
  0
LINE
  5
22DF
  8
TITLE
 10
172.29475386004381
 20
38.774364929091362
 30
0.0
 11
172.64815996208381
 21
39.127771031131147
 31
0.0
  0
LINE
  5
22E0
  8
TITLE
 10
172.29475386004381
 20
38.425225438502721
 30
0.0
 11
172.99729945267239
 21
39.127771031131147
 31
0.0
  0
LINE
  5
22E1
  8
TITLE
 10
172.38026762516981
 20
38.42345433098194
 30
0.0
 11
173.08458432531961
 21
39.127771031131147
 31
0.0
  0
LINE
  5
22E2
  8
TITLE
 10
172.29475386004381
 20
38.5997951837968
 30
0.0
 11
172.8227297073781
 21
39.127771031131147
 31
0.0
  0
LINE
  5
22E3
  8
TITLE
 10
172.29475386004381
 20
38.512510311149747
 30
0.0
 11
172.91001458002481
 21
39.127771031131147
 31
0.0
  0
LINE
  5
22E4
  8
TITLE
 10
172.29475386004381
 20
38.687080056444309
 30
0.0
 11
172.735444834731
 21
39.127771031131147
 31
0.0
  0
LINE
  5
22E5
  8
TITLE
 10
172.4514693816254
 20
37.534522488326047
 30
0.0
 11
172.63608440120879
 21
37.719137507916351
 31
0.0
  0
LINE
  5
22E6
  8
TITLE
 10
172.4514693816254
 20
37.44723761567878
 30
0.0
 11
172.72336927385581
 21
37.719137507916351
 31
0.0
  0
LINE
  5
22E7
  8
TITLE
 10
172.4514693816254
 20
37.359952743031492
 30
0.0
 11
172.8106541465026
 21
37.719137507916351
 31
0.0
  0
LINE
  5
22E8
  8
TITLE
 10
172.4514693816254
 20
37.272667870387849
 30
0.0
 11
172.89793901914979
 21
37.719137507916351
 31
0.0
  0
LINE
  5
22E9
  8
TITLE
 10
172.4514693816254
 20
37.185382997741158
 30
0.0
 11
172.9852238917974
 21
37.719137507916351
 31
0.0
  0
LINE
  5
22EA
  8
TITLE
 10
172.4514693816254
 20
37.098098125093657
 30
0.0
 11
173.07250876444459
 21
37.719137507916351
 31
0.0
  0
LINE
  5
22EB
  8
TITLE
 10
172.29475386004381
 20
34.322836424122229
 30
0.0
 11
173.1567077417057
 21
35.184790305784759
 31
0.0
  0
LINE
  5
22EC
  8
TITLE
 10
172.35079091551691
 20
34.291588606948039
 30
0.0
 11
173.25261030160979
 21
35.19340799303427
 31
0.0
  0
LINE
  5
22ED
  8
TITLE
 10
172.4401466895483
 20
34.293659508329029
 30
0.0
 11
173.34922418261789
 21
35.202737001402397
 31
0.0
  0
LINE
  5
22EE
  8
TITLE
 10
172.5302638594367
 20
34.29649180557783
 30
0.0
 11
173.44656687467611
 21
35.212794820813201
 31
0.0
  0
LINE
  5
22EF
  8
TITLE
 10
172.29475386004381
 20
34.759260787354151
 30
0.0
 11
172.68730457385709
 21
35.151811501164282
 31
0.0
  0
LINE
  5
22F0
  8
TITLE
 10
172.29475386004381
 20
34.671975914707218
 30
0.0
 11
172.77988720518081
 21
35.157109259844113
 31
0.0
  0
LINE
  5
22F1
  8
TITLE
 10
172.29475386004381
 20
34.584691042060058
 30
0.0
 11
172.8731044927485
 21
35.16304167476153
 31
0.0
  0
LINE
  5
22F2
  8
TITLE
 10
172.29475386004381
 20
34.49740616941655
 30
0.0
 11
172.9669704731636
 21
35.169622782536749
 31
0.0
  0
LINE
  5
22F3
  8
TITLE
 10
172.29475386004381
 20
34.410121296769269
 30
0.0
 11
173.06149979207521
 21
35.176867228793867
 31
0.0
  0
LINE
  5
22F4
  8
TITLE
 10
172.29475386004381
 20
34.846545659997787
 30
0.0
 11
172.59534313633139
 21
35.147134936285852
 31
0.0
  0
LINE
  5
22F5
  8
TITLE
 10
169.7533630284633
 20
39.287944640132991
 30
0.0
 11
170.32070663968901
 21
39.855288251358161
 31
0.0
  0
LINE
  5
22F6
  8
TITLE
 10
169.7533630284633
 20
39.200659767485718
 30
0.0
 11
170.40799151233611
 21
39.855288251358161
 31
0.0
  0
LINE
  5
22F7
  8
TITLE
 10
168.7082057942402
 20
39.290205877672172
 30
0.0
 11
169.27328816792979
 21
39.855288251358161
 31
0.0
  0
LINE
  5
22F8
  8
TITLE
 10
166.880246378229
 20
39.295228787233562
 30
0.0
 11
167.44030584235401
 21
39.855288251358161
 31
0.0
  0
LINE
  5
22F9
  8
TITLE
 10
166.880246378229
 20
39.207943914586053
 30
0.0
 11
167.52759071500159
 21
39.855288251358161
 31
0.0
  0
LINE
  5
22FA
  8
TITLE
 10
164.60189006294681
 20
38.762569924883337
 30
0.0
 11
165.25403524673169
 21
39.414715108664723
 31
0.0
  0
LINE
  5
22FB
  8
TITLE
 10
164.68917493559411
 20
38.762569924883337
 30
0.0
 11
165.34132011937891
 21
39.414715108664723
 31
0.0
  0
LINE
  5
22FC
  8
TITLE
 10
164.77645980824079
 20
38.762569924883337
 30
0.0
 11
165.42860499201879
 21
39.414715108664723
 31
0.0
  0
LINE
  5
22FD
  8
TITLE
 10
164.863744680888
 20
38.762569924883337
 30
0.0
 11
165.51588986466581
 21
39.414715108664723
 31
0.0
  0
LINE
  5
22FE
  8
TITLE
 10
168.42128167881481
 20
38.828712016948771
 30
0.0
 11
169.4399319852991
 21
39.847362323440279
 31
0.0
  0
LINE
  5
22FF
  8
TITLE
 10
168.42128167881481
 20
38.74142714430149
 30
0.0
 11
169.4399319852991
 21
39.760077450793119
 31
0.0
  0
LINE
  5
2300
  8
TITLE
 10
168.42128167881481
 20
38.479572526363199
 30
0.0
 11
169.4399319852991
 21
39.498222832851638
 31
0.0
  0
LINE
  5
2301
  8
TITLE
 10
168.42128167881481
 20
38.39228765371638
 30
0.0
 11
169.43989151933329
 21
39.410897494238377
 31
0.0
  0
LINE
  5
2302
  8
TITLE
 10
168.42128167881481
 20
38.305002781072751
 30
0.0
 11
169.43609377269601
 21
39.319814874953749
 31
0.0
  0
LINE
  5
2303
  8
TITLE
 10
168.42128167881481
 20
38.654142271654223
 30
0.0
 11
169.4399319852991
 21
39.672792578145732
 31
0.0
  0
LINE
  5
2304
  8
TITLE
 10
168.42128167881481
 20
38.566857399007191
 30
0.0
 11
169.4399319852991
 21
39.585507705499033
 31
0.0
  0
LINE
  5
2305
  8
TITLE
 10
168.654293248187
 20
39.149008458971359
 30
0.0
 11
169.36057304057741
 21
39.855288251358161
 31
0.0
  0
LINE
  5
2306
  8
TITLE
 10
166.880246378229
 20
38.946089296648211
 30
0.0
 11
167.7160621819707
 21
39.781905100389743
 31
0.0
  0
LINE
  5
2307
  8
TITLE
 10
166.880246378229
 20
39.120659041938772
 30
0.0
 11
167.61487558764881
 21
39.855288251358161
 31
0.0
  0
LINE
  5
2308
  8
TITLE
 10
166.880246378229
 20
39.03337416929196
 30
0.0
 11
167.7021604602887
 21
39.855288251358161
 31
0.0
  0
LINE
  5
2309
  8
TITLE
 10
164.95102955353511
 20
38.762569924883337
 30
0.0
 11
165.60317473731311
 21
39.414715108664723
 31
0.0
  0
LINE
  5
230A
  8
TITLE
 10
165.03831442618269
 20
38.762569924883337
 30
0.0
 11
165.6787444646329
 21
39.402999963329762
 31
0.0
  0
LINE
  5
230B
  8
TITLE
 10
165.12559929882261
 20
38.762569924883337
 30
0.0
 11
165.6787444646329
 21
39.315715090685998
 31
0.0
  0
LINE
  5
230C
  8
TITLE
 10
166.21012421571581
 20
38.18868226149106
 30
0.0
 11
167.7160621819707
 21
39.694620227746213
 31
0.0
  0
LINE
  5
230D
  8
TITLE
 10
166.2974090883626
 20
38.18868226149106
 30
0.0
 11
167.7160621819707
 21
39.607335355098833
 31
0.0
  0
LINE
  5
230E
  8
TITLE
 10
166.38469396100979
 20
38.188682261487429
 30
0.0
 11
167.7160621819707
 21
39.520050482451673
 31
0.0
  0
LINE
  5
230F
  8
TITLE
 10
166.471978833657
 20
38.188682261487429
 30
0.0
 11
167.7160621819707
 21
39.432765609804392
 31
0.0
  0
LINE
  5
2310
  8
TITLE
 10
166.55926370629729
 20
38.188682261487429
 30
0.0
 11
167.7160621819707
 21
39.345480737157558
 31
0.0
  0
LINE
  5
2311
  8
TITLE
 10
169.7533630284633
 20
38.502380786315257
 30
0.0
 11
170.56305938401781
 21
39.31207714186985
 31
0.0
  0
LINE
  5
2312
  8
TITLE
 10
169.1938716242766
 20
38.553883490655153
 30
0.0
 11
170.49527638497599
 21
39.855288251358161
 31
0.0
  0
LINE
  5
2313
  8
TITLE
 10
169.28115649692381
 20
38.553883490655153
 30
0.0
 11
170.56305938401781
 21
39.835786377745883
 31
0.0
  0
LINE
  5
2314
  8
TITLE
 10
169.368441369571
 20
38.553883490655153
 30
0.0
 11
170.56305938401781
 21
39.748501505102013
 31
0.0
  0
LINE
  5
2315
  8
TITLE
 10
169.45572624221811
 20
38.553883490655153
 30
0.0
 11
170.56305938401781
 21
39.661216632454718
 31
0.0
  0
LINE
  5
2316
  8
TITLE
 10
169.54301111486529
 20
38.553883490655153
 30
0.0
 11
170.56305938401781
 21
39.57393175980792
 31
0.0
  0
LINE
  5
2317
  8
TITLE
 10
169.63029598750521
 20
38.553883490655153
 30
0.0
 11
170.56305938401781
 21
39.48664688716417
 31
0.0
  0
LINE
  5
2318
  8
TITLE
 10
169.71758086015279
 20
38.553883490655153
 30
0.0
 11
170.56305938401781
 21
39.399362014516903
 31
0.0
  0
LINE
  5
2319
  8
TITLE
 10
168.42231796777011
 20
37.171335725622271
 30
0.0
 11
169.02229151226081
 21
37.771309270119673
 31
0.0
  0
LINE
  5
231A
  8
TITLE
 10
168.42128167881481
 20
37.43215405460478
 30
0.0
 11
168.7604368943262
 21
37.771309270119673
 31
0.0
  0
LINE
  5
231B
  8
TITLE
 10
168.42128167881481
 20
37.344869181961258
 30
0.0
 11
168.84772176697331
 21
37.771309270119673
 31
0.0
  0
LINE
  5
231C
  8
TITLE
 10
168.42128167881481
 20
37.257584309314211
 30
0.0
 11
168.9350066396205
 21
37.771309270119673
 31
0.0
  0
LINE
  5
231D
  8
TITLE
 10
168.42128167881481
 20
37.519438927252061
 30
0.0
 11
168.67315202167899
 21
37.771309270119673
 31
0.0
  0
LINE
  5
231E
  8
TITLE
 10
168.42128167881481
 20
37.694008672542743
 30
0.0
 11
168.4985822763847
 21
37.771309270119673
 31
0.0
  0
LINE
  5
231F
  8
TITLE
 10
168.42128167881481
 20
37.606723799899548
 30
0.0
 11
168.5858671490318
 21
37.771309270119673
 31
0.0
  0
LINE
  5
2320
  8
TITLE
 10
168.42128167881481
 20
38.04314816313115
 30
0.0
 11
169.50590479264699
 21
39.127771276966662
 31
0.0
  0
LINE
  5
2321
  8
TITLE
 10
168.42128167881481
 20
38.13043303577841
 30
0.0
 11
169.4186199199994
 21
39.127771276966662
 31
0.0
  0
LINE
  5
2322
  8
TITLE
 10
168.42128167881481
 20
34.551753257273958
 30
0.0
 11
169.7182866230055
 21
35.848758201464079
 31
0.0
  0
LINE
  5
2323
  8
TITLE
 10
168.42128167881481
 20
35.424601983738171
 30
0.0
 11
170.76798896519631
 21
37.771309270119673
 31
0.0
  0
LINE
  5
2324
  8
TITLE
 10
168.42128167881481
 20
34.98817762050237
 30
0.0
 11
171.20441332842481
 21
37.771309270119673
 31
0.0
  0
LINE
  5
2325
  8
TITLE
 10
168.42128167881481
 20
34.813607875211801
 30
0.0
 11
171.3789830737191
 21
37.771309270119673
 31
0.0
  0
LINE
  5
2326
  8
TITLE
 10
168.42128167881481
 20
34.726323002564762
 30
0.0
 11
171.4662679463662
 21
37.771309270119673
 31
0.0
  0
LINE
  5
2327
  8
TITLE
 10
168.42128167881481
 20
34.639038129921239
 30
0.0
 11
171.5535528190135
 21
37.771309270119673
 31
0.0
  0
LINE
  5
2328
  8
TITLE
 10
168.42128167881481
 20
34.900892747859082
 30
0.0
 11
171.29169820107239
 21
37.771309270119673
 31
0.0
  0
LINE
  5
2329
  8
TITLE
 10
168.42128167881481
 20
35.162747365796918
 30
0.0
 11
171.02984358313051
 21
37.771309270119673
 31
0.0
  0
LINE
  5
232A
  8
TITLE
 10
168.42128167881481
 20
35.075462493149772
 30
0.0
 11
171.11712845577759
 21
37.771309270119673
 31
0.0
  0
LINE
  5
232B
  8
TITLE
 10
168.42128167881481
 20
35.337317111091252
 30
0.0
 11
170.85527383783619
 21
37.771309270119673
 31
0.0
  0
LINE
  5
232C
  8
TITLE
 10
168.42128167881481
 20
35.25003223844385
 30
0.0
 11
170.9425587104833
 21
37.771309270119673
 31
0.0
  0
LINE
  5
232D
  8
TITLE
 10
168.42128167881481
 20
38.217717908425932
 30
0.0
 11
169.42584509583909
 21
39.222281325453203
 31
0.0
  0
LINE
  5
232E
  8
TITLE
 10
164.4834781346444
 20
37.771309270119673
 30
0.0
 11
165.05736592095579
 21
38.345197056431289
 31
0.0
  0
LINE
  5
232F
  8
TITLE
 10
164.57076300729159
 20
37.771309270119673
 30
0.0
 11
165.14465079360301
 21
38.345197056431289
 31
0.0
  0
LINE
  5
2330
  8
TITLE
 10
164.65804787993821
 20
37.771309270119673
 30
0.0
 11
165.23193566625011
 21
38.345197056431289
 31
0.0
  0
LINE
  5
2331
  8
TITLE
 10
164.74533275258591
 20
37.771309270119673
 30
0.0
 11
165.31922053889679
 21
38.345197056431289
 31
0.0
  0
LINE
  5
2332
  8
TITLE
 10
164.83261762523259
 20
37.771309270119673
 30
0.0
 11
165.406505411544
 21
38.345197056431289
 31
0.0
  0
LINE
  5
2333
  8
TITLE
 10
164.4262653208097
 20
36.753962857166933
 30
0.0
 11
164.94798146783381
 21
37.27567900419411
 31
0.0
  0
LINE
  5
2334
  8
TITLE
 10
164.51355019345729
 20
36.753962857166933
 30
0.0
 11
165.035266340481
 21
37.27567900419411
 31
0.0
  0
LINE
  5
2335
  8
TITLE
 10
164.60083506610451
 20
36.753962857166933
 30
0.0
 11
165.12255121312819
 21
37.27567900419411
 31
0.0
  0
LINE
  5
2336
  8
TITLE
 10
164.68811993875161
 20
36.753962857166933
 30
0.0
 11
165.20983608577529
 21
37.27567900419411
 31
0.0
  0
LINE
  5
2337
  8
TITLE
 10
164.7754048113988
 20
36.753962857166933
 30
0.0
 11
165.29712095842251
 21
37.27567900419411
 31
0.0
  0
LINE
  5
2338
  8
TITLE
 10
164.86268968403871
 20
36.753962857166933
 30
0.0
 11
165.3844058310697
 21
37.27567900419411
 31
0.0
  0
LINE
  5
2339
  8
TITLE
 10
166.8211183242388
 20
38.18868226149106
 30
0.0
 11
167.7160621819707
 21
39.083626119219623
 31
0.0
  0
LINE
  5
233A
  8
TITLE
 10
167.7812519233498
 20
38.188682261487429
 30
0.0
 11
168.18620851319969
 21
38.593638851333687
 31
0.0
  0
LINE
  5
233B
  8
TITLE
 10
167.86853679599739
 20
38.188682261487429
 30
0.0
 11
168.18620851319969
 21
38.506353978686427
 31
0.0
  0
LINE
  5
233C
  8
TITLE
 10
167.9558216686446
 20
38.188682261487429
 30
0.0
 11
168.18620851319969
 21
38.419069106043032
 31
0.0
  0
LINE
  5
233D
  8
TITLE
 10
168.1303914139389
 20
38.18868226149106
 30
0.0
 11
168.18620851319969
 21
38.244499360749273
 31
0.0
  0
LINE
  5
233E
  8
TITLE
 10
168.04310654129179
 20
38.188682261487429
 30
0.0
 11
168.18620851319969
 21
38.331784233395751
 31
0.0
  0
LINE
  5
233F
  8
TITLE
 10
166.880246378229
 20
37.811385952246248
 30
0.0
 11
167.93577362943819
 21
38.866913203454828
 31
0.0
  0
LINE
  5
2340
  8
TITLE
 10
166.880246378229
 20
37.724101079599109
 30
0.0
 11
168.0230585020858
 21
38.866913203454828
 31
0.0
  0
LINE
  5
2341
  8
TITLE
 10
166.880246378229
 20
37.985955697536951
 30
0.0
 11
167.7612038841439
 21
38.866913203454828
 31
0.0
  0
LINE
  5
2342
  8
TITLE
 10
166.880246378229
 20
37.898670824889791
 30
0.0
 11
167.848488756791
 21
38.866913203454828
 31
0.0
  0
LINE
  5
2343
  8
TITLE
 10
166.880246378229
 20
38.073240570183771
 30
0.0
 11
167.7160621819707
 21
38.909056373925303
 31
0.0
  0
LINE
  5
2344
  8
TITLE
 10
166.880246378229
 20
38.160525442827172
 30
0.0
 11
167.7160621819707
 21
38.996341246572797
 31
0.0
  0
LINE
  5
2345
  8
TITLE
 10
165.3001690441169
 20
38.762569924883337
 30
0.0
 11
165.6787444646329
 21
39.14114534539533
 31
0.0
  0
LINE
  5
2346
  8
TITLE
 10
165.38745391676409
 20
38.762569924883337
 30
0.0
 11
165.6787444646329
 21
39.053860472748291
 31
0.0
  0
LINE
  5
2347
  8
TITLE
 10
165.56202366205801
 20
38.762569924883337
 30
0.0
 11
165.6787444646329
 21
38.879290727453849
 31
0.0
  0
LINE
  5
2348
  8
TITLE
 10
165.6493085347056
 20
38.762569924883337
 30
0.0
 11
165.6787444646329
 21
38.792005854806931
 31
0.0
  0
LINE
  5
2349
  8
TITLE
 10
166.148907666708
 20
38.825744693652837
 30
0.0
 11
166.19007617650959
 21
38.866913203454828
 31
0.0
  0
LINE
  5
234A
  8
TITLE
 10
166.148907666708
 20
38.738459821005897
 30
0.0
 11
166.2773610491567
 21
38.866913203454828
 31
0.0
  0
LINE
  5
234B
  8
TITLE
 10
165.47473878941119
 20
38.762569924883337
 30
0.0
 11
165.6787444646329
 21
38.966575600101123
 31
0.0
  0
LINE
  5
234C
  8
TITLE
 10
165.00718737052691
 20
37.771309270119673
 30
0.0
 11
165.5009916556441
 21
38.265113555233128
 31
0.0
  0
LINE
  5
234D
  8
TITLE
 10
165.09447224317441
 20
37.771309270119673
 30
0.0
 11
165.5009916556441
 21
38.177828682585748
 31
0.0
  0
LINE
  5
234E
  8
TITLE
 10
164.9199024978802
 20
37.771309270119673
 30
0.0
 11
165.49379028419159
 21
38.345197056431289
 31
0.0
  0
LINE
  5
234F
  8
TITLE
 10
165.1817571158212
 20
37.771309270119673
 30
0.0
 11
165.5009916556441
 21
38.090543809941892
 31
0.0
  0
LINE
  5
2350
  8
TITLE
 10
165.2690419884689
 20
37.771309270119673
 30
0.0
 11
165.5009916556441
 21
38.003258937294618
 31
0.0
  0
LINE
  5
2351
  8
TITLE
 10
165.3563268611087
 20
37.771309270119673
 30
0.0
 11
165.5009916556441
 21
37.915974064647799
 31
0.0
  0
LINE
  5
2352
  8
TITLE
 10
165.4436117337558
 20
37.771309270119673
 30
0.0
 11
165.5009916556441
 21
37.828689192000532
 31
0.0
  0
LINE
  5
2353
  8
TITLE
 10
166.148907666708
 20
38.476605203068061
 30
0.0
 11
166.53921566709809
 21
38.866913203454828
 31
0.0
  0
LINE
  5
2354
  8
TITLE
 10
166.148907666708
 20
38.389320330420787
 30
0.0
 11
166.62650053973809
 21
38.866913203454828
 31
0.0
  0
LINE
  5
2355
  8
TITLE
 10
166.148907666708
 20
38.302035457777272
 30
0.0
 11
166.71378541238531
 21
38.866913203454828
 31
0.0
  0
LINE
  5
2356
  8
TITLE
 10
166.148907666708
 20
38.56389007571147
 30
0.0
 11
166.4519307944511
 21
38.866913203454828
 31
0.0
  0
LINE
  5
2357
  8
TITLE
 10
166.148907666708
 20
38.651174948358523
 30
0.0
 11
166.3646459218034
 21
38.866913203454828
 31
0.0
  0
LINE
  5
2358
  8
TITLE
 10
166.73383345159161
 20
38.188682261487429
 30
0.0
 11
167.7160621819707
 21
39.170910991863252
 31
0.0
  0
LINE
  5
2359
  8
TITLE
 10
166.148907666708
 20
38.214750585130112
 30
0.0
 11
166.80107028503241
 21
38.866913203454828
 31
0.0
  0
LINE
  5
235A
  8
TITLE
 10
167.75207853396111
 20
36.850235782398492
 30
0.0
 11
168.18620851319969
 21
37.28436576164097
 31
0.0
  0
LINE
  5
235B
  8
TITLE
 10
167.80073655151409
 20
36.811608927311227
 30
0.0
 11
168.18620851319969
 21
37.19708088899381
 31
0.0
  0
LINE
  5
235C
  8
TITLE
 10
167.85035882454761
 20
36.77394632769392
 30
0.0
 11
168.18620851319969
 21
37.109796016346891
 31
0.0
  0
LINE
  5
235D
  8
TITLE
 10
166.880246378229
 20
36.152973371960911
 30
0.0
 11
168.18620851319969
 21
37.45893550693188
 31
0.0
  0
LINE
  5
235E
  8
TITLE
 10
166.880246378229
 20
36.065688499317382
 30
0.0
 11
168.18620851319969
 21
37.371650634284492
 31
0.0
  0
LINE
  5
235F
  8
TITLE
 10
167.90095402853541
 20
36.73725665903509
 30
0.0
 11
168.18620851319969
 21
37.022511143699717
 31
0.0
  0
LINE
  5
2360
  8
TITLE
 10
167.95253238190659
 20
36.701550139762837
 30
0.0
 11
168.18620851319969
 21
36.935226271052329
 31
0.0
  0
LINE
  5
2361
  8
TITLE
 10
168.00510572374469
 20
36.666838608949767
 30
0.0
 11
168.18620851319969
 21
36.847941398405169
 31
0.0
  0
LINE
  5
2362
  8
TITLE
 10
168.05868760605111
 20
36.633135618608662
 30
0.0
 11
168.18620851319969
 21
36.760656525758243
 31
0.0
  0
LINE
  5
2363
  8
TITLE
 10
168.11329340231941
 20
36.600456542236891
 30
0.0
 11
168.18620851319969
 21
36.67337165311087
 31
0.0
  0
LINE
  5
2364
  8
TITLE
 10
168.16894043453561
 20
36.568818701806208
 30
0.0
 11
168.18620851319969
 21
36.586086780467333
 31
0.0
  0
LINE
  5
2365
  8
TITLE
 10
164.9499745566859
 20
36.753962857166933
 30
0.0
 11
165.4716907037168
 21
37.27567900419411
 31
0.0
  0
LINE
  5
2366
  8
TITLE
 10
165.03725942933301
 20
36.753962857166933
 30
0.0
 11
165.5009916556441
 21
37.217695083474162
 31
0.0
  0
LINE
  5
2367
  8
TITLE
 10
165.12454430198019
 20
36.753962857166933
 30
0.0
 11
165.5009916556441
 21
37.130410210830171
 31
0.0
  0
LINE
  5
2368
  8
TITLE
 10
165.21182917462781
 20
36.753962857166933
 30
0.0
 11
165.5009916556441
 21
37.043125338183238
 31
0.0
  0
LINE
  5
2369
  8
TITLE
 10
165.29911404727449
 20
36.753962857166933
 30
0.0
 11
165.5009916556441
 21
36.955840465536092
 31
0.0
  0
LINE
  5
236A
  8
TITLE
 10
165.3863989199217
 20
36.753962857166933
 30
0.0
 11
165.5009916556441
 21
36.868555592888811
 31
0.0
  0
LINE
  5
236B
  8
TITLE
 10
165.47368379256881
 20
36.753962857166933
 30
0.0
 11
165.5009916556441
 21
36.781270720241892
 31
0.0
  0
LINE
  5
236C
  8
TITLE
 10
166.148907666708
 20
36.643622877492021
 30
0.0
 11
166.24534904758769
 21
36.740064258368761
 31
0.0
  0
LINE
  5
236D
  8
TITLE
 10
166.64848984491979
 20
37.143205055700271
 30
0.0
 11
168.18620851319969
 21
38.680923723981209
 31
0.0
  0
LINE
  5
236E
  8
TITLE
 10
166.148907666708
 20
36.556338004845109
 30
0.0
 11
167.7160621819707
 21
38.123492520108243
 31
0.0
  0
LINE
  5
236F
  8
TITLE
 10
166.148907666708
 20
36.469053132201232
 30
0.0
 11
167.7160621819707
 21
38.036207647460849
 31
0.0
  0
LINE
  5
2370
  8
TITLE
 10
166.148907666708
 20
36.381768259553951
 30
0.0
 11
167.717425092892
 21
37.950285685731508
 31
0.0
  0
LINE
  5
2371
  8
TITLE
 10
166.148907666708
 20
36.294483386907018
 30
0.0
 11
167.74361771013309
 21
37.889193430325577
 31
0.0
  0
LINE
  5
2372
  8
TITLE
 10
166.148907666708
 20
36.207198514259851
 30
0.0
 11
167.77395436095179
 21
37.832245208504219
 31
0.0
  0
LINE
  5
2373
  8
TITLE
 10
166.148907666708
 20
36.119913641612811
 30
0.0
 11
167.8081289049378
 21
37.779134879839148
 31
0.0
  0
LINE
  5
2374
  8
TITLE
 10
166.148907666708
 20
36.032628768965772
 30
0.0
 11
167.84594176974579
 21
37.729662872007907
 31
0.0
  0
LINE
  5
2375
  8
TITLE
 10
166.87125114582969
 20
37.62782097455591
 30
0.0
 11
168.11034337473251
 21
38.866913203454828
 31
0.0
  0
LINE
  5
2376
  8
TITLE
 10
166.8317516961751
 20
37.501036652250377
 30
0.0
 11
168.18620851319969
 21
38.855493469275288
 31
0.0
  0
LINE
  5
2377
  8
TITLE
 10
166.76888234873871
 20
37.350882432170813
 30
0.0
 11
168.18620851319969
 21
38.768208596628263
 31
0.0
  0
LINE
  5
2378
  8
TITLE
 10
164.39619326200409
 20
37.771309270119673
 30
0.0
 11
164.97008104831539
 21
38.345197056431289
 31
0.0
  0
LINE
  5
2379
  8
TITLE
 10
164.4115936481698
 20
34.557169368366317
 30
0.0
 11
164.9422146894899
 21
35.087790409689212
 31
0.0
  0
LINE
  5
237A
  8
TITLE
 10
164.4705597219554
 20
34.528850569508002
 30
0.0
 11
165.00300379344611
 21
35.06129464099422
 31
0.0
  0
LINE
  5
237B
  8
TITLE
 10
164.5307945472309
 20
34.501800522135909
 30
0.0
 11
165.06680093899061
 21
35.0378069138958
 31
0.0
  0
LINE
  5
237C
  8
TITLE
 10
164.5923359918288
 20
34.47605709408311
 30
0.0
 11
165.1338636951977
 21
35.017584797455243
 31
0.0
  0
LINE
  5
237D
  8
TITLE
 10
164.65522661596879
 20
34.451662845584003
 30
0.0
 11
165.2045299025653
 21
35.000966132176359
 31
0.0
  0
LINE
  5
237E
  8
TITLE
 10
164.7195142780524
 20
34.428665635016159
 30
0.0
 11
165.27925029849979
 21
34.988401655463797
 31
0.0
  0
LINE
  5
237F
  8
TITLE
 10
164.78525286217331
 20
34.407119346489829
 30
0.0
 11
165.3586420420306
 21
34.980508526347187
 31
0.0
  0
LINE
  5
2380
  8
TITLE
 10
164.85250315731309
 20
34.387084768982511
 30
0.0
 11
165.4435820726035
 21
34.978163684272772
 31
0.0
  0
LINE
  5
2381
  8
TITLE
 10
166.880246378229
 20
35.192839772849311
 30
0.0
 11
167.7160621819707
 21
36.028655576594247
 31
0.0
  0
LINE
  5
2382
  8
TITLE
 10
166.880246378229
 20
34.843700282264201
 30
0.0
 11
167.7160621819707
 21
35.679516086005847
 31
0.0
  0
LINE
  5
2383
  8
TITLE
 10
166.880246378229
 20
34.756415409617027
 30
0.0
 11
167.7160621819707
 21
35.592231213358332
 31
0.0
  0
LINE
  5
2384
  8
TITLE
 10
166.880246378229
 20
34.669130536970101
 30
0.0
 11
167.7160621819707
 21
35.504946340711172
 31
0.0
  0
LINE
  5
2385
  8
TITLE
 10
166.880246378229
 20
34.581845664322827
 30
0.0
 11
167.7160621819707
 21
35.417661468067649
 31
0.0
  0
LINE
  5
2386
  8
TITLE
 10
166.880246378229
 20
34.494560791675681
 30
0.0
 11
167.7160621819707
 21
35.33037659542083
 31
0.0
  0
LINE
  5
2387
  8
TITLE
 10
166.880246378229
 20
34.407275919032152
 30
0.0
 11
167.7160621819707
 21
35.243091722773791
 31
0.0
  0
LINE
  5
2388
  8
TITLE
 10
166.880246378229
 20
34.319991046384871
 30
0.0
 11
167.7160621819707
 21
35.155806850130261
 31
0.0
  0
LINE
  5
2389
  8
TITLE
 10
166.93820456857611
 20
34.290664364088229
 30
0.0
 11
167.7160621819707
 21
35.068521977482867
 31
0.0
  0
LINE
  5
238A
  8
TITLE
 10
167.0254894412233
 20
34.290664364088229
 30
0.0
 11
167.7160621819707
 21
34.9812371048356
 31
0.0
  0
LINE
  5
238B
  8
TITLE
 10
167.1127743138704
 20
34.290664364088229
 30
0.0
 11
167.7160621819707
 21
34.89395223218834
 31
0.0
  0
LINE
  5
238C
  8
TITLE
 10
167.20005918651759
 20
34.290664364088229
 30
0.0
 11
167.7160621819707
 21
34.806667359541521
 31
0.0
  0
LINE
  5
238D
  8
TITLE
 10
167.2873440591647
 20
34.290664364088229
 30
0.0
 11
167.7160621819707
 21
34.719382486894013
 31
0.0
  0
LINE
  5
238E
  8
TITLE
 10
167.37462893181191
 20
34.290664364088229
 30
0.0
 11
167.7160621819707
 21
34.632097614246852
 31
0.0
  0
LINE
  5
238F
  8
TITLE
 10
167.46191380445899
 20
34.290664364088229
 30
0.0
 11
167.7160621819707
 21
34.544812741599912
 31
0.0
  0
LINE
  5
2390
  8
TITLE
 10
167.5491986771062
 20
34.290664364088229
 30
0.0
 11
167.7160621819707
 21
34.457527868956163
 31
0.0
  0
LINE
  5
2391
  8
TITLE
 10
167.63648354975339
 20
34.290664364088229
 30
0.0
 11
167.7160621819707
 21
34.37024299630945
 31
0.0
  0
LINE
  5
2392
  8
TITLE
 10
166.880246378229
 20
35.105554900205789
 30
0.0
 11
167.7160621819707
 21
35.9413707039472
 31
0.0
  0
LINE
  5
2393
  8
TITLE
 10
166.880246378229
 20
35.018270027558628
 30
0.0
 11
167.7160621819707
 21
35.854085831299933
 31
0.0
  0
LINE
  5
2394
  8
TITLE
 10
166.880246378229
 20
34.930985154911809
 30
0.0
 11
167.7160621819707
 21
35.766800958652659
 31
0.0
  0
LINE
  5
2395
  8
TITLE
 10
165.4686424950992
 20
35.788787960585871
 30
0.0
 11
165.6787444646329
 21
35.998889930119162
 31
0.0
  0
LINE
  5
2396
  8
TITLE
 10
164.92133392699091
 20
34.36863066601326
 30
0.0
 11
165.5328311199228
 21
34.980127858948777
 31
0.0
  0
LINE
  5
2397
  8
TITLE
 10
164.99182322103519
 20
34.351835087417498
 30
0.0
 11
165.62011599256991
 21
34.980127858948777
 31
0.0
  0
LINE
  5
2398
  8
TITLE
 10
165.06405999876139
 20
34.336786992492421
 30
0.0
 11
165.6787444646329
 21
34.951471458360629
 31
0.0
  0
LINE
  5
2399
  8
TITLE
 10
165.13814615752329
 20
34.323588278610828
 30
0.0
 11
165.6787444646329
 21
34.864186585713242
 31
0.0
  0
LINE
  5
239A
  8
TITLE
 10
165.2141990969007
 20
34.312356345341747
 30
0.0
 11
165.6787444646329
 21
34.77690171307006
 31
0.0
  0
LINE
  5
239B
  8
TITLE
 10
165.2923550009595
 20
34.303227376756702
 30
0.0
 11
165.6787444646329
 21
34.68961684042268
 31
0.0
  0
LINE
  5
239C
  8
TITLE
 10
165.372773100496
 20
34.296360603642711
 30
0.0
 11
165.6787444646329
 21
34.602331967779151
 31
0.0
  0
LINE
  5
239D
  8
TITLE
 10
165.45564129791771
 20
34.291943928416799
 30
0.0
 11
165.6787444646329
 21
34.515047095132211
 31
0.0
  0
LINE
  5
239E
  8
TITLE
 10
165.5416466062361
 20
34.290664364088229
 30
0.0
 11
165.6787444646329
 21
34.427762222485292
 31
0.0
  0
LINE
  5
239F
  8
TITLE
 10
165.6289314788832
 20
34.290664364088229
 30
0.0
 11
165.6787444646329
 21
34.340477349837784
 31
0.0
  0
LINE
  5
23A0
  8
TITLE
 10
165.55592736774679
 20
35.788787960585871
 30
0.0
 11
165.6787444646329
 21
35.911605057472222
 31
0.0
  0
LINE
  5
23A1
  8
TITLE
 10
165.64321224039381
 20
35.788787960585871
 30
0.0
 11
165.6787444646329
 21
35.82432018482497
 31
0.0
  0
LINE
  5
23A2
  8
TITLE
 10
164.4212240233405
 20
35.788787960585871
 30
0.0
 11
164.916854289263
 21
36.284418226511548
 31
0.0
  0
LINE
  5
23A3
  8
TITLE
 10
164.50850889598769
 20
35.788787960585871
 30
0.0
 11
165.00413916190971
 21
36.284418226511548
 31
0.0
  0
LINE
  5
23A4
  8
TITLE
 10
164.59579376863479
 20
35.788787960585871
 30
0.0
 11
165.09142403455681
 21
36.284418226511548
 31
0.0
  0
LINE
  5
23A5
  8
TITLE
 10
164.68307864128201
 20
35.788787960585871
 30
0.0
 11
165.178708907204
 21
36.284418226511548
 31
0.0
  0
LINE
  5
23A6
  8
TITLE
 10
164.7703635139292
 20
35.788787960585871
 30
0.0
 11
165.2659937798507
 21
36.284418226511548
 31
0.0
  0
LINE
  5
23A7
  8
TITLE
 10
164.857648386569
 20
35.788787960585871
 30
0.0
 11
165.3532786524988
 21
36.284418226511548
 31
0.0
  0
LINE
  5
23A8
  8
TITLE
 10
166.880246378229
 20
35.716549008728748
 30
0.0
 11
167.7160621819707
 21
36.552364812469811
 31
0.0
  0
LINE
  5
23A9
  8
TITLE
 10
166.880246378229
 20
35.629264136081481
 30
0.0
 11
167.7160621819707
 21
36.465079939822772
 31
0.0
  0
LINE
  5
23AA
  8
TITLE
 10
166.880246378229
 20
35.541979263434662
 30
0.0
 11
167.7160621819707
 21
36.377795067175597
 31
0.0
  0
LINE
  5
23AB
  8
TITLE
 10
166.880246378229
 20
35.454694390787282
 30
0.0
 11
167.7160621819707
 21
36.290510194532203
 31
0.0
  0
LINE
  5
23AC
  8
TITLE
 10
166.880246378229
 20
35.367409518143852
 30
0.0
 11
167.7160621819707
 21
36.203225321884808
 31
0.0
  0
LINE
  5
23AD
  8
TITLE
 10
166.880246378229
 20
35.280124645496471
 30
0.0
 11
167.7160621819707
 21
36.115940449241748
 31
0.0
  0
LINE
  5
23AE
  8
TITLE
 10
166.880246378229
 20
35.978403626670229
 30
0.0
 11
167.7160621819707
 21
36.814219430411192
 31
0.0
  0
LINE
  5
23AF
  8
TITLE
 10
166.880246378229
 20
35.891118754023189
 30
0.0
 11
167.7160621819707
 21
36.726934557764253
 31
0.0
  0
LINE
  5
23B0
  8
TITLE
 10
166.880246378229
 20
35.80383388137615
 30
0.0
 11
167.7160621819707
 21
36.639649685117092
 31
0.0
  0
LINE
  5
23B1
  8
TITLE
 10
164.94493325921621
 20
35.788787960585871
 30
0.0
 11
165.44056352514599
 21
36.284418226511548
 31
0.0
  0
LINE
  5
23B2
  8
TITLE
 10
165.0322181318638
 20
35.788787960585871
 30
0.0
 11
165.52784839778539
 21
36.284418226511548
 31
0.0
  0
LINE
  5
23B3
  8
TITLE
 10
165.11950300451099
 20
35.788787960585871
 30
0.0
 11
165.61513327043241
 21
36.284418226511548
 31
0.0
  0
LINE
  5
23B4
  8
TITLE
 10
165.20678787715769
 20
35.788787960585871
 30
0.0
 11
165.6787444646329
 21
36.260744548060757
 31
0.0
  0
LINE
  5
23B5
  8
TITLE
 10
165.2940727498048
 20
35.788787960585871
 30
0.0
 11
165.6787444646329
 21
36.173459675413817
 31
0.0
  0
LINE
  5
23B6
  8
TITLE
 10
165.38135762245199
 20
35.788787960585871
 30
0.0
 11
165.6787444646329
 21
36.08617480276655
 31
0.0
  0
LINE
  5
23B7
  8
TITLE
 10
166.148907666708
 20
35.770774151027581
 30
0.0
 11
167.98040322839461
 21
37.602269712715163
 31
0.0
  0
LINE
  5
23B8
  8
TITLE
 10
166.148907666708
 20
35.683489278380762
 30
0.0
 11
168.03230855200209
 21
37.56689016367126
 31
0.0
  0
LINE
  5
23B9
  8
TITLE
 10
166.31078574890671
 20
35.758082487936242
 30
0.0
 11
168.08797630903379
 21
37.535273048055728
 31
0.0
  0
LINE
  5
23BA
  8
TITLE
 10
166.55378948934501
 20
35.913801355720253
 30
0.0
 11
168.1476744427795
 21
37.507686309158323
 31
0.0
  0
LINE
  5
23BB
  8
TITLE
 10
166.148907666708
 20
35.945343896318377
 30
0.0
 11
167.88727696339211
 21
37.6837131930032
 31
0.0
  0
LINE
  5
23BC
  8
TITLE
 10
166.148907666708
 20
35.858059023671217
 30
0.0
 11
167.93208994968239
 21
37.641241306653463
 31
0.0
  0
LINE
  5
23BD
  8
TITLE
 10
165.2128841714698
 20
38.762569924883337
 30
0.0
 11
165.6787444646329
 21
39.228430218039193
 31
0.0
  0
LINE
  5
23BE
  8
TITLE
 10
166.64654857894439
 20
38.188682261487429
 30
0.0
 11
167.7160621819707
 21
39.258195864510192
 31
0.0
  0
LINE
  5
23BF
  8
TITLE
 10
172.29475386004381
 20
38.948934674385441
 30
0.0
 11
172.47359021679671
 21
39.127771031131147
 31
0.0
  0
LINE
  5
23C0
  8
TITLE
 10
170.9395690772057
 20
38.553883490655153
 30
0.0
 11
171.51345686351669
 21
39.127771276966662
 31
0.0
  0
LINE
  5
23C1
  8
TITLE
 10
170.8522842045586
 20
38.553883490655153
 30
0.0
 11
171.42617199086951
 21
39.127771276966662
 31
0.0
  0
LINE
  5
23C2
  8
TITLE
 10
171.28870856779389
 20
38.553883490655153
 30
0.0
 11
171.84290230430361
 21
39.108077227168913
 31
0.0
  0
LINE
  5
23C3
  8
TITLE
 10
171.02685394985241
 20
38.553883490655153
 30
0.0
 11
171.6007417361638
 21
39.127771276966662
 31
0.0
  0
LINE
  5
23C4
  8
TITLE
 10
171.1141388224996
 20
38.553883490655153
 30
0.0
 11
171.68802660881099
 21
39.127771276966662
 31
0.0
  0
LINE
  5
23C5
  8
TITLE
 10
171.20142369514679
 20
38.553883490655153
 30
0.0
 11
171.77531148145809
 21
39.127771276966662
 31
0.0
  0
LINE
  5
23C6
  8
TITLE
 10
171.72513293102239
 20
38.553883490655153
 30
0.0
 11
171.84290230430361
 21
38.67165286394016
 31
0.0
  0
LINE
  5
23C7
  8
TITLE
 10
171.8124178036696
 20
38.553883490655153
 30
0.0
 11
171.84290230430361
 21
38.584367991292879
 31
0.0
  0
LINE
  5
23C8
  8
TITLE
 10
171.55056318572809
 20
38.553883490655153
 30
0.0
 11
171.84290230430361
 21
38.846222609234253
 31
0.0
  0
LINE
  5
23C9
  8
TITLE
 10
171.63784805837531
 20
38.553883490655153
 30
0.0
 11
171.84290230430361
 21
38.758937736586972
 31
0.0
  0
LINE
  5
23CA
  8
TITLE
 10
171.37599344044111
 20
38.553883490655153
 30
0.0
 11
171.84290230430361
 21
39.020792354525383
 31
0.0
  0
LINE
  5
23CB
  8
TITLE
 10
171.46327831308099
 20
38.553883490655153
 30
0.0
 11
171.84290230430361
 21
38.93350748187811
 31
0.0
  0
LINE
  5
23CC
  8
TITLE
 10
172.29475386004381
 20
39.123504419676451
 30
0.0
 11
172.29902047150239
 21
39.127771031131147
 31
0.0
  0
LINE
  5
23CD
  8
TITLE
 10
172.29475386004381
 20
39.036219547033049
 30
0.0
 11
172.3863053441496
 21
39.127771031131147
 31
0.0
  0
LINE
  5
23CE
  8
TITLE
 10
171.302718765105
 20
37.171335725622271
 30
0.0
 11
171.84290230430361
 21
37.711519264828439
 31
0.0
  0
LINE
  5
23CF
  8
TITLE
 10
171.39000363774491
 20
37.171335725622271
 30
0.0
 11
171.84290230430361
 21
37.624234392181613
 31
0.0
  0
LINE
  5
23D0
  8
TITLE
 10
171.4772885103921
 20
37.171335725622271
 30
0.0
 11
171.84290230430361
 21
37.536949519534232
 31
0.0
  0
LINE
  5
23D1
  8
TITLE
 10
171.5645733830392
 20
37.171335725622271
 30
0.0
 11
171.84290230430361
 21
37.449664646886959
 31
0.0
  0
LINE
  5
23D2
  8
TITLE
 10
171.65185825568639
 20
37.171335725622271
 30
0.0
 11
171.84290230430361
 21
37.362379774240132
 31
0.0
  0
LINE
  5
23D3
  8
TITLE
 10
171.82642800098071
 20
37.171335725622271
 30
0.0
 11
171.84290230430361
 21
37.187810028949343
 31
0.0
  0
LINE
  5
23D4
  8
TITLE
 10
171.73914312833361
 20
37.171335725622271
 30
0.0
 11
171.84290230430361
 21
37.275094901592873
 31
0.0
  0
LINE
  5
23D5
  8
TITLE
 10
172.4514693816254
 20
37.709092233620247
 30
0.0
 11
172.46151465592129
 21
37.719137507916351
 31
0.0
  0
LINE
  5
23D6
  8
TITLE
 10
172.4514693816254
 20
37.621807360973207
 30
0.0
 11
172.54879952856891
 21
37.719137507916351
 31
0.0
  0
LINE
  5
23D7
  8
TITLE
 10
171.21543389245741
 20
37.171335725622271
 30
0.0
 11
171.81540743694759
 21
37.771309270119673
 31
0.0
  0
LINE
  5
23D8
  8
TITLE
 10
171.0408641471634
 20
37.171335725622271
 30
0.0
 11
171.64083769166061
 21
37.771309270119673
 31
0.0
  0
LINE
  5
23D9
  8
TITLE
 10
171.12814901981031
 20
37.171335725622271
 30
0.0
 11
171.7281225643078
 21
37.771309270119673
 31
0.0
  0
LINE
  5
23DA
  8
TITLE
 10
170.76499933191141
 20
38.553883490655153
 30
0.0
 11
171.3388871182228
 21
39.127771276966662
 31
0.0
  0
LINE
  5
23DB
  8
TITLE
 10
170.59042958661709
 20
38.553883490655153
 30
0.0
 11
171.164317372928
 21
39.127771276966662
 31
0.0
  0
LINE
  5
23DC
  8
TITLE
 10
170.6777144592638
 20
38.553883490655153
 30
0.0
 11
171.2516022455757
 21
39.127771276966662
 31
0.0
  0
LINE
  5
23DD
  8
TITLE
 10
169.7533630284633
 20
38.065956423079342
 30
0.0
 11
170.81517788234669
 21
39.127771276966662
 31
0.0
  0
LINE
  5
23DE
  8
TITLE
 10
169.7533630284633
 20
38.327811041021278
 30
0.0
 11
170.56305938401781
 21
39.137507396575757
 31
0.0
  0
LINE
  5
23DF
  8
TITLE
 10
169.7533630284633
 20
38.240526168374117
 30
0.0
 11
170.64060813705279
 21
39.127771276966662
 31
0.0
  0
LINE
  5
23E0
  8
TITLE
 10
169.7533630284633
 20
38.153241295726957
 30
0.0
 11
170.72789300970001
 21
39.127771276966662
 31
0.0
  0
LINE
  5
23E1
  8
TITLE
 10
169.7533630284633
 20
37.978671550435941
 30
0.0
 11
170.90246275499379
 21
39.127771276966662
 31
0.0
  0
LINE
  5
23E2
  8
TITLE
 10
169.7533630284633
 20
37.891386677788773
 30
0.0
 11
170.98974762764101
 21
39.127771276966662
 31
0.0
  0
LINE
  5
23E3
  8
TITLE
 10
169.7533630284633
 20
37.804101805145251
 30
0.0
 11
171.07703250028081
 21
39.127771276966662
 31
0.0
  0
LINE
  5
23E4
  8
TITLE
 10
170.8626113497412
 20
35.421955220565913
 30
0.0
 11
171.4656565218047
 21
36.025000392629067
 31
0.0
  0
LINE
  5
23E5
  8
TITLE
 10
170.9000852463958
 20
35.372144244569782
 30
0.0
 11
171.49938280357259
 21
35.971441801750068
 31
0.0
  0
LINE
  5
23E6
  8
TITLE
 10
170.9384419205808
 20
35.323216046111291
 30
0.0
 11
171.53400542069991
 21
35.918779546230212
 31
0.0
  0
LINE
  5
23E7
  8
TITLE
 10
170.97767502278239
 20
35.275164275665929
 30
0.0
 11
171.56951355658151
 21
35.867002809471728
 31
0.0
  0
LINE
  5
23E8
  8
TITLE
 10
171.23125812494979
 20
35.005038141950081
 30
0.0
 11
171.80069827838591
 21
35.574478295389213
 31
0.0
  0
LINE
  5
23E9
  8
TITLE
 10
171.27653760769451
 20
34.96303275205446
 30
0.0
 11
171.8421973870104
 21
35.528692531370211
 31
0.0
  0
LINE
  5
23EA
  8
TITLE
 10
171.41756898201169
 20
34.84220950843077
 30
0.0
 11
171.84290230430361
 21
35.267542830726029
 31
0.0
  0
LINE
  5
23EB
  8
TITLE
 10
171.3226804473683
 20
34.921890719081148
 30
0.0
 11
171.84290230430361
 21
35.44211257602047
 31
0.0
  0
LINE
  5
23EC
  8
TITLE
 10
171.36968958048729
 20
34.881614979553433
 30
0.0
 11
171.84290230430361
 21
35.354827703373189
 31
0.0
  0
LINE
  5
23ED
  8
TITLE
 10
171.01777930280281
 20
35.22798368304246
 30
0.0
 11
171.6058976053564
 21
35.816101985592468
 31
0.0
  0
LINE
  5
23EE
  8
TITLE
 10
171.0587505780758
 20
35.181670085664678
 30
0.0
 11
171.6431491125222
 21
35.766068620114652
 31
0.0
  0
LINE
  5
23EF
  8
TITLE
 10
171.1005857086447
 20
35.136220343586849
 30
0.0
 11
171.6812607238839
 21
35.716895358825809
 31
0.0
  0
LINE
  5
23F0
  8
TITLE
 10
171.14328257862141
 20
35.091632340923752
 30
0.0
 11
171.72022614195561
 21
35.668575904249913
 31
0.0
  0
LINE
  5
23F1
  8
TITLE
 10
171.1868400837534
 20
35.047904973407753
 30
0.0
 11
171.76004008932929
 21
35.621104978976852
 31
0.0
  0
LINE
  5
23F2
  8
TITLE
 10
171.46632368907191
 20
34.803679342843679
 30
0.0
 11
171.84290230430361
 21
35.180257958082741
 31
0.0
  0
LINE
  5
23F3
  8
TITLE
 10
171.51595983130889
 20
34.766030612433269
 30
0.0
 11
171.84290230430361
 21
35.092973085435361
 31
0.0
  0
LINE
  5
23F4
  8
TITLE
 10
171.56648466835389
 20
34.729270576834438
 30
0.0
 11
171.84290230430361
 21
35.0056882127883
 31
0.0
  0
LINE
  5
23F5
  8
TITLE
 10
171.6702353943478
 20
34.658451557534477
 30
0.0
 11
171.84290230430361
 21
34.831118467494093
 31
0.0
  0
LINE
  5
23F6
  8
TITLE
 10
171.7234819009968
 20
34.624413191532987
 30
0.0
 11
171.84290230430361
 21
34.743833594846819
 31
0.0
  0
LINE
  5
23F7
  8
TITLE
 10
171.83277887695061
 20
34.55914042219581
 30
0.0
 11
171.84290230430361
 21
34.569263849552371
 31
0.0
  0
LINE
  5
23F8
  8
TITLE
 10
171.77765847314859
 20
34.591304891044501
 30
0.0
 11
171.84290230430361
 21
34.65654872219956
 31
0.0
  0
LINE
  5
23F9
  8
TITLE
 10
171.61790663494361
 20
34.693407670773929
 30
0.0
 11
171.84290230430361
 21
34.91840334014114
 31
0.0
  0
LINE
  5
23FA
  8
TITLE
 10
172.29475386004381
 20
35.108400277939268
 30
0.0
 11
172.3230593126132
 21
35.136705730509341
 31
0.0
  0
LINE
  5
23FB
  8
TITLE
 10
172.29475386004381
 20
35.021115405292221
 30
0.0
 11
172.413232672352
 21
35.139594217600582
 31
0.0
  0
LINE
  5
23FC
  8
TITLE
 10
172.29475386004381
 20
34.933830532644947
 30
0.0
 11
172.5039899720459
 21
35.143066644650851
 31
0.0
  0
LINE
  5
23FD
  8
TITLE
 10
170.16774485649921
 20
34.290664364088229
 30
0.0
 11
170.56305938401781
 21
34.685978891606972
 31
0.0
  0
LINE
  5
23FE
  8
TITLE
 10
170.2550297291468
 20
34.290664364088229
 30
0.0
 11
170.56305938401781
 21
34.598694018959691
 31
0.0
  0
LINE
  5
23FF
  8
TITLE
 10
170.34231460179399
 20
34.290664364088229
 30
0.0
 11
170.56305938401781
 21
34.511409146311848
 31
0.0
  0
LINE
  5
2400
  8
TITLE
 10
170.42959947444069
 20
34.290664364088229
 30
0.0
 11
170.56305938401781
 21
34.42412427366493
 31
0.0
  0
LINE
  5
2401
  8
TITLE
 10
170.51688434708061
 20
34.290664364088229
 30
0.0
 11
170.56305938401781
 21
34.336839401017869
 31
0.0
  0
LINE
  5
2402
  8
TITLE
 10
169.7533630284633
 20
34.836416135163752
 30
0.0
 11
170.56305938401781
 21
35.64611249071811
 31
0.0
  0
LINE
  5
2403
  8
TITLE
 10
169.7533630284633
 20
34.749131262516471
 30
0.0
 11
170.56305938401781
 21
35.558827618070843
 31
0.0
  0
LINE
  5
2404
  8
TITLE
 10
169.7533630284633
 20
34.661846389869197
 30
0.0
 11
170.56305938401781
 21
35.47154274542369
 31
0.0
  0
LINE
  5
2405
  8
TITLE
 10
169.7533630284633
 20
34.574561517222143
 30
0.0
 11
170.56305938401781
 21
35.38425787277653
 31
0.0
  0
LINE
  5
2406
  8
TITLE
 10
169.7533630284633
 20
34.48727664457499
 30
0.0
 11
170.56305938401781
 21
35.296973000129242
 31
0.0
  0
LINE
  5
2407
  8
TITLE
 10
169.7533630284633
 20
34.39999177193171
 30
0.0
 11
170.56305938401781
 21
35.209688127485613
 31
0.0
  0
LINE
  5
2408
  8
TITLE
 10
169.7533630284633
 20
34.312706899284308
 30
0.0
 11
170.56305938401781
 21
35.122403254838801
 31
0.0
  0
LINE
  5
2409
  8
TITLE
 10
169.818605365911
 20
34.290664364088229
 30
0.0
 11
170.56305938401781
 21
35.035118382191513
 31
0.0
  0
LINE
  5
240A
  8
TITLE
 10
169.9058902385577
 20
34.290664364088229
 30
0.0
 11
170.56305938401781
 21
34.94783350954809
 31
0.0
  0
LINE
  5
240B
  8
TITLE
 10
169.7533630284633
 20
34.923701007811019
 30
0.0
 11
170.56305938401781
 21
35.733397363365157
 31
0.0
  0
LINE
  5
240C
  8
TITLE
 10
169.99317511120481
 20
34.290664364088229
 30
0.0
 11
170.56305938401781
 21
34.860548636901171
 31
0.0
  0
LINE
  5
240D
  8
TITLE
 10
170.08045998385199
 20
34.290664364088229
 30
0.0
 11
170.56305938401781
 21
34.773263764253791
 31
0.0
  0
LINE
  5
240E
  8
TITLE
 10
169.7533630284633
 20
35.098270753101467
 30
0.0
 11
170.56305938401781
 21
35.907967108659811
 31
0.0
  0
LINE
  5
240F
  8
TITLE
 10
169.7533630284633
 20
35.010985880458051
 30
0.0
 11
170.56305938401781
 21
35.82068223601221
 31
0.0
  0
LINE
  5
2410
  8
TITLE
 10
169.7533630284633
 20
35.883834606922292
 30
0.0
 11
171.03432978502079
 21
37.164801363480251
 31
0.0
  0
LINE
  5
2411
  8
TITLE
 10
169.7533630284633
 20
35.796549734275118
 30
0.0
 11
171.04796205820909
 21
37.09114876402078
 31
0.0
  0
LINE
  5
2412
  8
TITLE
 10
169.7533630284633
 20
35.709264861627958
 30
0.0
 11
171.06305517110101
 21
37.018957004265758
 31
0.0
  0
LINE
  5
2413
  8
TITLE
 10
169.7533630284633
 20
35.621979988980797
 30
0.0
 11
171.0795448520434
 21
36.948161812560897
 31
0.0
  0
LINE
  5
2414
  8
TITLE
 10
169.7533630284633
 20
35.534695116333523
 30
0.0
 11
171.09737342765899
 21
36.878705515537042
 31
0.0
  0
LINE
  5
2415
  8
TITLE
 10
169.7533630284633
 20
35.447410243686477
 30
0.0
 11
171.1164889783667
 21
36.810536193593407
 31
0.0
  0
LINE
  5
2416
  8
TITLE
 10
169.7533630284633
 20
35.360125371039203
 30
0.0
 11
171.13684463262871
 21
36.743606975211719
 31
0.0
  0
LINE
  5
2417
  8
TITLE
 10
169.7533630284633
 20
35.272840498395787
 30
0.0
 11
171.15839797335909
 21
36.677875443295193
 31
0.0
  0
LINE
  5
2418
  8
TITLE
 10
170.65681192175859
 20
35.73986502845878
 30
0.0
 11
171.28289973173511
 21
36.365952838435653
 31
0.0
  0
LINE
  5
2419
  8
TITLE
 10
170.6887883011895
 20
35.684556535249961
 30
0.0
 11
171.31094301496429
 21
36.30671124901756
 31
0.0
  0
LINE
  5
241A
  8
TITLE
 10
170.72171140923999
 20
35.630194770646213
 30
0.0
 11
171.3399775892899
 21
36.248460950695751
 31
0.0
  0
LINE
  5
241B
  8
TITLE
 10
170.75556718291679
 20
35.576765671683113
 30
0.0
 11
171.36998352719269
 21
36.191182015958702
 31
0.0
  0
LINE
  5
241C
  8
TITLE
 10
170.79034302516399
 20
35.524256641282697
 30
0.0
 11
171.4009427056771
 21
36.134856321796171
 31
0.0
  0
LINE
  5
241D
  8
TITLE
 10
170.82602771841081
 20
35.472656461883162
 30
0.0
 11
171.43283867123131
 21
36.079467414699252
 31
0.0
  0
LINE
  5
241E
  8
TITLE
 10
169.7533630284633
 20
35.185555625748641
 30
0.0
 11
171.1811105354904
 21
36.613303132779841
 31
0.0
  0
LINE
  5
241F
  8
TITLE
 10
170.5667279672075
 20
35.911635691849597
 30
0.0
 11
171.20494737851641
 21
36.549855103162031
 31
0.0
  0
LINE
  5
2420
  8
TITLE
 10
170.5957635415439
 20
35.853386393538472
 30
0.0
 11
171.22987672092631
 21
36.487499572921251
 31
0.0
  0
LINE
  5
2421
  8
TITLE
 10
170.62579789924709
 20
35.796135878594427
 30
0.0
 11
171.255869626144
 21
36.426207605491641
 31
0.0
  0
LINE
  5
2422
  8
TITLE
 10
168.5096028404173
 20
37.171335725622271
 30
0.0
 11
169.10957638490751
 21
37.771309270119673
 31
0.0
  0
LINE
  5
2423
  8
TITLE
 10
168.5968877130644
 20
37.171335725622271
 30
0.0
 11
169.1968612575547
 21
37.771309270119673
 31
0.0
  0
LINE
  5
2424
  8
TITLE
 10
168.68417258570429
 20
37.171335725622271
 30
0.0
 11
169.2841461302018
 21
37.771309270119673
 31
0.0
  0
LINE
  5
2425
  8
TITLE
 10
168.5011941101375
 20
38.0357757218137
 30
0.0
 11
169.59318966529409
 21
39.127771276966662
 31
0.0
  0
LINE
  5
2426
  8
TITLE
 10
168.66841769994741
 20
38.11571443896959
 30
0.0
 11
169.68047453794091
 21
39.127771276966662
 31
0.0
  0
LINE
  5
2427
  8
TITLE
 10
168.77145745835151
 20
37.171335725622271
 30
0.0
 11
169.37143100284899
 21
37.771309270119673
 31
0.0
  0
LINE
  5
2428
  8
TITLE
 10
168.85874233099861
 20
37.171335725622271
 30
0.0
 11
169.45871587549621
 21
37.771309270119673
 31
0.0
  0
LINE
  5
2429
  8
TITLE
 10
168.9460272036458
 20
37.171335725622271
 30
0.0
 11
169.54600074814331
 21
37.771309270119673
 31
0.0
  0
LINE
  5
242A
  8
TITLE
 10
169.03331207629341
 20
37.171335725622271
 30
0.0
 11
169.6332856207905
 21
37.771309270119673
 31
0.0
  0
LINE
  5
242B
  8
TITLE
 10
169.12059694894009
 20
37.171335725622271
 30
0.0
 11
169.72057049343761
 21
37.771309270119673
 31
0.0
  0
LINE
  5
242C
  8
TITLE
 10
168.9692027499145
 20
36.23437767277926
 30
0.0
 11
170.56305938401781
 21
37.82823430687904
 31
0.0
  0
LINE
  5
242D
  8
TITLE
 10
168.85657310276881
 20
36.034463152986291
 30
0.0
 11
170.59341921990199
 21
37.771309270119673
 31
0.0
  0
LINE
  5
242E
  8
TITLE
 10
169.2078818215877
 20
37.171335725622271
 30
0.0
 11
170.56305938401781
 21
38.526513288052691
 31
0.0
  0
LINE
  5
242F
  8
TITLE
 10
169.23370010085091
 20
36.935299386951101
 30
0.0
 11
170.56305938401781
 21
38.26465867011111
 31
0.0
  0
LINE
  5
2430
  8
TITLE
 10
169.20145970692511
 20
36.815774120378251
 30
0.0
 11
170.56305938401781
 21
38.177373797464163
 31
0.0
  0
LINE
  5
2431
  8
TITLE
 10
169.28071145862711
 20
37.156880490022218
 30
0.0
 11
170.56305938401781
 21
38.439228415405523
 31
0.0
  0
LINE
  5
2432
  8
TITLE
 10
169.25978908588871
 20
37.048673244629761
 30
0.0
 11
170.56305938401781
 21
38.351943542758249
 31
0.0
  0
LINE
  5
2433
  8
TITLE
 10
169.1616872806448
 20
36.688716821451067
 30
0.0
 11
170.56305938401781
 21
38.090088924816882
 31
0.0
  0
LINE
  5
2434
  8
TITLE
 10
169.11233770584971
 20
36.552082374001657
 30
0.0
 11
170.56305938401781
 21
38.002804052169843
 31
0.0
  0
LINE
  5
2435
  8
TITLE
 10
169.05013835564199
 20
36.402598151153938
 30
0.0
 11
170.56305938401781
 21
37.915519179526548
 31
0.0
  0
LINE
  5
2436
  8
TITLE
 10
168.5623416274274
 20
34.605528333243342
 30
0.0
 11
169.60698555393441
 21
35.650172259746228
 31
0.0
  0
LINE
  5
2437
  8
TITLE
 10
168.8399613945266
 20
34.795863227694909
 30
0.0
 11
169.4166506594824
 21
35.37255249264706
 31
0.0
  0
LINE
  5
2438
  8
TITLE
 10
168.66624012647119
 20
35.756845304045441
 30
0.0
 11
170.68070409254909
 21
37.771309270119673
 31
0.0
  0
LINE
  5
2439
  8
TITLE
 10
169.7533630284633
 20
38.41509591366821
 30
0.0
 11
170.56305938401781
 21
39.224792269222689
 31
0.0
  0
LINE
  5
243A
  8
TITLE
 10
172.29475386004381
 20
38.861649801738281
 30
0.0
 11
172.56087508943659
 21
39.127771031131147
 31
0.0
  0
LINE
  5
243B
  8
TITLE
 10
164.44450936371501
 20
39.827177442700652
 30
0.0
 11
164.4726201723729
 21
39.855288251358161
 31
0.0
  0
LINE
  5
243C
  8
TITLE
 10
166.880246378229
 20
39.557083405174701
 30
0.0
 11
167.17845122441301
 21
39.855288251358161
 31
0.0
  0
LINE
  5
243D
  8
TITLE
 10
166.880246378229
 20
39.469798532527541
 30
0.0
 11
167.2657360970602
 21
39.855288251358161
 31
0.0
  0
LINE
  5
243E
  8
TITLE
 10
166.880246378229
 20
39.38251365988026
 30
0.0
 11
167.3530209697073
 21
39.855288251358161
 31
0.0
  0
LINE
  5
243F
  8
TITLE
 10
166.880246378229
 20
39.644368277821847
 30
0.0
 11
167.09116635176591
 21
39.855288251358161
 31
0.0
  0
LINE
  5
2440
  8
TITLE
 10
166.880246378229
 20
39.818938023112757
 30
0.0
 11
166.9165966064715
 21
39.855288251358161
 31
0.0
  0
LINE
  5
2441
  8
TITLE
 10
166.880246378229
 20
39.731653150465718
 30
0.0
 11
167.00388147911869
 21
39.855288251358161
 31
0.0
  0
LINE
  5
2442
  8
TITLE
 10
169.7533630284633
 20
39.637084130721277
 30
0.0
 11
169.97156714910031
 21
39.855288251358161
 31
0.0
  0
LINE
  5
2443
  8
TITLE
 10
169.7533630284633
 20
39.549799258074017
 30
0.0
 11
170.0588520217475
 21
39.855288251358161
 31
0.0
  0
LINE
  5
2444
  8
TITLE
 10
169.7533630284633
 20
39.811653876011988
 30
0.0
 11
169.79699740380599
 21
39.855288251358161
 31
0.0
  0
LINE
  5
2445
  8
TITLE
 10
169.7533630284633
 20
39.724369003365162
 30
0.0
 11
169.88428227645321
 21
39.855288251358161
 31
0.0
  0
LINE
  5
2446
  8
TITLE
 10
169.7533630284633
 20
39.462514385426971
 30
0.0
 11
170.1461368943946
 21
39.855288251358161
 31
0.0
  0
LINE
  5
2447
  8
TITLE
 10
169.7533630284633
 20
39.375229512779811
 30
0.0
 11
170.23342176704131
 21
39.855288251358161
 31
0.0
  0
LINE
  5
2448
  8
TITLE
 10
168.73471248846221
 20
39.578567189831688
 30
0.0
 11
169.01143354998879
 21
39.855288251358161
 31
0.0
  0
LINE
  5
2449
  8
TITLE
 10
168.73471248846221
 20
39.491282317184741
 30
0.0
 11
169.09871842263601
 21
39.855288251358161
 31
0.0
  0
LINE
  5
244A
  8
TITLE
 10
168.730410541114
 20
39.3996954971891
 30
0.0
 11
169.18600329528309
 21
39.855288251358161
 31
0.0
  0
LINE
  5
244B
  8
TITLE
 10
168.73471248846221
 20
39.665852062478869
 30
0.0
 11
168.92414867734169
 21
39.855288251358161
 31
0.0
  0
LINE
  5
244C
  8
TITLE
 10
168.73471248846221
 20
39.840421807769651
 30
0.0
 11
168.7495789320474
 21
39.855288251358161
 31
0.0
  0
LINE
  5
244D
  8
TITLE
 10
168.73471248846221
 20
39.753136935122832
 30
0.0
 11
168.8368638046945
 21
39.855288251358161
 31
0.0
  0
LINE
  5
244E
  8
TITLE
 10
175.71637448553969
 20
39.228299884605583
 30
0.0
 11
176.3433628522925
 21
39.855288251358161
 31
0.0
  0
LINE
  5
244F
  8
TITLE
 10
178.62195175007159
 20
37.856918389459338
 30
0.0
 11
180.17143789622639
 21
39.406404535614122
 31
0.0
  0
LINE
  5
2450
  8
TITLE
 10
178.7343118213098
 20
37.88199358805015
 30
0.0
 11
180.7076064846141
 21
39.855288251358161
 31
0.0
  0
LINE
  5
2451
  8
TITLE
 10
175.08609867721
 20
38.42345433098194
 30
0.0
 11
176.51793259758691
 21
39.855288251358161
 31
0.0
  0
LINE
  5
2452
  8
TITLE
 10
175.17338354985711
 20
38.42345433098194
 30
0.0
 11
176.5521900557718
 21
39.802260836899691
 31
0.0
  0
LINE
  5
2453
  8
TITLE
 10
175.2606684225043
 20
38.42345433098194
 30
0.0
 11
176.5521900557718
 21
39.714975964252851
 31
0.0
  0
LINE
  5
2454
  8
TITLE
 10
175.3479532951514
 20
38.42345433098194
 30
0.0
 11
176.5521900557718
 21
39.627691091609108
 31
0.0
  0
LINE
  5
2455
  8
TITLE
 10
175.43523816779179
 20
38.42345433098194
 30
0.0
 11
176.5521900557718
 21
39.540406218961948
 31
0.0
  0
LINE
  5
2456
  8
TITLE
 10
175.5225230404385
 20
38.42345433098194
 30
0.0
 11
176.5521900557718
 21
39.453121346314788
 31
0.0
  0
LINE
  5
2457
  8
TITLE
 10
175.60980791308609
 20
38.42345433098194
 30
0.0
 11
176.5521900557718
 21
39.365836473667507
 31
0.0
  0
LINE
  5
2458
  8
TITLE
 10
175.71637448553969
 20
39.141015011958189
 30
0.0
 11
176.4306477249394
 21
39.855288251358161
 31
0.0
  0
LINE
  5
2459
  8
TITLE
 10
176.67234557749401
 20
35.20903323570748
 30
0.0
 11
177.2355996248811
 21
35.772287283102173
 31
0.0
  0
LINE
  5
245A
  8
TITLE
 10
176.569941512197
 20
38.42345433098194
 30
0.0
 11
177.27425821234681
 21
39.127771031131147
 31
0.0
  0
LINE
  5
245B
  8
TITLE
 10
176.65722638484431
 20
38.42345433098194
 30
0.0
 11
177.361543084994
 21
39.127771031131147
 31
0.0
  0
LINE
  5
245C
  8
TITLE
 10
176.11433472331541
 20
36.047580343876923
 30
0.0
 11
176.70354724378279
 21
36.63679286434467
 31
0.0
  0
LINE
  5
245D
  8
TITLE
 10
176.08597463990191
 20
36.106505133110197
 30
0.0
 11
176.68075310505631
 21
36.70128359826515
 31
0.0
  0
LINE
  5
245E
  8
TITLE
 10
175.71637448553969
 20
37.831741922261926
 30
0.0
 11
177.01240359441309
 21
39.127771031131147
 31
0.0
  0
LINE
  5
245F
  8
TITLE
 10
175.71637448553969
 20
37.744457049618291
 30
0.0
 11
177.0996884670526
 21
39.127771031131147
 31
0.0
  0
LINE
  5
2460
  8
TITLE
 10
175.71637448553969
 20
38.093596540199663
 30
0.0
 11
176.75054897647061
 21
39.127771031131147
 31
0.0
  0
LINE
  5
2461
  8
TITLE
 10
175.71637448553969
 20
38.006311667556133
 30
0.0
 11
176.8378338491184
 21
39.127771031131147
 31
0.0
  0
LINE
  5
2462
  8
TITLE
 10
175.71637448553969
 20
37.919026794908852
 30
0.0
 11
176.9251187217655
 21
39.127771031131147
 31
0.0
  0
LINE
  5
2463
  8
TITLE
 10
175.71748810799539
 20
37.658285799423211
 30
0.0
 11
177.1869733396997
 21
39.127771031131147
 31
0.0
  0
LINE
  5
2464
  8
TITLE
 10
176.47781156242991
 20
35.450923583876033
 30
0.0
 11
177.03825805769699
 21
36.011370079147241
 31
0.0
  0
LINE
  5
2465
  8
TITLE
 10
176.5153009055802
 20
35.401128054383321
 30
0.0
 11
177.07559288524411
 21
35.961420034046803
 31
0.0
  0
LINE
  5
2466
  8
TITLE
 10
176.5535029498246
 20
35.35204522598017
 30
0.0
 11
177.11400278758671
 21
35.9125450637423
 31
0.0
  0
LINE
  5
2467
  8
TITLE
 10
176.59241343422809
 20
35.30367083774388
 30
0.0
 11
177.1534784526774
 21
35.864735856185582
 31
0.0
  0
LINE
  5
2468
  8
TITLE
 10
176.63202868031701
 20
35.256001211177811
 30
0.0
 11
177.1940125419714
 21
35.817985072836002
 31
0.0
  0
LINE
  5
2469
  8
TITLE
 10
176.4410397807705
 20
35.501436674867357
 30
0.0
 11
177.00200967509181
 21
36.062406569188731
 31
0.0
  0
LINE
  5
246A
  8
TITLE
 10
176.1734972755398
 20
35.932173150807103
 30
0.0
 11
176.75328605962659
 21
36.511961934897158
 31
0.0
  0
LINE
  5
246B
  8
TITLE
 10
176.20427370751031
 20
35.87566471013033
 30
0.0
 11
176.78013936494509
 21
36.451530367565177
 31
0.0
  0
LINE
  5
246C
  8
TITLE
 10
176.23583119751541
 20
35.819937327488333
 30
0.0
 11
176.80826264368341
 21
36.392368773656237
 31
0.0
  0
LINE
  5
246D
  8
TITLE
 10
176.2681591056984
 20
35.76498036302803
 30
0.0
 11
176.83762182390129
 21
36.334443081230688
 31
0.0
  0
LINE
  5
246E
  8
TITLE
 10
176.301247645019
 20
35.710784029703973
 30
0.0
 11
176.8681866166535
 21
36.27772300133585
 31
0.0
  0
LINE
  5
246F
  8
TITLE
 10
176.33508783528711
 20
35.657339347325653
 30
0.0
 11
176.89993015214259
 21
36.222181664181221
 31
0.0
  0
LINE
  5
2470
  8
TITLE
 10
176.36967146210731
 20
35.604638101494849
 30
0.0
 11
176.93282867236209
 21
36.16779531175348
 31
0.0
  0
LINE
  5
2471
  8
TITLE
 10
176.4049910402054
 20
35.5526728069499
 30
0.0
 11
176.96686127123709
 21
36.114543037981207
 31
0.0
  0
LINE
  5
2472
  8
TITLE
 10
176.1435134456168
 20
35.989474193531251
 30
0.0
 11
176.72774101430329
 21
36.573701762217638
 31
0.0
  0
LINE
  5
2473
  8
TITLE
 10
175.8162312859786
 20
36.884180250945292
 30
0.0
 11
176.54644819940981
 21
37.61439716437701
 31
0.0
  0
LINE
  5
2474
  8
TITLE
 10
175.83320787739009
 20
36.813871969706611
 30
0.0
 11
176.544929300891
 21
37.525593393203849
 31
0.0
  0
LINE
  5
2475
  8
TITLE
 10
175.85128325036791
 20
36.74466247004068
 30
0.0
 11
176.5463763816901
 21
37.439755601363117
 31
0.0
  0
LINE
  5
2476
  8
TITLE
 10
175.87042235499661
 20
36.676516702022468
 30
0.0
 11
176.55051492869401
 21
37.356609275716551
 31
0.0
  0
LINE
  5
2477
  8
TITLE
 10
175.89059298556359
 20
36.609402459942331
 30
0.0
 11
176.55711787864311
 21
37.275927353022212
 31
0.0
  0
LINE
  5
2478
  8
TITLE
 10
175.9117655004747
 20
36.543290102213277
 30
0.0
 11
176.565995004592
 21
37.197519606330729
 31
0.0
  0
LINE
  5
2479
  8
TITLE
 10
175.93391257849041
 20
36.47815230757498
 30
0.0
 11
176.57698519728771
 21
37.121224926371852
 31
0.0
  0
LINE
  5
247A
  8
TITLE
 10
175.9570090056263
 20
36.413963862063497
 30
0.0
 11
176.5899507304789
 21
37.046905586915621
 31
0.0
  0
LINE
  5
247B
  8
TITLE
 10
175.98103148839209
 20
36.35070147218574
 30
0.0
 11
176.60477292025959
 21
36.974442904049397
 31
0.0
  0
LINE
  5
247C
  8
TITLE
 10
176.0059584894293
 20
36.288343600572148
 30
0.0
 11
176.62134878534971
 21
36.90373389649244
 31
0.0
  0
LINE
  5
247D
  8
TITLE
 10
176.0317700824771
 20
36.226870320979863
 30
0.0
 11
176.6395884403218
 21
36.834688678824932
 31
0.0
  0
LINE
  5
247E
  8
TITLE
 10
176.05844782411069
 20
36.16626318996282
 30
0.0
 11
176.65941303471709
 21
36.767228400569017
 31
0.0
  0
LINE
  5
247F
  8
TITLE
 10
175.28370609498859
 20
36.962649168479047
 30
0.0
 11
175.42906265706051
 21
37.108005730550651
 31
0.0
  0
LINE
  5
2480
  8
TITLE
 10
175.37099096763581
 20
36.962649168479047
 30
0.0
 11
175.42906265706051
 21
37.020720857903257
 31
0.0
  0
LINE
  5
2481
  8
TITLE
 10
175.10913634969441
 20
36.962649168479047
 30
0.0
 11
175.42906265706051
 21
37.282575475844737
 31
0.0
  0
LINE
  5
2482
  8
TITLE
 10
175.196421222342
 20
36.962649168479047
 30
0.0
 11
175.42906265706051
 21
37.195290603197812
 31
0.0
  0
LINE
  5
2483
  8
TITLE
 10
175.71637448553969
 20
38.268166285493848
 30
0.0
 11
176.5759792311768
 21
39.127771031131147
 31
0.0
  0
LINE
  5
2484
  8
TITLE
 10
175.8003916933408
 20
36.95562553094851
 30
0.0
 11
176.55127000115499
 21
37.706503838769322
 31
0.0
  0
LINE
  5
2485
  8
TITLE
 10
175.7318792822939
 20
37.410822355783921
 30
0.0
 11
176.5521900557718
 21
38.231133129262048
 31
0.0
  0
LINE
  5
2486
  8
TITLE
 10
175.73986084330861
 20
37.331519044151612
 30
0.0
 11
176.5521900557718
 21
38.143848256614767
 31
0.0
  0
LINE
  5
2487
  8
TITLE
 10
175.7206034077517
 20
37.574116226535921
 30
0.0
 11
176.5521900557718
 21
38.405702874556148
 31
0.0
  0
LINE
  5
2488
  8
TITLE
 10
175.72543203368059
 20
37.49165997981811
 30
0.0
 11
176.5521900557718
 21
38.318418001909102
 31
0.0
  0
LINE
  5
2489
  8
TITLE
 10
175.78573085827881
 20
37.028249568540787
 30
0.0
 11
176.5521900557718
 21
37.794708766033303
 31
0.0
  0
LINE
  5
248A
  8
TITLE
 10
175.74930129885641
 20
37.253674627056171
 30
0.0
 11
176.5521900557718
 21
38.056563383970797
 31
0.0
  0
LINE
  5
248B
  8
TITLE
 10
175.7601328934274
 20
37.177221348979849
 30
0.0
 11
176.5521900557718
 21
37.969278511323751
 31
0.0
  0
LINE
  5
248C
  8
TITLE
 10
175.77229451706481
 20
37.102098099970021
 30
0.0
 11
176.5521900557718
 21
37.881993638676811
 31
0.0
  0
LINE
  5
248D
  8
TITLE
 10
175.24365830818121
 20
34.740479565507151
 30
0.0
 11
175.71637448553969
 21
35.213195742868827
 31
0.0
  0
LINE
  5
248E
  8
TITLE
 10
175.3690118717368
 20
34.778548256414979
 30
0.0
 11
175.71637448553969
 21
35.125910870221453
 31
0.0
  0
LINE
  5
248F
  8
TITLE
 10
175.49681557712751
 20
34.819067089162672
 30
0.0
 11
175.71637448553969
 21
35.03862599757781
 31
0.0
  0
LINE
  5
2490
  8
TITLE
 10
175.6272506006689
 20
34.862217240053042
 30
0.0
 11
175.71637448553969
 21
34.951341124930757
 31
0.0
  0
LINE
  5
2491
  8
TITLE
 10
175.12059456887241
 20
34.704700698852889
 30
0.0
 11
175.71637448553969
 21
35.300480615512242
 31
0.0
  0
LINE
  5
2492
  8
TITLE
 10
172.6421222431112
 20
38.42345433098194
 30
0.0
 11
173.34643894326061
 21
39.127771031131147
 31
0.0
  0
LINE
  5
2493
  8
TITLE
 10
172.7294071157512
 20
38.42345433098194
 30
0.0
 11
173.4337238159078
 21
39.127771031131147
 31
0.0
  0
LINE
  5
2494
  8
TITLE
 10
172.8166919883983
 20
38.42345433098194
 30
0.0
 11
173.52100868854811
 21
39.127771031131147
 31
0.0
  0
LINE
  5
2495
  8
TITLE
 10
172.90397686104541
 20
38.42345433098194
 30
0.0
 11
173.6082935611953
 21
39.127771031131147
 31
0.0
  0
LINE
  5
2496
  8
TITLE
 10
172.99126173369271
 20
38.42345433098194
 30
0.0
 11
173.6955784338424
 21
39.127771031131147
 31
0.0
  0
LINE
  5
2497
  8
TITLE
 10
173.07854660633981
 20
38.42345433098194
 30
0.0
 11
173.78286330648959
 21
39.127771031131147
 31
0.0
  0
LINE
  5
2498
  8
TITLE
 10
172.66515991559569
 20
36.962649168479047
 30
0.0
 11
173.42164825503281
 21
37.719137507916351
 31
0.0
  0
LINE
  5
2499
  8
TITLE
 10
172.7524447882428
 20
36.962649168479047
 30
0.0
 11
173.50893312767309
 21
37.719137507916351
 31
0.0
  0
LINE
  5
249A
  8
TITLE
 10
172.83972966088999
 20
36.962649168479047
 30
0.0
 11
173.59621800031979
 21
37.719137507916351
 31
0.0
  0
LINE
  5
249B
  8
TITLE
 10
172.9270145335299
 20
36.962649168479047
 30
0.0
 11
173.68350287296741
 21
37.719137507916351
 31
0.0
  0
LINE
  5
249C
  8
TITLE
 10
173.01429940617709
 20
36.962649168479047
 30
0.0
 11
173.7707877456146
 21
37.719137507916351
 31
0.0
  0
LINE
  5
249D
  8
TITLE
 10
173.10158427882419
 20
36.962649168479047
 30
0.0
 11
173.85807261826159
 21
37.719137507916351
 31
0.0
  0
LINE
  5
249E
  8
TITLE
 10
173.51497096957559
 20
38.42345433098194
 30
0.0
 11
174.21928766972491
 21
39.127771031131147
 31
0.0
  0
LINE
  5
249F
  8
TITLE
 10
173.6022558422155
 20
38.42345433098194
 30
0.0
 11
174.30657254237261
 21
39.127771031131147
 31
0.0
  0
LINE
  5
24A0
  8
TITLE
 10
173.6895407148626
 20
38.42345433098194
 30
0.0
 11
174.39385741501241
 21
39.127771031131147
 31
0.0
  0
LINE
  5
24A1
  8
TITLE
 10
173.77682558750979
 20
38.42345433098194
 30
0.0
 11
174.48114228765999
 21
39.127771031131147
 31
0.0
  0
LINE
  5
24A2
  8
TITLE
 10
173.86411046015701
 20
38.42345433098194
 30
0.0
 11
174.56842716030681
 21
39.127771031131147
 31
0.0
  0
LINE
  5
24A3
  8
TITLE
 10
173.95139533280411
 20
38.42345433098194
 30
0.0
 11
174.65571203295389
 21
39.127771031131147
 31
0.0
  0
LINE
  5
24A4
  8
TITLE
 10
174.0386802054513
 20
38.42345433098194
 30
0.0
 11
174.7429969056011
 21
39.127771031131147
 31
0.0
  0
LINE
  5
24A5
  8
TITLE
 10
174.1259650780984
 20
38.42345433098194
 30
0.0
 11
174.83028177824809
 21
39.127771031131147
 31
0.0
  0
LINE
  5
24A6
  8
TITLE
 10
173.34040122428121
 20
38.42345433098194
 30
0.0
 11
174.0447179244311
 21
39.127771031131147
 31
0.0
  0
LINE
  5
24A7
  8
TITLE
 10
173.42768609692851
 20
38.42345433098194
 30
0.0
 11
174.13200279707809
 21
39.127771031131147
 31
0.0
  0
LINE
  5
24A8
  8
TITLE
 10
173.165831478987
 20
38.42345433098194
 30
0.0
 11
173.87014817913669
 21
39.127771031131147
 31
0.0
  0
LINE
  5
24A9
  8
TITLE
 10
173.25311635163411
 20
38.42345433098194
 30
0.0
 11
173.95743305178391
 21
39.127771031131147
 31
0.0
  0
LINE
  5
24AA
  8
TITLE
 10
174.21324995074559
 20
38.42345433098194
 30
0.0
 11
174.9175666508954
 21
39.127771031131147
 31
0.0
  0
LINE
  5
24AB
  8
TITLE
 10
174.30053482339281
 20
38.42345433098194
 30
0.0
 11
175.00485152354261
 21
39.127771031131147
 31
0.0
  0
LINE
  5
24AC
  8
TITLE
 10
173.2761540241186
 20
36.962649168479047
 30
0.0
 11
174.03264236355611
 21
37.719137507916351
 31
0.0
  0
LINE
  5
24AD
  8
TITLE
 10
173.36343889676559
 20
36.962649168479047
 30
0.0
 11
174.11992723620301
 21
37.719137507916351
 31
0.0
  0
LINE
  5
24AE
  8
TITLE
 10
173.45072376941289
 20
36.962649168479047
 30
0.0
 11
174.2072121088498
 21
37.719137507916351
 31
0.0
  0
LINE
  5
24AF
  8
TITLE
 10
173.53800864205999
 20
36.962649168479047
 30
0.0
 11
174.2944969814975
 21
37.719137507916351
 31
0.0
  0
LINE
  5
24B0
  8
TITLE
 10
173.60071599501401
 20
36.938071648785922
 30
0.0
 11
174.38178185414421
 21
37.719137507916351
 31
0.0
  0
LINE
  5
24B1
  8
TITLE
 10
173.60071599501401
 20
36.8507867761424
 30
0.0
 11
174.4690667267846
 21
37.719137507916351
 31
0.0
  0
LINE
  5
24B2
  8
TITLE
 10
173.60071599501401
 20
36.763501903495239
 30
0.0
 11
174.55635159943171
 21
37.719137507916351
 31
0.0
  0
LINE
  5
24B3
  8
TITLE
 10
173.60071599501401
 20
36.676217030848321
 30
0.0
 11
174.6436364720789
 21
37.719137507916351
 31
0.0
  0
LINE
  5
24B4
  8
TITLE
 10
173.1888691514709
 20
36.962649168479047
 30
0.0
 11
173.94535749090841
 21
37.719137507916351
 31
0.0
  0
LINE
  5
24B5
  8
TITLE
 10
173.60071599501401
 20
36.588932158204457
 30
0.0
 11
174.73092134472611
 21
37.719137507916351
 31
0.0
  0
LINE
  5
24B6
  8
TITLE
 10
173.60071599501401
 20
36.501647285557169
 30
0.0
 11
174.81820621737279
 21
37.719137507916351
 31
0.0
  0
LINE
  5
24B7
  8
TITLE
 10
173.60071599501401
 20
36.414362412909888
 30
0.0
 11
174.9054910900204
 21
37.719137507916351
 31
0.0
  0
LINE
  5
24B8
  8
TITLE
 10
173.60071599501401
 20
36.152507794968763
 30
0.0
 11
174.3581739212141
 21
36.909965721168192
 31
0.0
  0
LINE
  5
24B9
  8
TITLE
 10
173.60071599501401
 20
36.065222922321482
 30
0.0
 11
174.3581739212141
 21
36.822680848520932
 31
0.0
  0
LINE
  5
24BA
  8
TITLE
 10
173.60071599501401
 20
36.32707754026319
 30
0.0
 11
174.99277596266751
 21
37.719137507916351
 31
0.0
  0
LINE
  5
24BB
  8
TITLE
 10
172.6211628459441
 20
34.300105919434252
 30
0.0
 11
173.54465669864339
 21
35.223599772133753
 31
0.0
  0
LINE
  5
24BC
  8
TITLE
 10
172.71286516917101
 20
34.304523370017371
 30
0.0
 11
174.3581739212141
 21
35.949832122056712
 31
0.0
  0
LINE
  5
24BD
  8
TITLE
 10
172.80539353300171
 20
34.309766861197552
 30
0.0
 11
174.3581739212141
 21
35.862547249409317
 31
0.0
  0
LINE
  5
24BE
  8
TITLE
 10
172.8987719179963
 20
34.315860373552042
 30
0.0
 11
174.3581739212141
 21
35.775262376762051
 31
0.0
  0
LINE
  5
24BF
  8
TITLE
 10
172.9930256840492
 20
34.322829266958138
 30
0.0
 11
174.3581739212141
 21
35.687977504115111
 31
0.0
  0
LINE
  5
24C0
  8
TITLE
 10
173.0881816838928
 20
34.330700394146682
 30
0.0
 11
174.3581739212141
 21
35.600692631471247
 31
0.0
  0
LINE
  5
24C1
  8
TITLE
 10
173.2813160296777
 20
34.349264994645068
 30
0.0
 11
174.3581739212141
 21
35.426122886180913
 31
0.0
  0
LINE
  5
24C2
  8
TITLE
 10
173.37935675094781
 20
34.3600208432606
 30
0.0
 11
174.3587945770258
 21
35.3394586693463
 31
0.0
  0
LINE
  5
24C3
  8
TITLE
 10
173.47842478709251
 20
34.371804006765501
 30
0.0
 11
174.4646026384066
 21
35.35798185807915
 31
0.0
  0
LINE
  5
24C4
  8
TITLE
 10
173.5785566571258
 20
34.384651004147827
 30
0.0
 11
174.5714021776102
 21
35.377496524635831
 31
0.0
  0
LINE
  5
24C5
  8
TITLE
 10
173.6797913845275
 20
34.398600858906221
 30
0.0
 11
174.6792258417463
 21
35.39803531612506
 31
0.0
  0
LINE
  5
24C6
  8
TITLE
 10
173.78217074520521
 20
34.413695346936947
 30
0.0
 11
174.7881082927469
 21
35.419632894478468
 31
0.0
  0
LINE
  5
24C7
  8
TITLE
 10
173.8857395479281
 20
34.429979277012073
 30
0.0
 11
174.8980863865936
 21
35.442326115677929
 31
0.0
  0
LINE
  5
24C8
  8
TITLE
 10
173.18426838901681
 20
34.339502226623722
 30
0.0
 11
174.3581739212141
 21
35.513407758824428
 31
0.0
  0
LINE
  5
24C9
  8
TITLE
 10
173.9905459528982
 20
34.4475008093425
 30
0.0
 11
175.009199373716
 21
35.46615423015713
 31
0.0
  0
LINE
  5
24CA
  8
TITLE
 10
173.60071599501401
 20
35.803368304383639
 30
0.0
 11
174.3581739212141
 21
36.560826230582961
 31
0.0
  0
LINE
  5
24CB
  8
TITLE
 10
173.60071599501401
 20
35.716083431740117
 30
0.0
 11
174.3581739212141
 21
36.473541357935687
 31
0.0
  0
LINE
  5
24CC
  8
TITLE
 10
173.60071599501401
 20
35.628798559092843
 30
0.0
 11
174.3581739212141
 21
36.386256485288762
 31
0.0
  0
LINE
  5
24CD
  8
TITLE
 10
173.60071599501401
 20
35.54151368644591
 30
0.0
 11
174.3581739212141
 21
36.298971612645232
 31
0.0
  0
LINE
  5
24CE
  8
TITLE
 10
173.60071599501401
 20
35.454228813798522
 30
0.0
 11
174.3581739212141
 21
36.211686739998193
 31
0.0
  0
LINE
  5
24CF
  8
TITLE
 10
173.60071599501401
 20
35.366943941151483
 30
0.0
 11
174.3581739212141
 21
36.124401867350691
 31
0.0
  0
LINE
  5
24D0
  8
TITLE
 10
173.60071599501401
 20
35.279659068504202
 30
0.0
 11
174.3581739212141
 21
36.03711699470341
 31
0.0
  0
LINE
  5
24D1
  8
TITLE
 10
173.60071599501401
 20
35.977938049677618
 30
0.0
 11
174.3581739212141
 21
36.735395975873757
 31
0.0
  0
LINE
  5
24D2
  8
TITLE
 10
173.60071599501401
 20
35.890653177030799
 30
0.0
 11
174.3581739212141
 21
36.648111103226491
 31
0.0
  0
LINE
  5
24D3
  8
TITLE
 10
174.99881380456321
 20
38.42345433098194
 30
0.0
 11
175.70313050471259
 21
39.127771031131147
 31
0.0
  0
LINE
  5
24D4
  8
TITLE
 10
174.38781969604
 20
38.42345433098194
 30
0.0
 11
175.09213639618969
 21
39.127771031131147
 31
0.0
  0
LINE
  5
24D5
  8
TITLE
 10
174.4751045686798
 20
38.42345433098194
 30
0.0
 11
175.1794212688369
 21
39.127771031131147
 31
0.0
  0
LINE
  5
24D6
  8
TITLE
 10
174.56238944132701
 20
38.42345433098194
 30
0.0
 11
175.26670614148401
 21
39.127771031131147
 31
0.0
  0
LINE
  5
24D7
  8
TITLE
 10
174.6496743139742
 20
38.42345433098194
 30
0.0
 11
175.35399101412389
 21
39.127771031131147
 31
0.0
  0
LINE
  5
24D8
  8
TITLE
 10
174.73695918662131
 20
38.42345433098194
 30
0.0
 11
175.44127588677111
 21
39.127771031131147
 31
0.0
  0
LINE
  5
24D9
  8
TITLE
 10
174.82424405926841
 20
38.42345433098194
 30
0.0
 11
175.52856075941821
 21
39.127771031131147
 31
0.0
  0
LINE
  5
24DA
  8
TITLE
 10
174.9115289319156
 20
38.42345433098194
 30
0.0
 11
175.61584563206591
 21
39.127771031131147
 31
0.0
  0
LINE
  5
24DB
  8
TITLE
 10
175.02185147704719
 20
36.962649168479047
 30
0.0
 11
175.42906265706051
 21
37.369860348492132
 31
0.0
  0
LINE
  5
24DC
  8
TITLE
 10
174.41085736852429
 20
36.962649168479047
 30
0.0
 11
175.1673457079612
 21
37.719137507916351
 31
0.0
  0
LINE
  5
24DD
  8
TITLE
 10
173.60071599501401
 20
36.23979266761593
 30
0.0
 11
175.08006083531421
 21
37.719137507916351
 31
0.0
  0
LINE
  5
24DE
  8
TITLE
 10
174.49814224117151
 20
36.962649168479047
 30
0.0
 11
175.25463058060899
 21
37.719137507916351
 31
0.0
  0
LINE
  5
24DF
  8
TITLE
 10
174.5854271138187
 20
36.962649168479047
 30
0.0
 11
175.3419154532489
 21
37.719137507916351
 31
0.0
  0
LINE
  5
24E0
  8
TITLE
 10
174.6727119864654
 20
36.962649168479047
 30
0.0
 11
175.42906265706051
 21
37.718999839073149
 31
0.0
  0
LINE
  5
24E1
  8
TITLE
 10
174.75999685910571
 20
36.962649168479047
 30
0.0
 11
175.42906265706051
 21
37.63171496642974
 31
0.0
  0
LINE
  5
24E2
  8
TITLE
 10
174.8472817317529
 20
36.962649168479047
 30
0.0
 11
175.42906265706051
 21
37.544430093782921
 31
0.0
  0
LINE
  5
24E3
  8
TITLE
 10
174.9345666044
 20
36.962649168479047
 30
0.0
 11
175.42906265706051
 21
37.45714522113542
 31
0.0
  0
LINE
  5
24E4
  8
TITLE
 10
174.99967796823049
 20
34.671068970850463
 30
0.0
 11
175.71637448553969
 21
35.38776548815953
 31
0.0
  0
LINE
  5
24E5
  8
TITLE
 10
174.0966418348348
 20
34.466311818631532
 30
0.0
 11
175.1214891236221
 21
35.491159107419321
 31
0.0
  0
LINE
  5
24E6
  8
TITLE
 10
174.2040831984545
 20
34.486468309601271
 30
0.0
 11
175.2350003774468
 21
35.517385488596346
 31
0.0
  0
LINE
  5
24E7
  8
TITLE
 10
174.31293065595901
 20
34.508030894457988
 30
0.0
 11
175.34978103284081
 21
35.544881271343677
 31
0.0
  0
LINE
  5
24E8
  8
TITLE
 10
174.42324997823971
 20
34.531065344095282
 30
0.0
 11
175.4658824663729
 21
35.573697832228042
 31
0.0
  0
LINE
  5
24E9
  8
TITLE
 10
174.5351127341973
 20
34.55564322740554
 30
0.0
 11
175.5833598996669
 21
35.603890392875087
 31
0.0
  0
LINE
  5
24EA
  8
TITLE
 10
174.64859703605481
 20
34.58184265662009
 30
0.0
 11
175.7022728168298
 21
35.635518437391397
 31
0.0
  0
LINE
  5
24EB
  8
TITLE
 10
174.76378841308079
 20
34.609749160994973
 30
0.0
 11
175.71637448553969
 21
35.562335233453851
 31
0.0
  0
LINE
  5
24EC
  8
TITLE
 10
174.8807808417514
 20
34.639456717018561
 30
0.0
 11
175.71637448553969
 21
35.475050360806563
 31
0.0
  0
LINE
  5
24ED
  8
TITLE
 10
175.6970927857333
 20
38.42345433098194
 30
0.0
 11
176.5521900557718
 21
39.278551601020823
 31
0.0
  0
LINE
  5
24EE
  8
TITLE
 10
175.71637448553969
 20
38.355451158140909
 30
0.0
 11
176.5521900557718
 21
39.191266728373201
 31
0.0
  0
LINE
  5
24EF
  8
TITLE
 10
175.71637448553969
 20
38.180881412846823
 30
0.0
 11
176.66326410382399
 21
39.127771031131147
 31
0.0
  0
LINE
  5
24F0
  8
TITLE
 10
176.74451125749181
 20
38.42345433098194
 30
0.0
 11
177.44882795764121
 21
39.127771031131147
 31
0.0
  0
LINE
  5
24F1
  8
TITLE
 10
176.83179613013911
 20
38.42345433098194
 30
0.0
 11
177.5361128302884
 21
39.127771031131147
 31
0.0
  0
LINE
  5
24F2
  8
TITLE
 10
176.91908100278579
 20
38.42345433098194
 30
0.0
 11
177.62339770293551
 21
39.127771031131147
 31
0.0
  0
LINE
  5
24F3
  8
TITLE
 10
177.00636587543289
 20
38.42345433098194
 30
0.0
 11
177.71068257558269
 21
39.127771031131147
 31
0.0
  0
LINE
  5
24F4
  8
TITLE
 10
177.09365074808051
 20
38.42345433098194
 30
0.0
 11
177.79796744822991
 21
39.127771031131147
 31
0.0
  0
LINE
  5
24F5
  8
TITLE
 10
177.18093562072721
 20
38.42345433098194
 30
0.0
 11
177.8581519572331
 21
39.100670667491393
 31
0.0
  0
LINE
  5
24F6
  8
TITLE
 10
179.30763632220351
 20
37.757039107777359
 30
0.0
 11
179.7640706689503
 21
38.213473454524433
 31
0.0
  0
LINE
  5
24F7
  8
TITLE
 10
179.0569892766639
 20
36.284403845184897
 30
0.0
 11
179.7608390139371
 21
36.988253582461773
 31
0.0
  0
LINE
  5
24F8
  8
TITLE
 10
179.144274149311
 20
36.284403845184897
 30
0.0
 11
179.84812388658469
 21
36.988253582461773
 31
0.0
  0
LINE
  5
24F9
  8
TITLE
 10
179.23155902195819
 20
36.284403845184897
 30
0.0
 11
179.93540875923139
 21
36.988253582461773
 31
0.0
  0
LINE
  5
24FA
  8
TITLE
 10
179.31884389460529
 20
36.284403845184897
 30
0.0
 11
180.02269363187861
 21
36.988253582461773
 31
0.0
  0
LINE
  5
24FB
  8
TITLE
 10
179.40612876725251
 20
36.284403845184897
 30
0.0
 11
180.10997850452571
 21
36.988253582461773
 31
0.0
  0
LINE
  5
24FC
  8
TITLE
 10
179.4934136398997
 20
36.284403845184897
 30
0.0
 11
180.1972633771729
 21
36.988253582461773
 31
0.0
  0
LINE
  5
24FD
  8
TITLE
 10
179.5806985125468
 20
36.284403845184897
 30
0.0
 11
180.28454824982009
 21
36.988253582461773
 31
0.0
  0
LINE
  5
24FE
  8
TITLE
 10
179.5941752098592
 20
36.210595669849909
 30
0.0
 11
180.37183312246719
 21
36.988253582461773
 31
0.0
  0
LINE
  5
24FF
  8
TITLE
 10
179.58800011549101
 20
36.117135702838709
 30
0.0
 11
180.45911799511441
 21
36.988253582461773
 31
0.0
  0
LINE
  5
2500
  8
TITLE
 10
179.30763632220351
 20
37.669754235130213
 30
0.0
 11
179.8513555415968
 21
38.213473454524433
 31
0.0
  0
LINE
  5
2501
  8
TITLE
 10
179.30763632220351
 20
37.582469362483153
 30
0.0
 11
179.93864041424459
 21
38.213473454524433
 31
0.0
  0
LINE
  5
2502
  8
TITLE
 10
179.30763632220351
 20
37.495184489835893
 30
0.0
 11
180.02592528689181
 21
38.213473454524433
 31
0.0
  0
LINE
  5
2503
  8
TITLE
 10
179.33115489589539
 20
37.431418190884422
 30
0.0
 11
180.11321015953851
 21
38.213473454524433
 31
0.0
  0
LINE
  5
2504
  8
TITLE
 10
179.41843976854261
 20
37.431418190884422
 30
0.0
 11
180.2004950321861
 21
38.213473454524433
 31
0.0
  0
LINE
  5
2505
  8
TITLE
 10
179.50572464118969
 20
37.431418190884422
 30
0.0
 11
180.2877799048328
 21
38.213473454524433
 31
0.0
  0
LINE
  5
2506
  8
TITLE
 10
179.5930095138369
 20
37.431418190884422
 30
0.0
 11
180.37506477747999
 21
38.213473454524433
 31
0.0
  0
LINE
  5
2507
  8
TITLE
 10
179.68029438648409
 20
37.431418190884422
 30
0.0
 11
180.46234965012761
 21
38.213473454524433
 31
0.0
  0
LINE
  5
2508
  8
TITLE
 10
179.7675792591312
 20
37.431418190884422
 30
0.0
 11
180.54963452276701
 21
38.213473454524433
 31
0.0
  0
LINE
  5
2509
  8
TITLE
 10
179.8548641317779
 20
37.431418190884422
 30
0.0
 11
180.6369193954142
 21
38.213473454524433
 31
0.0
  0
LINE
  5
250A
  8
TITLE
 10
179.9421490044256
 20
37.431418190884422
 30
0.0
 11
180.72420426806181
 21
38.213473454524433
 31
0.0
  0
LINE
  5
250B
  8
TITLE
 10
177.61735998395579
 20
38.42345433098194
 30
0.0
 11
177.8581519572331
 21
38.664246304259223
 31
0.0
  0
LINE
  5
250C
  8
TITLE
 10
177.7046448566029
 20
38.42345433098194
 30
0.0
 11
177.8581519572331
 21
38.576961431611842
 31
0.0
  0
LINE
  5
250D
  8
TITLE
 10
177.79192972925011
 20
38.42345433098194
 30
0.0
 11
177.8581519572331
 21
38.489676558964788
 31
0.0
  0
LINE
  5
250E
  8
TITLE
 10
178.42017100028241
 20
38.615271238781929
 30
0.0
 11
178.5058177253531
 21
38.700917963855773
 31
0.0
  0
LINE
  5
250F
  8
TITLE
 10
178.42017100028241
 20
38.527986366134883
 30
0.0
 11
178.6134336205873
 21
38.721248986442902
 31
0.0
  0
LINE
  5
2510
  8
TITLE
 10
178.42017100028241
 20
38.440701493491602
 30
0.0
 11
178.7250497232871
 21
38.745580216496251
 31
0.0
  0
LINE
  5
2511
  8
TITLE
 10
178.42017100028241
 20
38.353416620844101
 30
0.0
 11
178.8412384816192
 21
38.774484102180743
 31
0.0
  0
LINE
  5
2512
  8
TITLE
 10
177.44279023866139
 20
38.42345433098194
 30
0.0
 11
177.8581519572331
 21
38.838816049552968
 31
0.0
  0
LINE
  5
2513
  8
TITLE
 10
177.53007511130861
 20
38.42345433098194
 30
0.0
 11
177.8581519572331
 21
38.751531176906148
 31
0.0
  0
LINE
  5
2514
  8
TITLE
 10
178.42017100028241
 20
38.266131748196813
 30
0.0
 11
178.96273860190189
 21
38.8086993498165
 31
0.0
  0
LINE
  5
2515
  8
TITLE
 10
177.26822049336761
 20
38.42345433098194
 30
0.0
 11
177.8581519572331
 21
39.013385794843771
 31
0.0
  0
LINE
  5
2516
  8
TITLE
 10
177.35550536601471
 20
38.42345433098194
 30
0.0
 11
177.8581519572331
 21
38.926100922200362
 31
0.0
  0
LINE
  5
2517
  8
TITLE
 10
178.42017100028241
 20
36.433149422620772
 30
0.0
 11
178.97527516012039
 21
36.988253582461773
 31
0.0
  0
LINE
  5
2518
  8
TITLE
 10
178.42017100028241
 20
36.69500404055907
 30
0.0
 11
178.7134205421857
 21
36.988253582461773
 31
0.0
  0
LINE
  5
2519
  8
TITLE
 10
178.42017100028241
 20
36.607719167915093
 30
0.0
 11
178.80070541483289
 21
36.988253582461773
 31
0.0
  0
LINE
  5
251A
  8
TITLE
 10
178.42017100028241
 20
36.520434295268053
 30
0.0
 11
178.8879902874728
 21
36.988253582461773
 31
0.0
  0
LINE
  5
251B
  8
TITLE
 10
178.42017100028241
 20
36.956858658496792
 30
0.0
 11
178.45156592424419
 21
36.988253582461773
 31
0.0
  0
LINE
  5
251C
  8
TITLE
 10
178.42017100028241
 20
36.869573785849532
 30
0.0
 11
178.5388507968909
 21
36.988253582461773
 31
0.0
  0
LINE
  5
251D
  8
TITLE
 10
178.42017100028241
 20
36.782288913206123
 30
0.0
 11
178.6261356695386
 21
36.988253582461773
 31
0.0
  0
LINE
  5
251E
  8
TITLE
 10
178.42017100028241
 20
37.916992257608058
 30
0.0
 11
179.52877310758771
 21
39.02559436491709
 31
0.0
  0
LINE
  5
251F
  8
TITLE
 10
178.42017100028241
 20
37.829707384960791
 30
0.0
 11
179.70443841008861
 21
39.113974794770122
 31
0.0
  0
LINE
  5
2520
  8
TITLE
 10
178.88241953136961
 20
36.284403845184897
 30
0.0
 11
179.58626926865011
 21
36.988253582461773
 31
0.0
  0
LINE
  5
2521
  8
TITLE
 10
178.96970440401719
 20
36.284403845184897
 30
0.0
 11
179.67355414129719
 21
36.988253582461773
 31
0.0
  0
LINE
  5
2522
  8
TITLE
 10
178.79513465872969
 20
36.284403845184897
 30
0.0
 11
179.4989843960029
 21
36.988253582461773
 31
0.0
  0
LINE
  5
2523
  8
TITLE
 10
178.42017100028241
 20
36.345864549973953
 30
0.0
 11
179.0625600327671
 21
36.988253582461773
 31
0.0
  0
LINE
  5
2524
  8
TITLE
 10
178.445995168141
 20
36.284403845184897
 30
0.0
 11
179.14984490541431
 21
36.988253582461773
 31
0.0
  0
LINE
  5
2525
  8
TITLE
 10
178.53328004078821
 20
36.284403845184897
 30
0.0
 11
179.2371297780619
 21
36.988253582461773
 31
0.0
  0
LINE
  5
2526
  8
TITLE
 10
178.6205649134354
 20
36.284403845184897
 30
0.0
 11
179.3244146507086
 21
36.988253582461773
 31
0.0
  0
LINE
  5
2527
  8
TITLE
 10
178.70784978608251
 20
36.284403845184897
 30
0.0
 11
179.41169952335571
 21
36.988253582461773
 31
0.0
  0
LINE
  5
2528
  8
TITLE
 10
178.42017100028241
 20
38.178846875549652
 30
0.0
 11
179.09053220582379
 21
38.849208081094389
 31
0.0
  0
LINE
  5
2529
  8
TITLE
 10
178.42017100028241
 20
38.09156200290284
 30
0.0
 11
179.22597544339439
 21
38.89736644601485
 31
0.0
  0
LINE
  5
252A
  8
TITLE
 10
178.42017100028241
 20
38.0042771302559
 30
0.0
 11
179.3710363945861
 21
38.955142524558937
 31
0.0
  0
LINE
  5
252B
  8
TITLE
 10
176.713361570909
 20
35.162764356482967
 30
0.0
 11
177.27823613090459
 21
35.727638916471392
 31
0.0
  0
LINE
  5
252C
  8
TITLE
 10
176.75507465156619
 20
35.117192564493521
 30
0.0
 11
177.32192031843991
 21
35.684038231366799
 31
0.0
  0
LINE
  5
252D
  8
TITLE
 10
176.79748334857911
 20
35.072316388858781
 30
0.0
 11
177.3666522597118
 21
35.6414852999917
 31
0.0
  0
LINE
  5
252E
  8
TITLE
 10
176.84058672354061
 20
35.028134891173181
 30
0.0
 11
177.4124338413398
 21
35.59998200896883
 31
0.0
  0
LINE
  5
252F
  8
TITLE
 10
176.88438436696379
 20
34.984647661949573
 30
0.0
 11
177.45926878076119
 21
35.559532075746922
 31
0.0
  0
LINE
  5
2530
  8
TITLE
 10
176.92887639672051
 20
34.941854819059252
 30
0.0
 11
177.5071626586969
 21
35.520141081034922
 31
0.0
  0
LINE
  5
2531
  8
TITLE
 10
177.06652791645999
 20
34.817651720860681
 30
0.0
 11
177.65728283968971
 21
35.408406644090171
 31
0.0
  0
LINE
  5
2532
  8
TITLE
 10
177.11380927535259
 20
34.777648207110012
 30
0.0
 11
177.70950765132821
 21
35.373346583081798
 31
0.0
  0
LINE
  5
2533
  8
TITLE
 10
177.16179360682139
 20
34.73834766593086
 30
0.0
 11
177.76284963274611
 21
35.33940369185224
 31
0.0
  0
LINE
  5
2534
  8
TITLE
 10
177.21048427373989
 20
34.69975346020226
 30
0.0
 11
177.8173272602678
 21
35.306596446726651
 31
0.0
  0
LINE
  5
2535
  8
TITLE
 10
176.97406345847341
 20
34.899757008168429
 30
0.0
 11
177.5561229683731
 21
35.481816518064193
 31
0.0
  0
LINE
  5
2536
  8
TITLE
 10
177.0199467281613
 20
34.858355405212251
 30
0.0
 11
177.60615918254689
 21
35.444567859590848
 31
0.0
  0
LINE
  5
2537
  8
TITLE
 10
179.07080186643719
 20
34.290664364088229
 30
0.0
 11
180.2896936921579
 21
35.509556189809132
 31
0.0
  0
LINE
  5
2538
  8
TITLE
 10
179.15808673908481
 20
34.290664364088229
 30
0.0
 11
180.20073237026321
 21
35.33330999527049
 31
0.0
  0
LINE
  5
2539
  8
TITLE
 10
179.24537161173151
 20
34.290664364088229
 30
0.0
 11
180.03758041283521
 21
35.082873165192382
 31
0.0
  0
LINE
  5
253A
  8
TITLE
 10
179.3326564843787
 20
34.290664364088229
 30
0.0
 11
180.0490391168087
 21
35.007046996521808
 31
0.0
  0
LINE
  5
253B
  8
TITLE
 10
179.41994135702581
 20
34.290664364088229
 30
0.0
 11
180.1363239894558
 21
35.007046996521808
 31
0.0
  0
LINE
  5
253C
  8
TITLE
 10
179.5072262296726
 20
34.290664364088229
 30
0.0
 11
180.22360886210339
 21
35.007046996521808
 31
0.0
  0
LINE
  5
253D
  8
TITLE
 10
179.59451110231291
 20
34.290664364088229
 30
0.0
 11
180.3108937347501
 21
35.007046996521808
 31
0.0
  0
LINE
  5
253E
  8
TITLE
 10
179.6817959749601
 20
34.290664364088229
 30
0.0
 11
180.39817860739731
 21
35.007046996521808
 31
0.0
  0
LINE
  5
253F
  8
TITLE
 10
179.7690808476072
 20
34.290664364088229
 30
0.0
 11
180.4854634800445
 21
35.007046996521808
 31
0.0
  0
LINE
  5
2540
  8
TITLE
 10
179.85636572025439
 20
34.290664364088229
 30
0.0
 11
180.5727483526843
 21
35.007046996521808
 31
0.0
  0
LINE
  5
2541
  8
TITLE
 10
179.943650592902
 20
34.290664364088229
 30
0.0
 11
180.6600332253314
 21
35.007046996521808
 31
0.0
  0
LINE
  5
2542
  8
TITLE
 10
180.03093546554871
 20
34.290664364088229
 30
0.0
 11
180.74731809797871
 21
35.007046996521808
 31
0.0
  0
LINE
  5
2543
  8
TITLE
 10
177.2598852130873
 20
34.661869526898741
 30
0.0
 11
177.8581519572331
 21
35.260136271048736
 31
0.0
  0
LINE
  5
2544
  8
TITLE
 10
177.31000095156281
 20
34.624700392730801
 30
0.0
 11
177.8581519572331
 21
35.172851398401349
 31
0.0
  0
LINE
  5
2545
  8
TITLE
 10
177.36083662384041
 20
34.588251192358371
 30
0.0
 11
177.8581519572331
 21
35.085566525753848
 31
0.0
  0
LINE
  5
2546
  8
TITLE
 10
177.41239799349569
 20
34.552527689373171
 30
0.0
 11
177.8581519572331
 21
34.998281653107142
 31
0.0
  0
LINE
  5
2547
  8
TITLE
 10
178.7072920514297
 20
34.88728814819207
 30
0.0
 11
178.92447534009759
 21
35.10447143685964
 31
0.0
  0
LINE
  5
2548
  8
TITLE
 10
177.6813393473048
 20
34.385044679946759
 30
0.0
 11
177.8581519572331
 21
34.561857289874979
 31
0.0
  0
LINE
  5
2549
  8
TITLE
 10
177.7374145998119
 20
34.353835059810081
 30
0.0
 11
177.8581519572331
 21
34.474572417227719
 31
0.0
  0
LINE
  5
254A
  8
TITLE
 10
177.7942759570472
 20
34.323411544398141
 30
0.0
 11
177.8581519572331
 21
34.38728754458441
 31
0.0
  0
LINE
  5
254B
  8
TITLE
 10
177.85193538549311
 20
34.293786100193302
 30
0.0
 11
177.8581519572331
 21
34.300002671937023
 31
0.0
  0
LINE
  5
254C
  8
TITLE
 10
177.4646914769919
 20
34.517536300218687
 30
0.0
 11
177.8581519572331
 21
34.910996780459868
 31
0.0
  0
LINE
  5
254D
  8
TITLE
 10
177.51772417073701
 20
34.483284121316728
 30
0.0
 11
177.8581519572331
 21
34.823711907812822
 31
0.0
  0
LINE
  5
254E
  8
TITLE
 10
177.5715038817593
 20
34.449778959692033
 30
0.0
 11
177.8581519572331
 21
34.736427035165562
 31
0.0
  0
LINE
  5
254F
  8
TITLE
 10
177.62603916207991
 20
34.417029367365217
 30
0.0
 11
177.8581519572331
 21
34.649142162521798
 31
0.0
  0
LINE
  5
2550
  8
TITLE
 10
178.7072920514297
 20
34.97457302083923
 30
0.0
 11
178.75860099086049
 21
35.02588196027375
 31
0.0
  0
LINE
  5
2551
  8
TITLE
 10
178.72166237584861
 20
34.290664364088229
 30
0.0
 11
180.45021234783181
 21
36.019214336071741
 31
0.0
  0
LINE
  5
2552
  8
TITLE
 10
178.80894724849571
 20
34.290664364088229
 30
0.0
 11
180.42631676081041
 21
35.908033876402783
 31
0.0
  0
LINE
  5
2553
  8
TITLE
 10
178.8962321211429
 20
34.290664364088229
 30
0.0
 11
180.39392155695711
 21
35.788353799902438
 31
0.0
  0
LINE
  5
2554
  8
TITLE
 10
178.98351699379009
 20
34.290664364088229
 30
0.0
 11
180.350135110059
 21
35.657282480356677
 31
0.0
  0
LINE
  5
2555
  8
TITLE
 10
179.54787736159591
 20
35.902443203652403
 30
0.0
 11
180.6336877404087
 21
36.988253582461773
 31
0.0
  0
LINE
  5
2556
  8
TITLE
 10
179.50456043923481
 20
35.771841408644278
 30
0.0
 11
180.7209726130485
 21
36.988253582461773
 31
0.0
  0
LINE
  5
2557
  8
TITLE
 10
179.57360172820739
 20
36.015452442911169
 30
0.0
 11
180.5464028677614
 21
36.988253582461773
 31
0.0
  0
LINE
  5
2558
  8
TITLE
 10
178.7072920514297
 20
34.450863784960241
 30
0.0
 11
180.47909126485229
 21
36.222662998378837
 31
0.0
  0
LINE
  5
2559
  8
TITLE
 10
178.7072920514297
 20
34.363578912316491
 30
0.0
 11
180.4674022030253
 21
36.123689063912032
 31
0.0
  0
LINE
  5
255A
  8
TITLE
 10
178.5127011256327
 20
37.834952637663832
 30
0.0
 11
179.9086611793791
 21
39.230912691410254
 31
0.0
  0
LINE
  5
255B
  8
TITLE
 10
175.71637448553969
 20
39.83929399313196
 30
0.0
 11
175.7323687437692
 21
39.855288251358161
 31
0.0
  0
LINE
  5
255C
  8
TITLE
 10
175.71637448553969
 20
39.402869629899683
 30
0.0
 11
176.16879310699761
 21
39.855288251358161
 31
0.0
  0
LINE
  5
255D
  8
TITLE
 10
175.71637448553969
 20
39.315584757252388
 30
0.0
 11
176.2560779796454
 21
39.855288251358161
 31
0.0
  0
LINE
  5
255E
  8
TITLE
 10
175.71637448553969
 20
39.577439375193762
 30
0.0
 11
175.9942233617038
 21
39.855288251358161
 31
0.0
  0
LINE
  5
255F
  8
TITLE
 10
175.71637448553969
 20
39.490154502546829
 30
0.0
 11
176.08150823435099
 21
39.855288251358161
 31
0.0
  0
LINE
  5
2560
  8
TITLE
 10
175.71637448553969
 20
39.664724247837732
 30
0.0
 11
175.9069384890563
 21
39.855288251358161
 31
0.0
  0
LINE
  5
2561
  8
TITLE
 10
175.71637448553969
 20
39.752009120484772
 30
0.0
 11
175.81965361641679
 21
39.855288251358161
 31
0.0
  0
LINE
  5
2562
  8
TITLE
 10
176.97009795764541
 20
39.609174630247828
 30
0.0
 11
177.21621157875691
 21
39.855288251358161
 31
0.0
  0
LINE
  5
2563
  8
TITLE
 10
176.97009795764541
 20
39.52188975760032
 30
0.0
 11
177.30349645140359
 21
39.855288251358161
 31
0.0
  0
LINE
  5
2564
  8
TITLE
 10
176.97009795764541
 20
39.434604884953153
 30
0.0
 11
177.39078132405061
 21
39.855288251358161
 31
0.0
  0
LINE
  5
2565
  8
TITLE
 10
177.037492931081
 20
39.414714985748788
 30
0.0
 11
177.47806619669831
 21
39.855288251358161
 31
0.0
  0
LINE
  5
2566
  8
TITLE
 10
177.12477780372859
 20
39.414714985748788
 30
0.0
 11
177.5653510693451
 21
39.855288251358161
 31
0.0
  0
LINE
  5
2567
  8
TITLE
 10
177.21206267637581
 20
39.414714985748788
 30
0.0
 11
177.6526359419922
 21
39.855288251358161
 31
0.0
  0
LINE
  5
2568
  8
TITLE
 10
176.97009795764541
 20
39.783744375538276
 30
0.0
 11
177.04164183346211
 21
39.855288251358161
 31
0.0
  0
LINE
  5
2569
  8
TITLE
 10
176.97009795764541
 20
39.696459502891123
 30
0.0
 11
177.1289267061097
 21
39.855288251358161
 31
0.0
  0
LINE
  5
256A
  8
TITLE
 10
177.29934754902291
 20
39.414714985748788
 30
0.0
 11
177.73992081463979
 21
39.855288251358161
 31
0.0
  0
LINE
  5
256B
  8
TITLE
 10
177.38663242166959
 20
39.414714985748788
 30
0.0
 11
177.8272056872797
 21
39.855288251358161
 31
0.0
  0
LINE
  5
256C
  8
TITLE
 10
177.47391729431681
 20
39.414714985748788
 30
0.0
 11
177.8581519572331
 21
39.798949648664689
 31
0.0
  0
LINE
  5
256D
  8
TITLE
 10
177.56120216696399
 20
39.414714985748788
 30
0.0
 11
177.8581519572331
 21
39.711664776017543
 31
0.0
  0
LINE
  5
256E
  8
TITLE
 10
177.64848703961161
 20
39.414714985748788
 30
0.0
 11
177.8581519572331
 21
39.624379903370823
 31
0.0
  0
LINE
  5
256F
  8
TITLE
 10
177.73577191225871
 20
39.414714985748788
 30
0.0
 11
177.8581519572331
 21
39.537095030723208
 31
0.0
  0
LINE
  5
2570
  8
TITLE
 10
177.8230567849055
 20
39.414714985748788
 30
0.0
 11
177.8581519572331
 21
39.449810158075941
 31
0.0
  0
LINE
  5
2571
  8
TITLE
 10
188.25084515361871
 20
37.273481693371757
 30
0.0
 11
189.554292226413
 21
38.576928766166247
 31
0.0
  0
LINE
  5
2572
  8
TITLE
 10
188.25084515361871
 20
37.18619682072481
 30
0.0
 11
189.6415770990597
 21
38.576928766166247
 31
0.0
  0
LINE
  5
2573
  8
TITLE
 10
188.25084515361871
 20
37.098911948077671
 30
0.0
 11
189.72886197170689
 21
38.576928766166247
 31
0.0
  0
LINE
  5
2574
  8
TITLE
 10
188.25084515361871
 20
37.011627075430738
 30
0.0
 11
189.81614684435411
 21
38.576928766166247
 31
0.0
  0
LINE
  5
2575
  8
TITLE
 10
188.25084515361871
 20
36.92434220278335
 30
0.0
 11
189.90343171699439
 21
38.576928766166247
 31
0.0
  0
LINE
  5
2576
  8
TITLE
 10
187.74191892953471
 20
37.724689068395378
 30
0.0
 11
189.12927505564039
 21
39.112045194505193
 31
0.0
  0
LINE
  5
2577
  8
TITLE
 10
187.82920380218141
 20
37.724689068395378
 30
0.0
 11
189.12927505564039
 21
39.024760321858373
 31
0.0
  0
LINE
  5
2578
  8
TITLE
 10
188.17834329276309
 20
37.724689068395378
 30
0.0
 11
189.12927505564039
 21
38.675620831276319
 31
0.0
  0
LINE
  5
2579
  8
TITLE
 10
188.00377354746891
 20
37.724689068395378
 30
0.0
 11
189.12927505564039
 21
38.850190576567343
 31
0.0
  0
LINE
  5
257A
  8
TITLE
 10
188.09105842011601
 20
37.724689068395378
 30
0.0
 11
189.12927505564039
 21
38.762905703919962
 31
0.0
  0
LINE
  5
257B
  8
TITLE
 10
187.91648867482121
 20
37.724689068395378
 30
0.0
 11
189.12927505564039
 21
38.937475449214162
 31
0.0
  0
LINE
  5
257C
  8
TITLE
 10
188.25084515361871
 20
36.83705733013619
 30
0.0
 11
189.12927505564039
 21
37.715487232164961
 31
0.0
  0
LINE
  5
257D
  8
TITLE
 10
188.25084515361871
 20
36.749772457489257
 30
0.0
 11
189.12927505564039
 21
37.6282023595179
 31
0.0
  0
LINE
  5
257E
  8
TITLE
 10
188.25084515361871
 20
36.662487584842097
 30
0.0
 11
189.12927505564039
 21
37.540917486870853
 31
0.0
  0
LINE
  5
257F
  8
TITLE
 10
188.25084515361871
 20
36.57520271219812
 30
0.0
 11
189.12927505564039
 21
37.453632614223238
 31
0.0
  0
LINE
  5
2580
  8
TITLE
 10
188.25084515361871
 20
36.487917839551187
 30
0.0
 11
189.12927505564039
 21
37.366347741576313
 31
0.0
  0
LINE
  5
2581
  8
TITLE
 10
188.25084515361871
 20
36.400632966907892
 30
0.0
 11
189.12927505564039
 21
37.279062868929032
 31
0.0
  0
LINE
  5
2582
  8
TITLE
 10
188.25084515361871
 20
36.31334809426049
 30
0.0
 11
189.12927505564039
 21
37.191777996282219
 31
0.0
  0
LINE
  5
2583
  8
TITLE
 10
188.25084515361871
 20
36.226063221613231
 30
0.0
 11
189.12927505564039
 21
37.10449312363847
 31
0.0
  0
LINE
  5
2584
  8
TITLE
 10
188.25084515361871
 20
36.138778348966298
 30
0.0
 11
189.12927505564039
 21
37.017208250991303
 31
0.0
  0
LINE
  5
2585
  8
TITLE
 10
188.25084515361871
 20
36.051493476319031
 30
0.0
 11
189.12927505564039
 21
36.92992337834778
 31
0.0
  0
LINE
  5
2586
  8
TITLE
 10
188.25084515361871
 20
37.70990605660073
 30
0.0
 11
189.12927505564039
 21
38.588335958629273
 31
0.0
  0
LINE
  5
2587
  8
TITLE
 10
188.25084515361871
 20
37.622621183953818
 30
0.0
 11
189.2051527358239
 21
38.576928766166247
 31
0.0
  0
LINE
  5
2588
  8
TITLE
 10
188.25084515361871
 20
37.535336311309827
 30
0.0
 11
189.2924376084716
 21
38.576928766166247
 31
0.0
  0
LINE
  5
2589
  8
TITLE
 10
188.25084515361871
 20
37.448051438662887
 30
0.0
 11
189.37972248111799
 21
38.576928766166247
 31
0.0
  0
LINE
  5
258A
  8
TITLE
 10
188.25084515361871
 20
37.360766566015513
 30
0.0
 11
189.46700735376541
 21
38.576928766166247
 31
0.0
  0
LINE
  5
258B
  8
TITLE
 10
187.4501496404996
 20
34.290664364088229
 30
0.0
 11
189.12927505564039
 21
35.96978977923618
 31
0.0
  0
LINE
  5
258C
  8
TITLE
 10
187.53743451314671
 20
34.290664364088229
 30
0.0
 11
189.12927505564039
 21
35.882504906589247
 31
0.0
  0
LINE
  5
258D
  8
TITLE
 10
187.6247193857939
 20
34.290664364088229
 30
0.0
 11
189.12927505564039
 21
35.79522003394186
 31
0.0
  0
LINE
  5
258E
  8
TITLE
 10
187.71200425844111
 20
34.290664364088229
 30
0.0
 11
189.12927505564039
 21
35.70793516129504
 31
0.0
  0
LINE
  5
258F
  8
TITLE
 10
188.6721378575524
 20
34.290664364088229
 30
0.0
 11
189.52437755531901
 21
35.14290406185853
 31
0.0
  0
LINE
  5
2590
  8
TITLE
 10
188.7594227301924
 20
34.290664364088229
 30
0.0
 11
189.61166242796639
 21
35.14290406185853
 31
0.0
  0
LINE
  5
2591
  8
TITLE
 10
188.84670760284001
 20
34.290664364088229
 30
0.0
 11
189.69894730061381
 21
35.14290406185853
 31
0.0
  0
LINE
  5
2592
  8
TITLE
 10
188.9339924754868
 20
34.290664364088229
 30
0.0
 11
189.78623217325369
 21
35.14290406185853
 31
0.0
  0
LINE
  5
2593
  8
TITLE
 10
187.7992891310808
 20
34.290664364088229
 30
0.0
 11
189.12927505564039
 21
35.620650288647781
 31
0.0
  0
LINE
  5
2594
  8
TITLE
 10
187.8865740037281
 20
34.290664364088229
 30
0.0
 11
189.12927505564039
 21
35.533365416000493
 31
0.0
  0
LINE
  5
2595
  8
TITLE
 10
187.97385887637529
 20
34.290664364088229
 30
0.0
 11
189.12927505564039
 21
35.446080543353119
 31
0.0
  0
LINE
  5
2596
  8
TITLE
 10
188.06114374902239
 20
34.290664364088229
 30
0.0
 11
189.12927505564039
 21
35.358795670706179
 31
0.0
  0
LINE
  5
2597
  8
TITLE
 10
188.14842862166901
 20
34.290664364088229
 30
0.0
 11
189.12927505564039
 21
35.271510798062771
 31
0.0
  0
LINE
  5
2598
  8
TITLE
 10
188.2357134943168
 20
34.290664364088229
 30
0.0
 11
189.12927505564039
 21
35.184225925415717
 31
0.0
  0
LINE
  5
2599
  8
TITLE
 10
188.3229983669639
 20
34.290664364088229
 30
0.0
 11
189.17523806473079
 21
35.14290406185853
 31
0.0
  0
LINE
  5
259A
  8
TITLE
 10
188.41028323961109
 20
34.290664364088229
 30
0.0
 11
189.26252293737801
 21
35.14290406185853
 31
0.0
  0
LINE
  5
259B
  8
TITLE
 10
188.49756811225811
 20
34.290664364088229
 30
0.0
 11
189.34980781002511
 21
35.14290406185853
 31
0.0
  0
LINE
  5
259C
  8
TITLE
 10
188.58485298490541
 20
34.290664364088229
 30
0.0
 11
189.4370926826717
 21
35.14290406185853
 31
0.0
  0
LINE
  5
259D
  8
TITLE
 10
188.25084515361871
 20
35.702353985734149
 30
0.0
 11
189.12927505564039
 21
36.58078388775904
 31
0.0
  0
LINE
  5
259E
  8
TITLE
 10
188.25084515361871
 20
35.615069113086861
 30
0.0
 11
189.12927505564039
 21
36.493499015111752
 31
0.0
  0
LINE
  5
259F
  8
TITLE
 10
188.25084515361871
 20
35.527784240439928
 30
0.0
 11
189.12927505564039
 21
36.406214142464812
 31
0.0
  0
LINE
  5
25A0
  8
TITLE
 10
188.25084515361871
 20
35.440499367796171
 30
0.0
 11
189.12927505564039
 21
36.318929269817659
 31
0.0
  0
LINE
  5
25A1
  8
TITLE
 10
188.25084515361871
 20
35.353214495149359
 30
0.0
 11
189.12927505564039
 21
36.231644397174151
 31
0.0
  0
LINE
  5
25A2
  8
TITLE
 10
188.25084515361871
 20
35.265929622501851
 30
0.0
 11
189.12927505564039
 21
36.144359524527317
 31
0.0
  0
LINE
  5
25A3
  8
TITLE
 10
188.25084515361871
 20
35.178644749854691
 30
0.0
 11
189.12927505564039
 21
36.05707465187983
 31
0.0
  0
LINE
  5
25A4
  8
TITLE
 10
188.25084515361871
 20
35.96420860367175
 30
0.0
 11
189.12927505564039
 21
36.84263850570062
 31
0.0
  0
LINE
  5
25A5
  8
TITLE
 10
188.25084515361871
 20
35.876923731024696
 30
0.0
 11
189.12927505564039
 21
36.75535363305346
 31
0.0
  0
LINE
  5
25A6
  8
TITLE
 10
188.25084515361871
 20
35.789638858377657
 30
0.0
 11
189.12927505564039
 21
36.668068760406548
 31
0.0
  0
LINE
  5
25A7
  8
TITLE
 10
187.48006431159311
 20
37.724689068395378
 30
0.0
 11
189.12927505564039
 21
39.373899812446332
 31
0.0
  0
LINE
  5
25A8
  8
TITLE
 10
187.5673491842403
 20
37.724689068395378
 30
0.0
 11
189.12927505564039
 21
39.286614939799513
 31
0.0
  0
LINE
  5
25A9
  8
TITLE
 10
187.65463405688701
 20
37.724689068395378
 30
0.0
 11
189.12927505564039
 21
39.199330067152218
 31
0.0
  0
LINE
  5
25AA
  8
TITLE
 10
188.25084515361871
 20
39.019179146300758
 30
0.0
 11
189.0869542586764
 21
39.855288251358161
 31
0.0
  0
LINE
  5
25AB
  8
TITLE
 10
188.25084515361871
 20
38.931894273653832
 30
0.0
 11
189.12927505564039
 21
39.810324175678829
 31
0.0
  0
LINE
  5
25AC
  8
TITLE
 10
188.25084515361871
 20
38.844609401006778
 30
0.0
 11
189.12927505564039
 21
39.723039303031683
 31
0.0
  0
LINE
  5
25AD
  8
TITLE
 10
188.25084515361871
 20
38.757324528359511
 30
0.0
 11
189.12927505564039
 21
39.635754430387813
 31
0.0
  0
LINE
  5
25AE
  8
TITLE
 10
188.25084515361871
 20
38.67003965571223
 30
0.0
 11
189.12927505564039
 21
39.548469557740759
 31
0.0
  0
LINE
  5
25AF
  8
TITLE
 10
188.25084515361871
 20
38.582754783065191
 30
0.0
 11
189.12927505564039
 21
39.461184685093613
 31
0.0
  0
LINE
  5
25B0
  8
TITLE
 10
188.25084515361871
 20
39.10646401894769
 30
0.0
 11
188.99966938602941
 21
39.855288251358161
 31
0.0
  0
LINE
  5
25B1
  8
TITLE
 10
188.25084515361871
 20
39.281033764238828
 30
0.0
 11
188.82509964073461
 21
39.855288251358161
 31
0.0
  0
LINE
  5
25B2
  8
TITLE
 10
188.25084515361871
 20
39.193748891591667
 30
0.0
 11
188.91238451338151
 21
39.855288251358161
 31
0.0
  0
LINE
  5
25B3
  8
TITLE
 10
185.57991604706561
 20
39.228650837078249
 30
0.0
 11
186.20655346134211
 21
39.855288251358161
 31
0.0
  0
LINE
  5
25B4
  8
TITLE
 10
181.2001762442878
 20
39.213154666626679
 30
0.0
 11
181.7762062203978
 21
39.789184642736252
 31
0.0
  0
LINE
  5
25B5
  8
TITLE
 10
184.93086735857381
 20
38.317747530649171
 30
0.0
 11
186.41517726554409
 21
39.802057437618707
 31
0.0
  0
LINE
  5
25B6
  8
TITLE
 10
185.01815223122139
 20
38.317747530649171
 30
0.0
 11
186.41517726554409
 21
39.71477256497144
 31
0.0
  0
LINE
  5
25B7
  8
TITLE
 10
185.10543710386119
 20
38.317747530649171
 30
0.0
 11
186.41517726554409
 21
39.627487692324742
 31
0.0
  0
LINE
  5
25B8
  8
TITLE
 10
185.19272197650841
 20
38.317747530649171
 30
0.0
 11
186.41517726554409
 21
39.540202819677241
 31
0.0
  0
LINE
  5
25B9
  8
TITLE
 10
185.28000684915551
 20
38.317747530649171
 30
0.0
 11
186.41517726554409
 21
39.452917947030308
 31
0.0
  0
LINE
  5
25BA
  8
TITLE
 10
185.3672917218027
 20
38.317747530649171
 30
0.0
 11
186.41517726554409
 21
39.365633074383027
 31
0.0
  0
LINE
  5
25BB
  8
TITLE
 10
181.5258805350808
 20
38.927864848896213
 30
0.0
 11
182.1010398397928
 21
39.503024153601018
 31
0.0
  0
LINE
  5
25BC
  8
TITLE
 10
181.57444443055681
 20
38.889143871721771
 30
0.0
 11
182.150165934483
 21
39.464865375644422
 31
0.0
  0
LINE
  5
25BD
  8
TITLE
 10
181.6235220747574
 20
38.850936643278949
 30
0.0
 11
182.19998210041101
 21
39.427396668932147
 31
0.0
  0
LINE
  5
25BE
  8
TITLE
 10
181.67311570255791
 20
38.813245398431953
 30
0.0
 11
182.2504929079814
 21
39.390622603855832
 31
0.0
  0
LINE
  5
25BF
  8
TITLE
 10
181.72322777587399
 20
38.776072599101099
 30
0.0
 11
182.3017034893978
 21
39.354548312624281
 31
0.0
  0
LINE
  5
25C0
  8
TITLE
 10
181.77386098891881
 20
38.739420939498132
 30
0.0
 11
182.35361955848381
 21
39.319179509063481
 31
0.0
  0
LINE
  5
25C1
  8
TITLE
 10
185.57991604706561
 20
39.141365964434733
 30
0.0
 11
186.2938383339885
 21
39.855288251358161
 31
0.0
  0
LINE
  5
25C2
  8
TITLE
 10
185.57991604706561
 20
39.054081091787218
 30
0.0
 11
186.38112320663581
 21
39.855288251358161
 31
0.0
  0
LINE
  5
25C3
  8
TITLE
 10
181.29070441303111
 20
39.12911309007881
 30
0.0
 11
181.86563779457521
 21
39.704046471619449
 31
0.0
  0
LINE
  5
25C4
  8
TITLE
 10
181.2451882639175
 20
39.170881813608489
 30
0.0
 11
181.82058569697651
 21
39.746279246667882
 31
0.0
  0
LINE
  5
25C5
  8
TITLE
 10
181.4302861585042
 20
39.006840217613771
 30
0.0
 11
182.00484228958109
 21
39.581396348687122
 31
0.0
  0
LINE
  5
25C6
  8
TITLE
 10
181.4778283758404
 20
38.967097562296097
 30
0.0
 11
182.0525997903718
 21
39.541868976827118
 31
0.0
  0
LINE
  5
25C7
  8
TITLE
 10
181.33672544146879
 20
39.087849245869513
 30
0.0
 11
181.9113635182766
 21
39.662487322676952
 31
0.0
  0
LINE
  5
25C8
  8
TITLE
 10
181.38325230324969
 20
39.047091235002661
 30
0.0
 11
181.95776435715399
 21
39.621603288911047
 31
0.0
  0
LINE
  5
25C9
  8
TITLE
 10
184.75629761327991
 20
38.317747530649171
 30
0.0
 11
185.41653272299251
 21
38.977982640358611
 31
0.0
  0
LINE
  5
25CA
  8
TITLE
 10
184.8435824859265
 20
38.317747530649171
 30
0.0
 11
185.5038175956324
 21
38.977982640358611
 31
0.0
  0
LINE
  5
25CB
  8
TITLE
 10
184.6690127406327
 20
38.317747530649171
 30
0.0
 11
185.32924785034581
 21
38.977982640358611
 31
0.0
  0
LINE
  5
25CC
  8
TITLE
 10
184.53583911532439
 20
38.446428523282172
 30
0.0
 11
185.0673932324043
 21
38.977982640358611
 31
0.0
  0
LINE
  5
25CD
  8
TITLE
 10
184.53583911532439
 20
38.359143650635133
 30
0.0
 11
185.154678105051
 21
38.977982640358611
 31
0.0
  0
LINE
  5
25CE
  8
TITLE
 10
184.58172786798559
 20
38.317747530649171
 30
0.0
 11
185.24196297769871
 21
38.977982640358611
 31
0.0
  0
LINE
  5
25CF
  8
TITLE
 10
184.53583911532439
 20
38.62099826857321
 30
0.0
 11
184.89282348711001
 21
38.977982640358611
 31
0.0
  0
LINE
  5
25D0
  8
TITLE
 10
184.53583911532439
 20
38.533713395926043
 30
0.0
 11
184.9801083597572
 21
38.977982640358611
 31
0.0
  0
LINE
  5
25D1
  8
TITLE
 10
184.53583911532439
 20
36.089736961823533
 30
0.0
 11
184.97922932032981
 21
36.533127166828763
 31
0.0
  0
LINE
  5
25D2
  8
TITLE
 10
184.53583911532439
 20
35.91516721653273
 30
0.0
 11
185.36061468119991
 21
36.73994278240491
 31
0.0
  0
LINE
  5
25D3
  8
TITLE
 10
184.53583911532439
 20
36.002452089179791
 30
0.0
 11
185.14253615227241
 21
36.60914912612418
 31
0.0
  0
LINE
  5
25D4
  8
TITLE
 10
184.53583911532439
 20
35.827882343885562
 30
0.0
 11
187.2366957539011
 21
38.528738982458549
 31
0.0
  0
LINE
  5
25D5
  8
TITLE
 10
184.70650526894039
 20
35.736693879563852
 30
0.0
 11
187.18987184564591
 21
38.220060456265742
 31
0.0
  0
LINE
  5
25D6
  8
TITLE
 10
184.8185934087432
 20
35.761497146719648
 30
0.0
 11
187.16506857848981
 21
38.107972316465982
 31
0.0
  0
LINE
  5
25D7
  8
TITLE
 10
184.53583911532439
 20
35.740597471242147
 30
0.0
 11
187.22506325416359
 21
38.429821610074441
 31
0.0
  0
LINE
  5
25D8
  8
TITLE
 10
184.59945646041251
 20
35.716929943683112
 30
0.0
 11
187.2096357815258
 21
38.32710926478979
 31
0.0
  0
LINE
  5
25D9
  8
TITLE
 10
184.53583911532439
 20
38.97013775915832
 30
0.0
 11
184.54368399652861
 21
38.977982640358611
 31
0.0
  0
LINE
  5
25DA
  8
TITLE
 10
184.53583911532439
 20
38.882852886510811
 30
0.0
 11
184.6309688691685
 21
38.977982640358611
 31
0.0
  0
LINE
  5
25DB
  8
TITLE
 10
184.53583911532439
 20
38.795568013863893
 30
0.0
 11
184.71825374181569
 21
38.977982640358611
 31
0.0
  0
LINE
  5
25DC
  8
TITLE
 10
183.15732368283551
 20
38.028046689904727
 30
0.0
 11
183.84005054913681
 21
38.710773556205687
 31
0.0
  0
LINE
  5
25DD
  8
TITLE
 10
183.22273474111611
 20
38.006172875538809
 30
0.0
 11
183.91406439253009
 21
38.697502526952469
 31
0.0
  0
LINE
  5
25DE
  8
TITLE
 10
183.28885476830871
 20
37.985008030084153
 30
0.0
 11
183.97987964601629
 21
38.67603290779175
 31
0.0
  0
LINE
  5
25DF
  8
TITLE
 10
183.35569811517101
 20
37.964566504295362
 30
0.0
 11
183.97987964601629
 21
38.588748035144249
 31
0.0
  0
LINE
  5
25E0
  8
TITLE
 10
183.63062360672569
 20
37.890352505265241
 30
0.0
 11
183.97987964601629
 21
38.239608544559466
 31
0.0
  0
LINE
  5
25E1
  8
TITLE
 10
183.70133171111999
 20
37.873775737012238
 30
0.0
 11
183.97987964601629
 21
38.152323671915731
 31
0.0
  0
LINE
  5
25E2
  8
TITLE
 10
183.42328000347609
 20
37.944863519952847
 30
0.0
 11
183.97987964601629
 21
38.501463162497089
 31
0.0
  0
LINE
  5
25E3
  8
TITLE
 10
183.49161659070839
 20
37.925915234538131
 30
0.0
 11
183.97987964601629
 21
38.414178289853801
 31
0.0
  0
LINE
  5
25E4
  8
TITLE
 10
183.5607250415064
 20
37.907738812692742
 30
0.0
 11
183.97987964601629
 21
38.32689341720674
 31
0.0
  0
LINE
  5
25E5
  8
TITLE
 10
183.77287005082181
 20
37.858029204074342
 30
0.0
 11
183.97987964601629
 21
38.065038799268557
 31
0.0
  0
LINE
  5
25E6
  8
TITLE
 10
183.84526070198081
 20
37.843134982585873
 30
0.0
 11
183.97987964601629
 21
37.977753926621411
 31
0.0
  0
LINE
  5
25E7
  8
TITLE
 10
183.9185272420923
 20
37.829116650050423
 30
0.0
 11
183.97987964601629
 21
37.890469053974599
 31
0.0
  0
LINE
  5
25E8
  8
TITLE
 10
184.53583911532439
 20
38.708283141220022
 30
0.0
 11
184.80553861446239
 21
38.977982640358611
 31
0.0
  0
LINE
  5
25E9
  8
TITLE
 10
182.14316343267839
 20
38.497729274735093
 30
0.0
 11
182.73739955812971
 21
39.091965400186488
 31
0.0
  0
LINE
  5
25EA
  8
TITLE
 10
182.19809282005639
 20
38.465373789466192
 30
0.0
 11
182.79524385877991
 21
39.062524828189233
 31
0.0
  0
LINE
  5
25EB
  8
TITLE
 10
182.25357921022481
 20
38.43357530699074
 30
0.0
 11
182.85387601333241
 21
39.033872110094649
 31
0.0
  0
LINE
  5
25EC
  8
TITLE
 10
182.0349554842291
 20
38.564091071579817
 30
0.0
 11
182.62402598976769
 21
39.15316157711846
 31
0.0
  0
LINE
  5
25ED
  8
TITLE
 10
182.08878592542959
 20
38.530636640134048
 30
0.0
 11
182.680330751285
 21
39.122181465988781
 31
0.0
  0
LINE
  5
25EE
  8
TITLE
 10
182.36624510939839
 20
38.371671460866992
 30
0.0
 11
182.9735582541206
 21
38.978984605592252
 31
0.0
  0
LINE
  5
25EF
  8
TITLE
 10
182.42343652560291
 20
38.34157800442734
 30
0.0
 11
183.03463820121141
 21
38.95277968004018
 31
0.0
  0
LINE
  5
25F0
  8
TITLE
 10
182.4812087898967
 20
38.312065396074331
 30
0.0
 11
183.09656588409501
 21
38.927422490268903
 31
0.0
  0
LINE
  5
25F1
  8
TITLE
 10
182.30962804709111
 20
38.402339271206863
 30
0.0
 11
182.91330935425549
 21
39.006020578374432
 31
0.0
  0
LINE
  5
25F2
  8
TITLE
 10
183.09260805502981
 20
38.05061593473954
 30
0.0
 11
183.7672288749504
 21
38.725236754659932
 31
0.0
  0
LINE
  5
25F3
  8
TITLE
 10
182.5985237740706
 20
38.254810634949891
 30
0.0
 11
183.22303779240551
 21
38.879324653292322
 31
0.0
  0
LINE
  5
25F4
  8
TITLE
 10
182.6580814751018
 20
38.227083463337188
 30
0.0
 11
183.287622307856
 21
38.856624296095909
 31
0.0
  0
LINE
  5
25F5
  8
TITLE
 10
182.5395687796057
 20
38.283140513136118
 30
0.0
 11
183.15935928626081
 21
38.90293101979114
 31
0.0
  0
LINE
  5
25F6
  8
TITLE
 10
183.68308752692701
 20
36.284403845184897
 30
0.0
 11
183.97987964601629
 21
36.58119596427764
 31
0.0
  0
LINE
  5
25F7
  8
TITLE
 10
183.1593782910513
 20
36.284403845184897
 30
0.0
 11
183.8632280283245
 21
36.988253582461773
 31
0.0
  0
LINE
  5
25F8
  8
TITLE
 10
183.24666316369891
 20
36.284403845184897
 30
0.0
 11
183.95051290097209
 21
36.988253582461773
 31
0.0
  0
LINE
  5
25F9
  8
TITLE
 10
183.3339480363461
 20
36.284403845184897
 30
0.0
 11
183.97987964601629
 21
36.93033545486287
 31
0.0
  0
LINE
  5
25FA
  8
TITLE
 10
183.4212329089855
 20
36.284403845184897
 30
0.0
 11
183.97987964601629
 21
36.84305058221571
 31
0.0
  0
LINE
  5
25FB
  8
TITLE
 10
183.50851778163269
 20
36.284403845184897
 30
0.0
 11
183.97987964601629
 21
36.755765709568671
 31
0.0
  0
LINE
  5
25FC
  8
TITLE
 10
183.59580265428031
 20
36.284403845184897
 30
0.0
 11
183.97987964601629
 21
36.66848083692129
 31
0.0
  0
LINE
  5
25FD
  8
TITLE
 10
183.7703723995746
 20
36.284403845184897
 30
0.0
 11
183.97987964601629
 21
36.493911091630707
 31
0.0
  0
LINE
  5
25FE
  8
TITLE
 10
183.8576572722213
 20
36.284403845184897
 30
0.0
 11
183.97987964601629
 21
36.406626218983433
 31
0.0
  0
LINE
  5
25FF
  8
TITLE
 10
184.53583911532439
 20
36.177021834470793
 30
0.0
 11
184.8401198459068
 21
36.481302565057042
 31
0.0
  0
LINE
  5
2600
  8
TITLE
 10
184.53583911532439
 20
36.351591579765
 30
0.0
 11
184.60175585154821
 21
36.417508315989153
 31
0.0
  0
LINE
  5
2601
  8
TITLE
 10
184.53583911532439
 20
36.264306707117861
 30
0.0
 11
184.7157710607689
 21
36.444238652562383
 31
0.0
  0
LINE
  5
2602
  8
TITLE
 10
183.94494214486889
 20
36.284403845184897
 30
0.0
 11
183.97987964601629
 21
36.319341346340131
 31
0.0
  0
LINE
  5
2603
  8
TITLE
 10
181.8501052013516
 20
36.284403845184897
 30
0.0
 11
182.55395493862491
 21
36.988253582461773
 31
0.0
  0
LINE
  5
2604
  8
TITLE
 10
181.9373900739983
 20
36.284403845184897
 30
0.0
 11
182.64123981127199
 21
36.988253582461773
 31
0.0
  0
LINE
  5
2605
  8
TITLE
 10
182.02467494664589
 20
36.284403845184897
 30
0.0
 11
182.72852468391869
 21
36.988253582461773
 31
0.0
  0
LINE
  5
2606
  8
TITLE
 10
182.11195981929271
 20
36.284403845184897
 30
0.0
 11
182.81580955656591
 21
36.988253582461773
 31
0.0
  0
LINE
  5
2607
  8
TITLE
 10
182.2865295645868
 20
36.284403845184897
 30
0.0
 11
182.9903793018602
 21
36.988253582461773
 31
0.0
  0
LINE
  5
2608
  8
TITLE
 10
182.3738144372341
 20
36.284403845184897
 30
0.0
 11
183.07766417450731
 21
36.988253582461773
 31
0.0
  0
LINE
  5
2609
  8
TITLE
 10
182.19924469193981
 20
36.284403845184897
 30
0.0
 11
182.90309442921301
 21
36.988253582461773
 31
0.0
  0
LINE
  5
260A
  8
TITLE
 10
181.5882505834094
 20
36.284403845184897
 30
0.0
 11
182.29210032069039
 21
36.988253582461773
 31
0.0
  0
LINE
  5
260B
  8
TITLE
 10
181.67553545605679
 20
36.284403845184897
 30
0.0
 11
182.37938519333781
 21
36.988253582461773
 31
0.0
  0
LINE
  5
260C
  8
TITLE
 10
181.76282032870401
 20
36.284403845184897
 30
0.0
 11
182.46667006598449
 21
36.988253582461773
 31
0.0
  0
LINE
  5
260D
  8
TITLE
 10
182.90983467440719
 20
37.431418190884422
 30
0.0
 11
183.09241455760511
 21
37.613998074085892
 31
0.0
  0
LINE
  5
260E
  8
TITLE
 10
182.82254980175941
 20
37.431418190884422
 30
0.0
 11
183.09241455760511
 21
37.701282946733158
 31
0.0
  0
LINE
  5
260F
  8
TITLE
 10
182.9971195470475
 20
37.431418190884422
 30
0.0
 11
183.09241455760511
 21
37.526713201438731
 31
0.0
  0
LINE
  5
2610
  8
TITLE
 10
183.08440441969421
 20
37.431418190884422
 30
0.0
 11
183.09241455760511
 21
37.439428328791678
 31
0.0
  0
LINE
  5
2611
  8
TITLE
 10
182.46109930988129
 20
36.284403845184897
 30
0.0
 11
183.16494904715441
 21
36.988253582461773
 31
0.0
  0
LINE
  5
2612
  8
TITLE
 10
182.8975236731097
 20
36.284403845184897
 30
0.0
 11
183.6013734103831
 21
36.988253582461773
 31
0.0
  0
LINE
  5
2613
  8
TITLE
 10
182.98480854575701
 20
36.284403845184897
 30
0.0
 11
183.68865828303069
 21
36.988253582461773
 31
0.0
  0
LINE
  5
2614
  8
TITLE
 10
183.07209341840411
 20
36.284403845184897
 30
0.0
 11
183.7759431556774
 21
36.988253582461773
 31
0.0
  0
LINE
  5
2615
  8
TITLE
 10
182.5483841825216
 20
36.284403845184897
 30
0.0
 11
183.25223391980171
 21
36.988253582461773
 31
0.0
  0
LINE
  5
2616
  8
TITLE
 10
182.63566905516879
 20
36.284403845184897
 30
0.0
 11
183.33951879244881
 21
36.988253582461773
 31
0.0
  0
LINE
  5
2617
  8
TITLE
 10
182.72295392781601
 20
36.284403845184897
 30
0.0
 11
183.42680366508921
 21
36.988253582461773
 31
0.0
  0
LINE
  5
2618
  8
TITLE
 10
182.81023880046311
 20
36.284403845184897
 30
0.0
 11
183.51408853773631
 21
36.988253582461773
 31
0.0
  0
LINE
  5
2619
  8
TITLE
 10
181.51327671205991
 20
37.431418190884422
 30
0.0
 11
182.2953319756962
 21
38.213473454524433
 31
0.0
  0
LINE
  5
261A
  8
TITLE
 10
181.60056158470701
 20
37.431418190884422
 30
0.0
 11
182.3826168483433
 21
38.213473454524433
 31
0.0
  0
LINE
  5
261B
  8
TITLE
 10
181.6878464573542
 20
37.431418190884422
 30
0.0
 11
182.46990172099049
 21
38.213473454524433
 31
0.0
  0
LINE
  5
261C
  8
TITLE
 10
181.77513133000139
 20
37.431418190884422
 30
0.0
 11
182.55718659363751
 21
38.213473454524433
 31
0.0
  0
LINE
  5
261D
  8
TITLE
 10
181.8624162026484
 20
37.431418190884422
 30
0.0
 11
182.64447146628481
 21
38.213473454524433
 31
0.0
  0
LINE
  5
261E
  8
TITLE
 10
182.47341031117139
 20
37.431418190884422
 30
0.0
 11
183.09241455760511
 21
38.050422437314168
 31
0.0
  0
LINE
  5
261F
  8
TITLE
 10
182.56069518381901
 20
37.431418190884422
 30
0.0
 11
183.09241455760511
 21
37.963137564670767
 31
0.0
  0
LINE
  5
2620
  8
TITLE
 10
182.64798005646571
 20
37.431418190884422
 30
0.0
 11
183.09241455760511
 21
37.875852692023948
 31
0.0
  0
LINE
  5
2621
  8
TITLE
 10
182.73526492911279
 20
37.431418190884422
 30
0.0
 11
183.09241455760511
 21
37.788567819380091
 31
0.0
  0
LINE
  5
2622
  8
TITLE
 10
181.94970107529571
 20
37.431418190884422
 30
0.0
 11
183.35313539321939
 21
38.834852508812219
 31
0.0
  0
LINE
  5
2623
  8
TITLE
 10
182.03698594794281
 20
37.431418190884422
 30
0.0
 11
183.41960141655591
 21
38.814033659504851
 31
0.0
  0
LINE
  5
2624
  8
TITLE
 10
182.12427082058269
 20
37.431418190884422
 30
0.0
 11
183.48704672587141
 21
38.794194096169917
 31
0.0
  0
LINE
  5
2625
  8
TITLE
 10
182.21155569322991
 20
37.431418190884422
 30
0.0
 11
183.55549984517981
 21
38.775362342830483
 31
0.0
  0
LINE
  5
2626
  8
TITLE
 10
182.2988405658771
 20
37.431418190884422
 30
0.0
 11
183.62499169826009
 21
38.757569323267262
 31
0.0
  0
LINE
  5
2627
  8
TITLE
 10
182.38612543852409
 20
37.431418190884422
 30
0.0
 11
183.6955558648142
 21
38.740848617178358
 31
0.0
  0
LINE
  5
2628
  8
TITLE
 10
183.1731908808174
 20
34.290664364088229
 30
0.0
 11
183.68051734324169
 21
34.797990826511978
 31
0.0
  0
LINE
  5
2629
  8
TITLE
 10
183.2604757534645
 20
34.290664364088229
 30
0.0
 11
183.71290877051561
 21
34.743097381139137
 31
0.0
  0
LINE
  5
262A
  8
TITLE
 10
183.34776062611169
 20
34.290664364088229
 30
0.0
 11
183.74530019779741
 21
34.688203935773231
 31
0.0
  0
LINE
  5
262B
  8
TITLE
 10
183.43504549875891
 20
34.290664364088229
 30
0.0
 11
183.77769162507141
 21
34.633310490400497
 31
0.0
  0
LINE
  5
262C
  8
TITLE
 10
183.52233037140601
 20
34.290664364088229
 30
0.0
 11
183.81008305235309
 21
34.578417045031081
 31
0.0
  0
LINE
  5
262D
  8
TITLE
 10
183.6096152440536
 20
34.290664364088229
 30
0.0
 11
183.8424744796269
 21
34.523523599661871
 31
0.0
  0
LINE
  5
262E
  8
TITLE
 10
183.69690011670079
 20
34.290664364088229
 30
0.0
 11
183.8748659069015
 21
34.468630154292683
 31
0.0
  0
LINE
  5
262F
  8
TITLE
 10
183.78418498934741
 20
34.290664364088229
 30
0.0
 11
183.9072573341827
 21
34.413736708923132
 31
0.0
  0
LINE
  5
2630
  8
TITLE
 10
183.87146986199511
 20
34.290664364088229
 30
0.0
 11
183.93964876145711
 21
34.35884326355405
 31
0.0
  0
LINE
  5
2631
  8
TITLE
 10
183.95875473464159
 20
34.290664364088229
 30
0.0
 11
183.97204018873151
 21
34.303949818184613
 31
0.0
  0
LINE
  5
2632
  8
TITLE
 10
181.51477830053591
 20
34.290664364088229
 30
0.0
 11
183.06508022498011
 21
35.840966288532059
 31
0.0
  0
LINE
  5
2633
  8
TITLE
 10
181.6020631731831
 20
34.290664364088229
 30
0.0
 11
183.0974716522542
 21
35.786072843159218
 31
0.0
  0
LINE
  5
2634
  8
TITLE
 10
181.6893480458302
 20
34.290664364088229
 30
0.0
 11
183.12986307953591
 21
35.731179397790129
 31
0.0
  0
LINE
  5
2635
  8
TITLE
 10
182.2478221248825
 20
35.721987169608383
 30
0.0
 11
182.4974168179273
 21
35.971581862649487
 31
0.0
  0
LINE
  5
2636
  8
TITLE
 10
182.2802135521637
 20
35.66709372423918
 30
0.0
 11
182.58470169057409
 21
35.971581862649487
 31
0.0
  0
LINE
  5
2637
  8
TITLE
 10
182.27556520902121
 20
35.575160508452782
 30
0.0
 11
182.67198656322111
 21
35.971581862649487
 31
0.0
  0
LINE
  5
2638
  8
TITLE
 10
182.22476657368861
 20
35.437077000469351
 30
0.0
 11
182.75927143586881
 21
35.971581862649487
 31
0.0
  0
LINE
  5
2639
  8
TITLE
 10
182.1182564157784
 20
35.941560951085322
 30
0.0
 11
182.14827732733829
 21
35.971581862649487
 31
0.0
  0
LINE
  5
263A
  8
TITLE
 10
182.15064784305281
 20
35.886667505716332
 30
0.0
 11
182.2355621999854
 21
35.971581862649487
 31
0.0
  0
LINE
  5
263B
  8
TITLE
 10
182.18303927033409
 20
35.831774060346909
 30
0.0
 11
182.32284707263301
 21
35.971581862649487
 31
0.0
  0
LINE
  5
263C
  8
TITLE
 10
182.2154306976081
 20
35.776880614977472
 30
0.0
 11
182.4101319452802
 21
35.971581862649487
 31
0.0
  0
LINE
  5
263D
  8
TITLE
 10
181.7868426202308
 20
34.30087406584164
 30
0.0
 11
183.1622545068098
 21
35.676285952420812
 31
0.0
  0
LINE
  5
263E
  8
TITLE
 10
181.8989347320844
 20
34.325681305047851
 30
0.0
 11
183.19464593408429
 21
35.621392507051283
 31
0.0
  0
LINE
  5
263F
  8
TITLE
 10
182.0237603146042
 20
34.363222014924297
 30
0.0
 11
183.227037361366
 21
35.56649906168218
 31
0.0
  0
LINE
  5
2640
  8
TITLE
 10
182.16881928277451
 20
34.420996110446708
 30
0.0
 11
183.25942878864001
 21
35.51160561631275
 31
0.0
  0
LINE
  5
2641
  8
TITLE
 10
182.35633628156239
 20
34.521228236591917
 30
0.0
 11
183.29182021591441
 21
35.45671217094322
 31
0.0
  0
LINE
  5
2642
  8
TITLE
 10
182.86325924315079
 20
34.679011707588309
 30
0.0
 11
183.42138592502559
 21
35.237138389466402
 31
0.0
  0
LINE
  5
2643
  8
TITLE
 10
182.8956506704252
 20
34.624118262218651
 30
0.0
 11
183.45377735230011
 21
35.182244944093327
 31
0.0
  0
LINE
  5
2644
  8
TITLE
 10
182.92804209769969
 20
34.56922481684979
 30
0.0
 11
183.4861687795815
 21
35.127351498727769
 31
0.0
  0
LINE
  5
2645
  8
TITLE
 10
182.960433524981
 20
34.514331371480239
 30
0.0
 11
183.51856020685591
 21
35.072458053354808
 31
0.0
  0
LINE
  5
2646
  8
TITLE
 10
182.9928249522554
 20
34.459437926110922
 30
0.0
 11
183.55095163413711
 21
35.01756460798925
 31
0.0
  0
LINE
  5
2647
  8
TITLE
 10
183.02521637953669
 20
34.404544480741833
 30
0.0
 11
183.5833430614116
 21
34.962671162616523
 31
0.0
  0
LINE
  5
2648
  8
TITLE
 10
182.7660849613211
 20
34.843692043696251
 30
0.0
 11
183.32421164319561
 21
35.401818725574572
 31
0.0
  0
LINE
  5
2649
  8
TITLE
 10
182.79847638859559
 20
34.788798598330231
 30
0.0
 11
183.3566030704701
 21
35.346925280204793
 31
0.0
  0
LINE
  5
264A
  8
TITLE
 10
182.8308678158696
 20
34.733905152957853
 30
0.0
 11
183.38899449775181
 21
35.292031834835491
 31
0.0
  0
LINE
  5
264B
  8
TITLE
 10
183.05760780681109
 20
34.34965103537229
 30
0.0
 11
183.6157344886856
 21
34.90777771725039
 31
0.0
  0
LINE
  5
264C
  8
TITLE
 10
183.0899992340855
 20
34.294757590003087
 30
0.0
 11
183.6481259159668
 21
34.852884271877429
 31
0.0
  0
LINE
  5
264D
  8
TITLE
 10
180.80268672959301
 20
36.284403845184897
 30
0.0
 11
181.50653646687309
 21
36.988253582461773
 31
0.0
  0
LINE
  5
264E
  8
TITLE
 10
181.2529236826017
 20
34.290664364088229
 30
0.0
 11
182.9338411811554
 21
35.971581862649487
 31
0.0
  0
LINE
  5
264F
  8
TITLE
 10
181.1656388099544
 20
34.290664364088229
 30
0.0
 11
182.8465563085087
 21
35.971581862649487
 31
0.0
  0
LINE
  5
2650
  8
TITLE
 10
180.8164993193659
 20
34.290664364088229
 30
0.0
 11
181.5328819517957
 21
35.007046996521808
 31
0.0
  0
LINE
  5
2651
  8
TITLE
 10
180.90378419201301
 20
34.290664364088229
 30
0.0
 11
181.62422892783101
 21
35.011109099906221
 31
0.0
  0
LINE
  5
2652
  8
TITLE
 10
180.99106906466011
 20
34.290664364088229
 30
0.0
 11
181.7314813860807
 21
35.031076685508431
 31
0.0
  0
LINE
  5
2653
  8
TITLE
 10
181.07835393730741
 20
34.290664364088229
 30
0.0
 11
181.86956489406791
 21
35.081875320848212
 31
0.0
  0
LINE
  5
2654
  8
TITLE
 10
180.88997160224011
 20
36.284403845184897
 30
0.0
 11
181.5938213395134
 21
36.988253582461773
 31
0.0
  0
LINE
  5
2655
  8
TITLE
 10
180.97725647488679
 20
36.284403845184897
 30
0.0
 11
181.6811062121601
 21
36.988253582461773
 31
0.0
  0
LINE
  5
2656
  8
TITLE
 10
181.06454134753341
 20
36.284403845184897
 30
0.0
 11
181.76839108480769
 21
36.988253582461773
 31
0.0
  0
LINE
  5
2657
  8
TITLE
 10
181.15182622018119
 20
36.284403845184897
 30
0.0
 11
181.85567595745439
 21
36.988253582461773
 31
0.0
  0
LINE
  5
2658
  8
TITLE
 10
181.23911109282881
 20
36.284403845184897
 30
0.0
 11
181.94296083010161
 21
36.988253582461773
 31
0.0
  0
LINE
  5
2659
  8
TITLE
 10
180.8149977308899
 20
37.431418190884422
 30
0.0
 11
181.59705299452611
 21
38.213473454524433
 31
0.0
  0
LINE
  5
265A
  8
TITLE
 10
180.902282603537
 20
37.431418190884422
 30
0.0
 11
181.6843378671733
 21
38.213473454524433
 31
0.0
  0
LINE
  5
265B
  8
TITLE
 10
180.98956747618411
 20
37.431418190884422
 30
0.0
 11
181.7716227398198
 21
38.213473454524433
 31
0.0
  0
LINE
  5
265C
  8
TITLE
 10
181.0768523488313
 20
37.431418190884422
 30
0.0
 11
181.8589076124675
 21
38.213473454524433
 31
0.0
  0
LINE
  5
265D
  8
TITLE
 10
181.16413722147121
 20
37.431418190884422
 30
0.0
 11
181.9461924851143
 21
38.213473454524433
 31
0.0
  0
LINE
  5
265E
  8
TITLE
 10
181.2514220941184
 20
37.431418190884422
 30
0.0
 11
182.03347735776191
 21
38.213473454524433
 31
0.0
  0
LINE
  5
265F
  8
TITLE
 10
181.34020855524881
 20
34.290664364088229
 30
0.0
 11
183.00029737042399
 21
35.950753179270919
 31
0.0
  0
LINE
  5
2660
  8
TITLE
 10
181.42749342788869
 20
34.290664364088229
 30
0.0
 11
183.032688797698
 21
35.895859733897737
 31
0.0
  0
LINE
  5
2661
  8
TITLE
 10
181.32639596547551
 20
36.284403845184897
 30
0.0
 11
182.03024570274869
 21
36.988253582461773
 31
0.0
  0
LINE
  5
2662
  8
TITLE
 10
181.4136808381227
 20
36.284403845184897
 30
0.0
 11
182.1175305753959
 21
36.988253582461773
 31
0.0
  0
LINE
  5
2663
  8
TITLE
 10
181.5009657107698
 20
36.284403845184897
 30
0.0
 11
182.20481544804301
 21
36.988253582461773
 31
0.0
  0
LINE
  5
2664
  8
TITLE
 10
181.33870696676561
 20
37.431418190884422
 30
0.0
 11
182.1207622304095
 21
38.213473454524433
 31
0.0
  0
LINE
  5
2665
  8
TITLE
 10
181.42599183941309
 20
37.431418190884422
 30
0.0
 11
182.2080471030558
 21
38.213473454524433
 31
0.0
  0
LINE
  5
2666
  8
TITLE
 10
181.92891801792109
 20
38.632623350563222
 30
0.0
 11
182.5136670454562
 21
39.217372378097828
 31
0.0
  0
LINE
  5
2667
  8
TITLE
 10
181.98166759199771
 20
38.598088051996228
 30
0.0
 11
182.56847468222571
 21
39.184895142216881
 31
0.0
  0
LINE
  5
2668
  8
TITLE
 10
181.82501827393301
 20
38.703293351865803
 30
0.0
 11
182.40624743311719
 21
39.284522511049893
 31
0.0
  0
LINE
  5
2669
  8
TITLE
 10
181.8767028075886
 20
38.667693012874111
 30
0.0
 11
182.45959406049221
 21
39.250584265777661
 31
0.0
  0
LINE
  5
266A
  8
TITLE
 10
187.42261117260381
 20
37.929090547344352
 30
0.0
 11
188.07044939141861
 21
38.576928766166247
 31
0.0
  0
LINE
  5
266B
  8
TITLE
 10
187.42261117260381
 20
37.841805674700829
 30
0.0
 11
188.15773426406511
 21
38.576928766166247
 31
0.0
  0
LINE
  5
266C
  8
TITLE
 10
187.42261117260381
 20
37.754520802053442
 30
0.0
 11
188.2450191367129
 21
38.576928766166247
 31
0.0
  0
LINE
  5
266D
  8
TITLE
 10
187.42261117260381
 20
38.016375419991292
 30
0.0
 11
187.9831645187783
 21
38.576928766166247
 31
0.0
  0
LINE
  5
266E
  8
TITLE
 10
187.42261117260381
 20
38.190945165285711
 30
0.0
 11
187.8085947734838
 21
38.576928766166247
 31
0.0
  0
LINE
  5
266F
  8
TITLE
 10
187.42261117260381
 20
38.103660292638438
 30
0.0
 11
187.89587964613111
 21
38.576928766166247
 31
0.0
  0
LINE
  5
2670
  8
TITLE
 10
187.42261117260381
 20
38.278230037933092
 30
0.0
 11
187.72130990083679
 21
38.576928766166247
 31
0.0
  0
LINE
  5
2671
  8
TITLE
 10
187.42261117260381
 20
38.452799783226851
 30
0.0
 11
187.54674015554241
 21
38.576928766166247
 31
0.0
  0
LINE
  5
2672
  8
TITLE
 10
187.42261117260381
 20
38.365514910579797
 30
0.0
 11
187.63402502819011
 21
38.576928766166247
 31
0.0
  0
LINE
  5
2673
  8
TITLE
 10
187.42261117260381
 20
38.540084655874118
 30
0.0
 11
187.4594552828957
 21
38.576928766166247
 31
0.0
  0
LINE
  5
2674
  8
TITLE
 10
186.4756761736507
 20
36.283876567221228
 30
0.0
 11
187.03921515043751
 21
36.847415544011831
 31
0.0
  0
LINE
  5
2675
  8
TITLE
 10
186.5249005964879
 20
36.245816117410868
 30
0.0
 11
187.0817059910664
 21
36.802621511989848
 31
0.0
  0
LINE
  5
2676
  8
TITLE
 10
186.5741250193241
 20
36.207755667603813
 30
0.0
 11
187.1241968316948
 21
36.757827479971191
 31
0.0
  0
LINE
  5
2677
  8
TITLE
 10
186.6233494421613
 20
36.169695217797212
 30
0.0
 11
187.16668767231701
 21
36.713033447952732
 31
0.0
  0
LINE
  5
2678
  8
TITLE
 10
186.72179828784149
 20
36.093574318179783
 30
0.0
 11
187.2504387175245
 21
36.62221474786611
 31
0.0
  0
LINE
  5
2679
  8
TITLE
 10
186.7710227106781
 20
36.055513868372827
 30
0.0
 11
187.2504387175245
 21
36.53492987521885
 31
0.0
  0
LINE
  5
267A
  8
TITLE
 10
186.67257386500481
 20
36.131634767986377
 30
0.0
 11
187.2091785129455
 21
36.668239415930771
 31
0.0
  0
LINE
  5
267B
  8
TITLE
 10
187.27557989520531
 20
34.290664364088229
 30
0.0
 11
188.1278195929722
 21
35.14290406185853
 31
0.0
  0
LINE
  5
267C
  8
TITLE
 10
187.36286476785239
 20
34.290664364088229
 30
0.0
 11
188.21510446561879
 21
35.14290406185853
 31
0.0
  0
LINE
  5
267D
  8
TITLE
 10
187.21404251622241
 20
35.712969820099723
 30
0.0
 11
187.2504387175245
 21
35.74936602140167
 31
0.0
  0
LINE
  5
267E
  8
TITLE
 10
187.09633710225029
 20
35.071555170244892
 30
0.0
 11
187.16768599386069
 21
35.14290406185853
 31
0.0
  0
LINE
  5
267F
  8
TITLE
 10
187.18829502255809
 20
34.290664364088229
 30
0.0
 11
188.04053472032501
 21
35.14290406185853
 31
0.0
  0
LINE
  5
2680
  8
TITLE
 10
187.09633710225029
 20
34.460561061715111
 30
0.0
 11
187.7786801023903
 21
35.14290406185853
 31
0.0
  0
LINE
  5
2681
  8
TITLE
 10
187.09633710225029
 20
34.373276189071248
 30
0.0
 11
187.86596497503751
 21
35.14290406185853
 31
0.0
  0
LINE
  5
2682
  8
TITLE
 10
187.10101014991079
 20
34.290664364088229
 30
0.0
 11
187.9532498476774
 21
35.14290406185853
 31
0.0
  0
LINE
  5
2683
  8
TITLE
 10
187.0663692477124
 20
35.827151169524321
 30
0.0
 11
187.2504387175245
 21
36.01122063933974
 31
0.0
  0
LINE
  5
2684
  8
TITLE
 10
187.115593670549
 20
35.789090719713727
 30
0.0
 11
187.2504387175245
 21
35.923935766696218
 31
0.0
  0
LINE
  5
2685
  8
TITLE
 10
187.16481809338569
 20
35.751030269906892
 30
0.0
 11
187.2504387175245
 21
35.836650894049171
 31
0.0
  0
LINE
  5
2686
  8
TITLE
 10
187.09633710225029
 20
34.809700552303298
 30
0.0
 11
187.42954061180171
 21
35.14290406185853
 31
0.0
  0
LINE
  5
2687
  8
TITLE
 10
187.09633710225029
 20
34.722415679656137
 30
0.0
 11
187.5168254844489
 21
35.14290406185853
 31
0.0
  0
LINE
  5
2688
  8
TITLE
 10
187.09633710225029
 20
34.635130807009197
 30
0.0
 11
187.604110357096
 21
35.14290406185853
 31
0.0
  0
LINE
  5
2689
  8
TITLE
 10
187.09633710225029
 20
34.547845934361931
 30
0.0
 11
187.69139522974351
 21
35.14290406185853
 31
0.0
  0
LINE
  5
268A
  8
TITLE
 10
187.09633710225029
 20
34.896985424950692
 30
0.0
 11
187.34225573915501
 21
35.14290406185853
 31
0.0
  0
LINE
  5
268B
  8
TITLE
 10
187.09633710225029
 20
34.984270297597512
 30
0.0
 11
187.25497086650739
 21
35.14290406185853
 31
0.0
  0
LINE
  5
268C
  8
TITLE
 10
186.8694715563588
 20
35.979392968755171
 30
0.0
 11
187.2504387175245
 21
36.360360129924523
 31
0.0
  0
LINE
  5
268D
  8
TITLE
 10
186.91869597919549
 20
35.94133251894857
 30
0.0
 11
187.2504387175245
 21
36.273075257277242
 31
0.0
  0
LINE
  5
268E
  8
TITLE
 10
186.96792040203221
 20
35.90327206913777
 30
0.0
 11
187.2504387175245
 21
36.18579038463384
 31
0.0
  0
LINE
  5
268F
  8
TITLE
 10
187.01714482486881
 20
35.865211619331149
 30
0.0
 11
187.2504387175245
 21
36.098505511986787
 31
0.0
  0
LINE
  5
2690
  8
TITLE
 10
186.82024713351481
 20
36.017453418562241
 30
0.0
 11
187.2504387175245
 21
36.44764500257191
 31
0.0
  0
LINE
  5
2691
  8
TITLE
 10
185.62914633974421
 20
38.317747530649171
 30
0.0
 11
186.41517726554409
 21
39.10377845644507
 31
0.0
  0
LINE
  5
2692
  8
TITLE
 10
185.7164312123914
 20
38.317747530649171
 30
0.0
 11
186.41517726554409
 21
39.016493583797811
 31
0.0
  0
LINE
  5
2693
  8
TITLE
 10
185.57991604706561
 20
34.777122332109343
 30
0.0
 11
186.41517726554409
 21
35.612383550584141
 31
0.0
  0
LINE
  5
2694
  8
TITLE
 10
185.57991604706561
 20
34.689837459462183
 30
0.0
 11
186.41517726554409
 21
35.525098677940612
 31
0.0
  0
LINE
  5
2695
  8
TITLE
 10
185.57991604706561
 20
34.602552586818888
 30
0.0
 11
186.41517726554409
 21
35.437813805293437
 31
0.0
  0
LINE
  5
2696
  8
TITLE
 10
185.57991604706561
 20
34.515267714171387
 30
0.0
 11
186.41517726554409
 21
35.350528932646171
 31
0.0
  0
LINE
  5
2697
  8
TITLE
 10
185.57991604706561
 20
34.427982841524589
 30
0.0
 11
186.41517726554409
 21
35.263244060002648
 31
0.0
  0
LINE
  5
2698
  8
TITLE
 10
185.57991604706561
 20
34.340697968877073
 30
0.0
 11
186.41517726554409
 21
35.175959187355829
 31
0.0
  0
LINE
  5
2699
  8
TITLE
 10
185.61716731492371
 20
34.290664364088229
 30
0.0
 11
186.41517726554409
 21
35.088674314708328
 31
0.0
  0
LINE
  5
269A
  8
TITLE
 10
185.70445218757089
 20
34.290664364088229
 30
0.0
 11
186.41517726554409
 21
35.001389442061047
 31
0.0
  0
LINE
  5
269B
  8
TITLE
 10
185.57991604706561
 20
34.864407204756731
 30
0.0
 11
186.41517726554409
 21
35.699668423231167
 31
0.0
  0
LINE
  5
269C
  8
TITLE
 10
185.7917370602176
 20
34.290664364088229
 30
0.0
 11
186.41517726554409
 21
34.914104569414228
 31
0.0
  0
LINE
  5
269D
  8
TITLE
 10
185.87902193286479
 20
34.290664364088229
 30
0.0
 11
186.41517726554409
 21
34.826819696767082
 31
0.0
  0
LINE
  5
269E
  8
TITLE
 10
185.9663068055051
 20
34.290664364088229
 30
0.0
 11
186.41517726554409
 21
34.739534824119701
 31
0.0
  0
LINE
  5
269F
  8
TITLE
 10
186.0535916781518
 20
34.290664364088229
 30
0.0
 11
186.41517726554409
 21
34.652249951472527
 31
0.0
  0
LINE
  5
26A0
  8
TITLE
 10
186.14087655079931
 20
34.290664364088229
 30
0.0
 11
186.41517726554409
 21
34.564965078828891
 31
0.0
  0
LINE
  5
26A1
  8
TITLE
 10
186.22816142344661
 20
34.290664364088229
 30
0.0
 11
186.41517726554409
 21
34.477680206182193
 31
0.0
  0
LINE
  5
26A2
  8
TITLE
 10
186.3154462960938
 20
34.290664364088229
 30
0.0
 11
186.41517726554409
 21
34.390395333534912
 31
0.0
  0
LINE
  5
26A3
  8
TITLE
 10
186.4027311687405
 20
34.290664364088229
 30
0.0
 11
186.41517726554409
 21
34.303110460891503
 31
0.0
  0
LINE
  5
26A4
  8
TITLE
 10
185.57991604706561
 20
35.12626182269436
 30
0.0
 11
186.41517726554409
 21
35.961523041172768
 31
0.0
  0
LINE
  5
26A5
  8
TITLE
 10
185.57991604706561
 20
35.038976950047299
 30
0.0
 11
186.41517726554409
 21
35.87423816852597
 31
0.0
  0
LINE
  5
26A6
  8
TITLE
 10
185.57991604706561
 20
34.95169207740004
 30
0.0
 11
186.41517726554409
 21
35.786953295878341
 31
0.0
  0
LINE
  5
26A7
  8
TITLE
 10
185.57991604706561
 20
35.475401313283221
 30
0.0
 11
186.41517726554409
 21
36.310662531758112
 31
0.0
  0
LINE
  5
26A8
  8
TITLE
 10
185.57991604706561
 20
35.388116440635827
 30
0.0
 11
186.41517726554409
 21
36.223377659110952
 31
0.0
  0
LINE
  5
26A9
  8
TITLE
 10
185.57991604706561
 20
35.300831567988901
 30
0.0
 11
186.41517726554409
 21
36.136092786467088
 31
0.0
  0
LINE
  5
26AA
  8
TITLE
 10
185.57991604706561
 20
35.213546695341734
 30
0.0
 11
186.41517726554409
 21
36.048807913819829
 31
0.0
  0
LINE
  5
26AB
  8
TITLE
 10
186.22070860472331
 20
38.036461069163828
 30
0.0
 11
187.16223017592159
 21
38.977982640358611
 31
0.0
  0
LINE
  5
26AC
  8
TITLE
 10
185.8037160850385
 20
38.317747530649171
 30
0.0
 11
186.46395119474431
 21
38.977982640358611
 31
0.0
  0
LINE
  5
26AD
  8
TITLE
 10
185.89100095768569
 20
38.317747530649171
 30
0.0
 11
186.5512360673915
 21
38.977982640358611
 31
0.0
  0
LINE
  5
26AE
  8
TITLE
 10
185.9782858303256
 20
38.317747530649171
 30
0.0
 11
186.63852094003869
 21
38.977982640358611
 31
0.0
  0
LINE
  5
26AF
  8
TITLE
 10
186.06557070297271
 20
38.317747530649171
 30
0.0
 11
186.72580581268571
 21
38.977982640358611
 31
0.0
  0
LINE
  5
26B0
  8
TITLE
 10
186.1528555756199
 20
38.317747530649171
 30
0.0
 11
186.81309068533301
 21
38.977982640358611
 31
0.0
  0
LINE
  5
26B1
  8
TITLE
 10
186.24014044826711
 20
38.317747530649171
 30
0.0
 11
186.9003755579802
 21
38.977982640358611
 31
0.0
  0
LINE
  5
26B2
  8
TITLE
 10
186.25226829423079
 20
38.242590503958468
 30
0.0
 11
186.98766043062679
 21
38.977982640358611
 31
0.0
  0
LINE
  5
26B3
  8
TITLE
 10
186.2396107474228
 20
38.142648084510483
 30
0.0
 11
187.07494530327401
 21
38.977982640358611
 31
0.0
  0
LINE
  5
26B4
  8
TITLE
 10
186.42645175081401
 20
36.321937017028063
 30
0.0
 11
186.9967243098163
 21
36.892209576033572
 31
0.0
  0
LINE
  5
26B5
  8
TITLE
 10
186.19397826814969
 20
37.922445859943309
 30
0.0
 11
187.24951504856881
 21
38.977982640358611
 31
0.0
  0
LINE
  5
26B6
  8
TITLE
 10
186.02906779458809
 20
37.495680768443442
 30
0.0
 11
187.250204092556
 21
38.71681706641516
 31
0.0
  0
LINE
  5
26B7
  8
TITLE
 10
185.89827413830741
 20
37.2776022395159
 30
0.0
 11
187.24496104807071
 21
38.624289149279889
 31
0.0
  0
LINE
  5
26B8
  8
TITLE
 10
186.1050897538835
 20
37.658987600385899
 30
0.0
 11
187.25270788008399
 21
38.806605726586902
 31
0.0
  0
LINE
  5
26B9
  8
TITLE
 10
186.1569143556589
 20
37.798097074801831
 30
0.0
 11
187.2527079652927
 21
38.893890684435171
 31
0.0
  0
LINE
  5
26BA
  8
TITLE
 10
185.3434612796855
 20
35.937225527073231
 30
0.0
 11
186.9893401981366
 21
37.5831044455241
 31
0.0
  0
LINE
  5
26BB
  8
TITLE
 10
184.93666218679999
 20
35.792281052128828
 30
0.0
 11
187.1342846730808
 21
37.98990353840999
 31
0.0
  0
LINE
  5
26BC
  8
TITLE
 10
185.06202366736801
 20
35.830357660049351
 30
0.0
 11
187.09620806515289
 21
37.864542057835131
 31
0.0
  0
LINE
  5
26BD
  8
TITLE
 10
185.19660625807859
 20
35.877655378113452
 30
0.0
 11
187.0489103470959
 21
37.729959467130698
 31
0.0
  0
LINE
  5
26BE
  8
TITLE
 10
185.57991604706561
 20
35.911825676511171
 30
0.0
 11
186.78427010667971
 21
37.116179736133063
 31
0.0
  0
LINE
  5
26BF
  8
TITLE
 10
185.57991604706561
 20
35.824540803864117
 30
0.0
 11
186.8267609473084
 21
37.071385704110867
 31
0.0
  0
LINE
  5
26C0
  8
TITLE
 10
185.57991604706561
 20
35.73725593122073
 30
0.0
 11
186.8692517879372
 21
37.026591672089133
 31
0.0
  0
LINE
  5
26C1
  8
TITLE
 10
185.57991604706561
 20
35.649971058573897
 30
0.0
 11
186.91174262855881
 21
36.981797640070468
 31
0.0
  0
LINE
  5
26C2
  8
TITLE
 10
185.57991604706561
 20
35.562686185926509
 30
0.0
 11
186.9542334691873
 21
36.937003608051903
 31
0.0
  0
LINE
  5
26C3
  8
TITLE
 10
185.50798066159169
 20
36.014460036335443
 30
0.0
 11
186.9121056888707
 21
37.41858506361087
 31
0.0
  0
LINE
  5
26C4
  8
TITLE
 10
185.57991604706561
 20
35.999110549158672
 30
0.0
 11
186.80572262849131
 21
37.224917130584693
 31
0.0
  0
LINE
  5
26C5
  8
TITLE
 10
185.45457659444989
 20
38.317747530649171
 30
0.0
 11
186.41517726554409
 21
39.278348201735866
 31
0.0
  0
LINE
  5
26C6
  8
TITLE
 10
185.54186146709711
 20
38.317747530649171
 30
0.0
 11
186.41517726554409
 21
39.19106332908882
 31
0.0
  0
LINE
  5
26C7
  8
TITLE
 10
188.25084515361871
 20
39.630173254823951
 30
0.0
 11
188.4759601501537
 21
39.855288251358161
 31
0.0
  0
LINE
  5
26C8
  8
TITLE
 10
188.25084515361871
 20
39.542888382176571
 30
0.0
 11
188.5632450228008
 21
39.855288251358161
 31
0.0
  0
LINE
  5
26C9
  8
TITLE
 10
188.25084515361871
 20
39.455603509529404
 30
0.0
 11
188.65052989544071
 21
39.855288251358161
 31
0.0
  0
LINE
  5
26CA
  8
TITLE
 10
188.25084515361871
 20
39.368318636885867
 30
0.0
 11
188.73781476808739
 21
39.855288251358161
 31
0.0
  0
LINE
  5
26CB
  8
TITLE
 10
188.25084515361871
 20
39.804743000118052
 30
0.0
 11
188.30139040485881
 21
39.855288251358161
 31
0.0
  0
LINE
  5
26CC
  8
TITLE
 10
188.25084515361871
 20
39.717458127470778
 30
0.0
 11
188.38867527750651
 21
39.855288251358161
 31
0.0
  0
LINE
  5
26CD
  8
TITLE
 10
185.57991604706561
 20
39.665075200310397
 30
0.0
 11
185.7701290981131
 21
39.855288251358161
 31
0.0
  0
LINE
  5
26CE
  8
TITLE
 10
185.57991604706561
 20
39.577790327663251
 30
0.0
 11
185.85741397076069
 21
39.855288251358161
 31
0.0
  0
LINE
  5
26CF
  8
TITLE
 10
185.57991604706561
 20
39.490505455016553
 30
0.0
 11
185.94469884340009
 21
39.855288251358161
 31
0.0
  0
LINE
  5
26D0
  8
TITLE
 10
185.57991604706561
 20
39.403220582372803
 30
0.0
 11
186.03198371604759
 21
39.855288251358161
 31
0.0
  0
LINE
  5
26D1
  8
TITLE
 10
185.57991604706561
 20
39.315935709725522
 30
0.0
 11
186.11926858869481
 21
39.855288251358161
 31
0.0
  0
LINE
  5
26D2
  8
TITLE
 10
185.57991604706561
 20
39.839644945604853
 30
0.0
 11
185.59555935281881
 21
39.855288251358161
 31
0.0
  0
LINE
  5
26D3
  8
TITLE
 10
185.57991604706561
 20
39.752360072957693
 30
0.0
 11
185.6828442254658
 21
39.855288251358161
 31
0.0
  0
LINE
  5
26D4
  8
TITLE
 10
189.13847689187469
 20
37.724689068395378
 30
0.0
 11
189.9826071139168
 21
38.568819290437887
 31
0.0
  0
LINE
  5
26D5
  8
TITLE
 10
189.400331509816
 20
37.724689068395378
 30
0.0
 11
189.9826071139168
 21
38.306964672500051
 31
0.0
  0
LINE
  5
26D6
  8
TITLE
 10
189.4876163824633
 20
37.724689068395378
 30
0.0
 11
189.9826071139168
 21
38.21967979985277
 31
0.0
  0
LINE
  5
26D7
  8
TITLE
 10
189.22576176452171
 20
37.724689068395378
 30
0.0
 11
189.9826071139168
 21
38.48153441779106
 31
0.0
  0
LINE
  5
26D8
  8
TITLE
 10
189.31304663716901
 20
37.724689068395378
 30
0.0
 11
189.9826071139168
 21
38.394249545147211
 31
0.0
  0
LINE
  5
26D9
  8
TITLE
 10
189.57490125511001
 20
37.724689068395378
 30
0.0
 11
189.9826071139168
 21
38.132394927205731
 31
0.0
  0
LINE
  5
26DA
  8
TITLE
 10
189.6621861277504
 20
37.724689068395378
 30
0.0
 11
189.9826071139168
 21
38.045110054558677
 31
0.0
  0
LINE
  5
26DB
  8
TITLE
 10
189.74947100039751
 20
37.724689068395378
 30
0.0
 11
189.9826071139168
 21
37.957825181911737
 31
0.0
  0
LINE
  5
26DC
  8
TITLE
 10
189.83675587304421
 20
37.724689068395378
 30
0.0
 11
189.9826071139168
 21
37.870540309264243
 31
0.0
  0
LINE
  5
26DD
  8
TITLE
 10
189.9240407456918
 20
37.724689068395378
 30
0.0
 11
189.9826071139168
 21
37.783255436617083
 31
0.0
  0
LINE
  5
26DE
  8
TITLE
 10
189.02127734813391
 20
34.290664364088229
 30
0.0
 11
189.8735170459008
 21
35.14290406185853
 31
0.0
  0
LINE
  5
26DF
  8
TITLE
 10
189.1085622207811
 20
34.290664364088229
 30
0.0
 11
189.96080191854799
 21
35.14290406185853
 31
0.0
  0
LINE
  5
26E0
  8
TITLE
 10
189.1958470934282
 20
34.290664364088229
 30
0.0
 11
190.04808679119469
 21
35.14290406185853
 31
0.0
  0
LINE
  5
26E1
  8
TITLE
 10
189.2831319660749
 20
34.290664364088229
 30
0.0
 11
190.13537166384171
 21
35.14290406185853
 31
0.0
  0
LINE
  5
26E2
  8
TITLE
 10
189.37041683872241
 20
34.290664364088229
 30
0.0
 11
190.22265653648941
 21
35.14290406185853
 31
0.0
  0
LINE
  5
26E3
  8
TITLE
 10
189.45770171136971
 20
34.290664364088229
 30
0.0
 11
190.2335869524936
 21
35.06654960521179
 31
0.0
  0
LINE
  5
26E4
  8
TITLE
 10
189.54498658401641
 20
34.290664364088229
 30
0.0
 11
190.2335869524936
 21
34.979264732564957
 31
0.0
  0
LINE
  5
26E5
  8
TITLE
 10
189.98141094724559
 20
34.290664364088229
 30
0.0
 11
190.2335869524936
 21
34.542840369336091
 31
0.0
  0
LINE
  5
26E6
  8
TITLE
 10
190.06869581989261
 20
34.290664364088229
 30
0.0
 11
190.2335869524936
 21
34.45555549668925
 31
0.0
  0
LINE
  5
26E7
  8
TITLE
 10
189.63227145665681
 20
34.290664364088229
 30
0.0
 11
190.2335869524936
 21
34.891979859917569
 31
0.0
  0
LINE
  5
26E8
  8
TITLE
 10
189.71955632930391
 20
34.290664364088229
 30
0.0
 11
190.2335869524936
 21
34.804694987274161
 31
0.0
  0
LINE
  5
26E9
  8
TITLE
 10
189.8068412019511
 20
34.290664364088229
 30
0.0
 11
190.2335869524936
 21
34.717410114626887
 31
0.0
  0
LINE
  5
26EA
  8
TITLE
 10
189.8941260745982
 20
34.290664364088229
 30
0.0
 11
190.2335869524936
 21
34.630125241983372
 31
0.0
  0
LINE
  5
26EB
  8
TITLE
 10
190.15598069253971
 20
34.290664364088229
 30
0.0
 11
190.2335869524936
 21
34.368270624041891
 31
0.0
  0
LINE
  5
3038
  8
TITLE
 10
127.0465728752538
 20
43.671572875253808
 30
0.0
 11
132.70342712474621
 21
49.32842712474617
 31
0.0
  0
TEXT
  5
3039
  8
TITLE
 10
125.97777087004989
 20
47.015804915053423
 30
0.0
 40
2.5
  1
１
 72
     1
 11
127.06110420338329
 21
48.265804915053423
 31
0.0
 73
     2
  0
TEXT
  5
303A
  8
TITLE
 10
131.9063422986207
 20
43.520567724352752
 30
0.0
 40
2.5
  1
１
 72
     1
 11
132.98967563195399
 21
44.770567724352752
 31
0.0
 73
     2
  0
LINE
  5
340F
  8
GENKYO
 10
146.4493332642941
 20
187.7492072728717
 30
0.0
 11
97.449333264294154
 21
187.7492072728717
 31
0.0
  0
LINE
  5
3410
  8
GENKYO
 10
159.04783563679399
 20
188.2492072728717
 30
0.0
 11
96.949333264294154
 21
188.2492072728717
 31
0.0
  0
LINE
  5
3411
  8
MODEL
 10
121.71888588599469
 20
200.2492072728717
 30
0.0
 11
84.94933326429414
 21
200.2492072728717
 31
0.0
  0
LINE
  5
3412
  8
MODEL
 10
121.3046723236216
 20
201.2492072728717
 30
0.0
 11
83.949333264275168
 21
201.2492072728717
 31
0.0
  0
LINE
  5
3413
  8
GENKYO
 10
84.94933326429414
 20
200.2492072728717
 30
0.0
 11
159.04783563669409
 21
200.2492072728717
 31
0.0
  0
LINE
  5
3414
  8
GENKYO
 10
146.9493332642941
 20
188.2492072728717
 30
0.0
 11
146.9493332642941
 21
163.24920727287159
 31
0.0
  0
LINE
  5
3415
  8
GENKYO
 10
146.4493332642941
 20
163.24920727287159
 30
0.0
 11
146.4493332642941
 21
187.7492072728717
 31
0.0
  0
LINE
  5
3416
  8
GENKYO
 10
146.9493332642941
 20
163.24920727287159
 30
0.0
 11
146.4493332642941
 21
163.24920727287159
 31
0.0
  0
LINE
  5
3418
  8
MODEL
 10
121.7188858859945
 20
200.24920727356991
 30
0.0
 11
129.1435070883123
 21
207.6738284761696
 31
0.0
  0
LINE
  5
3419
  8
MODEL
 10
128.43640030711239
 20
208.3809352573428
 30
0.0
 11
121.3046723235509
 21
201.24920727351039
 31
0.0
  0
LINE
  5
341A
  8
MODEL
 10
129.1435070883123
 20
207.6738284761696
 30
0.0
 11
128.43640030711239
 21
208.3809352573428
 31
0.0
  0
LINE
  5
341B
  8
HIDDEN
 10
114.4466646018351
 20
201.2423150177176
 30
0.0
 11
114.44666460190589
 21
200.2423150177693
 31
0.0
  0
LINE
  5
341C
  8
CENTER
 10
110.4493332642751
 20
206.2492072728717
 30
0.0
 11
110.4493332642751
 21
195.2492072728717
 31
0.0
  0
LINE
  5
341D
  8
MODEL
 10
84.94933326429414
 20
173.24920727289069
 30
0.0
 11
84.94933326429414
 21
163.4796546511713
 31
0.0
  0
LINE
  5
341E
  8
BIS
 10
81.049333264325313
 20
177.7492072728908
 30
0.0
 11
81.049333264325313
 21
171.7492072728908
 31
0.0
  0
LINE
  5
341F
  8
BIS
 10
83.449333264325304
 20
179.7492072728908
 30
0.0
 11
83.449333264325304
 21
169.7492072728908
 31
0.0
  0
LINE
  5
3420
  8
GENKYO
 10
97.449333264294154
 20
172.7492072728717
 30
0.0
 11
97.449333264294154
 21
133.50286366917169
 31
0.0
  0
LINE
  5
3421
  8
GENKYO
 10
96.949333264294154
 20
173.2492072728717
 30
0.0
 11
96.949333264294154
 21
133.50286366917169
 31
0.0
  0
LINE
  5
3423
  8
MODEL
 10
83.949333264345853
 20
163.89386821359611
 30
0.0
 11
83.949333264275168
 21
201.2492072728908
 31
0.0
  0
LINE
  5
3424
  8
MODEL
 10
77.524712061835388
 20
156.05503344871261
 30
0.0
 11
76.817605280648834
 21
156.76214022989919
 31
0.0
  0
LINE
  5
3425
  8
MODEL
 10
76.817605280648834
 20
156.76214022989919
 30
0.0
 11
83.949333264345853
 21
163.89386821359611
 31
0.0
  0
LINE
  5
3426
  8
GENKYO
 10
84.94933326429414
 20
171.7492072728717
 30
0.0
 11
84.94933326429414
 21
133.5028636690717
 31
0.0
  0
LINE
  5
3427
  8
MODEL
 10
84.94933326429414
 20
163.4796546511713
 30
0.0
 11
77.524712061835388
 21
156.05503344871261
 31
0.0
  0
ARC
  5
3428
  8
BIS
 10
82.049333264325313
 20
171.7492072728908
 30
0.0
 40
1.0
 50
180.0
 51
270.0
  0
LINE
  5
3429
  8
BIS
 10
82.049333264325313
 20
170.7492072728908
 30
0.0
 11
83.449333264325304
 21
170.7492072728908
 31
0.0
  0
LINE
  5
342A
  8
BIS
 10
83.949333264325276
 20
169.7492072728908
 30
0.0
 11
83.449333264325304
 21
169.7492072728908
 31
0.0
  0
LINE
  5
342B
  8
HIDDEN
 10
83.949333264326896
 20
170.7492072729508
 30
0.0
 11
84.949333264275168
 21
170.74920727288
 31
0.0
  0
LINE
  5
342C
  8
CENTER
 10
76.049333264325313
 20
174.7492072728908
 30
0.0
 11
110.0493332643253
 21
174.7492072728908
 31
0.0
  0
LINE
  5
342D
  8
GENKYO
 10
96.949333264294154
 20
200.2492072728717
 30
0.0
 11
96.949333264294154
 21
176.2492072728717
 31
0.0
  0
LINE
  5
342E
  8
GENKYO
 10
84.94933326429414
 20
200.2492072728717
 30
0.0
 11
84.94933326429414
 21
176.2492072728908
 31
0.0
  0
LINE
  5
342F
  8
BIS
 10
83.949333264325276
 20
173.2492072728908
 30
0.0
 11
101.0493332643253
 21
173.2492072728908
 31
0.0
  0
LINE
  5
3430
  8
BIS
 10
101.0493332643253
 20
176.2492072728908
 30
0.0
 11
83.949333264325276
 21
176.2492072728908
 31
0.0
  0
LINE
  5
3431
  8
BIS
 10
92.949333264325276
 20
176.7492072728908
 30
0.0
 11
93.699333264325276
 21
172.7492072728908
 31
0.0
  0
LINE
  5
3432
  8
BIS
 10
93.699333264325276
 20
172.7492072728908
 30
0.0
 11
93.511833264325276
 21
173.2492072728908
 31
0.0
  0
LINE
  5
3433
  8
BIS
 10
93.699333264325276
 20
172.7492072728908
 30
0.0
 11
92.855583264325276
 21
176.2492072728908
 31
0.0
  0
LINE
  5
3434
  8
GENKYO
 10
97.449333264294154
 20
187.7492072728717
 30
0.0
 11
97.449333264294154
 21
176.2492072728717
 31
0.0
  0
LINE
  5
3435
  8
BIS
 10
101.8510563690253
 20
175.9485611086908
 30
0.0
 11
101.9493332643253
 21
176.4457075069908
 31
0.0
  0
LINE
  5
3436
  8
BIS
 10
102.6993332643253
 20
173.3339570387908
 30
0.0
 11
101.8510563690253
 21
175.9485611086908
 31
0.0
  0
LINE
  5
3437
  8
BIS
 10
101.0493332643253
 20
173.2492072728908
 30
0.0
 11
105.0493332643253
 21
174.7492072728908
 31
0.0
  0
LINE
  5
3438
  8
BIS
 10
105.0493332643253
 20
174.7492072728908
 30
0.0
 11
101.0493332643253
 21
176.2492072728908
 31
0.0
  0
LINE
  5
3439
  8
BIS
 10
101.9493332643253
 20
176.4457075069908
 30
0.0
 11
102.6993332643253
 21
173.3339570387908
 31
0.0
  0
LINE
  5
343A
  8
BIS
 10
102.6993332643253
 20
173.3339570387908
 30
0.0
 11
102.87592060692531
 21
173.9341775263907
 31
0.0
  0
LINE
  5
343B
  8
BIS
 10
103.3078387901253
 20
175.4022677006908
 30
0.0
 11
103.4493332643253
 21
175.8832075069908
 31
0.0
  0
LINE
  5
343C
  8
BIS
 10
103.4493332643253
 20
175.8832075069908
 30
0.0
 11
104.1993332643253
 21
173.8964570387908
 31
0.0
  0
LINE
  5
343D
  8
BIS
 10
104.1993332643253
 20
173.8964570387908
 30
0.0
 11
104.6243332643253
 21
174.58983227289079
 31
0.0
  0
LINE
  5
343E
  8
BIS
 10
102.6993332643253
 20
173.3339570387908
 30
0.0
 11
102.46325892292531
 21
173.7794293948908
 31
0.0
  0
LINE
  5
343F
  8
BIS
 10
104.1993332643253
 20
173.8964570387908
 30
0.0
 11
103.84615857932531
 21
174.29801676599081
 31
0.0
  0
LINE
  5
3440
  8
BIS
 10
103.4493332643253
 20
175.8832075069908
 30
0.0
 11
103.9189903334253
 21
175.17308587199079
 31
0.0
  0
LINE
  5
3441
  8
BIS
 10
102.2323222128253
 20
175.8055864171908
 30
0.0
 11
101.9493332643253
 21
176.4457075069908
 31
0.0
  0
LINE
  5
3442
  8
BIS
 10
104.1993332643253
 20
173.8964570387908
 30
0.0
 11
103.3078387901253
 21
175.4022677006908
 31
0.0
  0
LINE
  5
3443
  8
BIS
 10
97.449333264325304
 20
176.7492072728908
 30
0.0
 11
98.199333264325276
 21
172.7492072728908
 31
0.0
  0
LINE
  5
3444
  8
BIS
 10
98.199333264325276
 20
172.7492072728908
 30
0.0
 11
97.355583264325304
 21
176.2492072728908
 31
0.0
  0
LINE
  5
3445
  8
BIS
 10
98.855583264325304
 20
176.2492072728908
 30
0.0
 11
98.949333264325276
 21
176.7492072728908
 31
0.0
  0
LINE
  5
3446
  8
BIS
 10
100.3555832643253
 20
176.2492072728908
 30
0.0
 11
100.4493332643253
 21
176.7492072728908
 31
0.0
  0
LINE
  5
3447
  8
BIS
 10
100.6368332643253
 20
176.2492072728908
 30
0.0
 11
100.4493332643253
 21
176.7492072728908
 31
0.0
  0
LINE
  5
3448
  8
BIS
 10
99.136833264325276
 20
176.2492072728908
 30
0.0
 11
98.949333264325276
 21
176.7492072728908
 31
0.0
  0
LINE
  5
3449
  8
BIS
 10
98.199333264325276
 20
172.7492072728908
 30
0.0
 11
98.293083264325304
 21
173.2492072728908
 31
0.0
  0
LINE
  5
344A
  8
BIS
 10
98.949333264325276
 20
176.7492072728908
 30
0.0
 11
99.699333264325304
 21
172.7492072728908
 31
0.0
  0
LINE
  5
344B
  8
BIS
 10
99.699333264325304
 20
172.7492072728908
 30
0.0
 11
99.793083264325304
 21
173.2492072728908
 31
0.0
  0
LINE
  5
344C
  8
BIS
 10
100.4493332643253
 20
176.7492072728908
 30
0.0
 11
101.2248949851253
 21
172.78104268409081
 31
0.0
  0
LINE
  5
344D
  8
BIS
 10
101.2248949851253
 20
172.78104268409081
 30
0.0
 11
101.3389091783253
 21
173.3577982405908
 31
0.0
  0
LINE
  5
344E
  8
BIS
 10
98.199333264325276
 20
172.7492072728908
 30
0.0
 11
98.011833264325276
 21
173.2492072728908
 31
0.0
  0
LINE
  5
344F
  8
BIS
 10
99.699333264325304
 20
172.7492072728908
 30
0.0
 11
99.511833264325276
 21
173.2492072728908
 31
0.0
  0
LINE
  5
3450
  8
BIS
 10
101.1993332643253
 20
172.9118293288908
 30
0.0
 11
101.0616188334253
 21
173.2492072728908
 31
0.0
  0
LINE
  5
3451
  8
BIS
 10
101.2248949851253
 20
172.78104268409081
 30
0.0
 11
100.3555832643253
 21
176.2492072728908
 31
0.0
  0
LINE
  5
3452
  8
BIS
 10
99.699333264325304
 20
172.7492072728908
 30
0.0
 11
98.855583264325304
 21
176.2492072728908
 31
0.0
  0
LINE
  5
3453
  8
BIS
 10
94.355583264325276
 20
176.2492072728908
 30
0.0
 11
94.449333264325276
 21
176.7492072728908
 31
0.0
  0
LINE
  5
3454
  8
BIS
 10
95.855583264325276
 20
176.2492072728908
 30
0.0
 11
95.949333264325304
 21
176.7492072728908
 31
0.0
  0
LINE
  5
3455
  8
BIS
 10
96.136833264325276
 20
176.2492072728908
 30
0.0
 11
95.949333264325304
 21
176.7492072728908
 31
0.0
  0
LINE
  5
3456
  8
BIS
 10
94.636833264325276
 20
176.2492072728908
 30
0.0
 11
94.449333264325276
 21
176.7492072728908
 31
0.0
  0
LINE
  5
3457
  8
BIS
 10
97.355583264325304
 20
176.2492072728908
 30
0.0
 11
97.449333264325304
 21
176.7492072728908
 31
0.0
  0
LINE
  5
3458
  8
BIS
 10
97.636833264325276
 20
176.2492072728908
 30
0.0
 11
97.449333264325304
 21
176.7492072728908
 31
0.0
  0
LINE
  5
3459
  8
BIS
 10
93.699333264325276
 20
172.7492072728908
 30
0.0
 11
93.793083264325276
 21
173.2492072728908
 31
0.0
  0
LINE
  5
345A
  8
BIS
 10
94.449333264325276
 20
176.7492072728908
 30
0.0
 11
95.199333264325276
 21
172.7492072728908
 31
0.0
  0
LINE
  5
345B
  8
BIS
 10
95.199333264325276
 20
172.7492072728908
 30
0.0
 11
95.293083264325276
 21
173.2492072728908
 31
0.0
  0
LINE
  5
345C
  8
BIS
 10
95.949333264325304
 20
176.7492072728908
 30
0.0
 11
96.699333264325276
 21
172.7492072728908
 31
0.0
  0
LINE
  5
345D
  8
BIS
 10
96.699333264325276
 20
172.7492072728908
 30
0.0
 11
96.793083264325276
 21
173.2492072728908
 31
0.0
  0
LINE
  5
345E
  8
BIS
 10
95.199333264325276
 20
172.7492072728908
 30
0.0
 11
95.011833264325304
 21
173.2492072728908
 31
0.0
  0
LINE
  5
345F
  8
BIS
 10
96.699333264325276
 20
172.7492072728908
 30
0.0
 11
96.511833264325304
 21
173.2492072728908
 31
0.0
  0
LINE
  5
3460
  8
BIS
 10
96.699333264325276
 20
172.7492072728908
 30
0.0
 11
95.855583264325276
 21
176.2492072728908
 31
0.0
  0
LINE
  5
3461
  8
BIS
 10
95.199333264325276
 20
172.7492072728908
 30
0.0
 11
94.355583264325276
 21
176.2492072728908
 31
0.0
  0
LINE
  5
3462
  8
BIS
 10
85.636833264325304
 20
176.2492072728908
 30
0.0
 11
85.44933326432529
 21
176.7492072728908
 31
0.0
  0
LINE
  5
3463
  8
BIS
 10
85.44933326432529
 20
176.7492072728908
 30
0.0
 11
86.199333264325261
 21
172.7492072728908
 31
0.0
  0
LINE
  5
3464
  8
BIS
 10
86.199333264325261
 20
172.7492072728908
 30
0.0
 11
85.355583264325276
 21
176.2492072728908
 31
0.0
  0
LINE
  5
3465
  8
BIS
 10
89.855583264325304
 20
176.2492072728908
 30
0.0
 11
89.949333264325261
 21
176.7492072728908
 31
0.0
  0
LINE
  5
3466
  8
BIS
 10
90.136833264325276
 20
176.2492072728908
 30
0.0
 11
89.949333264325261
 21
176.7492072728908
 31
0.0
  0
LINE
  5
3467
  8
BIS
 10
91.355583264325276
 20
176.2492072728908
 30
0.0
 11
91.449333264325276
 21
176.7492072728908
 31
0.0
  0
LINE
  5
3468
  8
BIS
 10
92.855583264325276
 20
176.2492072728908
 30
0.0
 11
92.949333264325276
 21
176.7492072728908
 31
0.0
  0
LINE
  5
3469
  8
BIS
 10
93.136833264325304
 20
176.2492072728908
 30
0.0
 11
92.949333264325276
 21
176.7492072728908
 31
0.0
  0
LINE
  5
346A
  8
BIS
 10
91.636833264325276
 20
176.2492072728908
 30
0.0
 11
91.449333264325276
 21
176.7492072728908
 31
0.0
  0
LINE
  5
346B
  8
BIS
 10
91.449333264325276
 20
176.7492072728908
 30
0.0
 11
92.199333264325304
 21
172.7492072728908
 31
0.0
  0
LINE
  5
346C
  8
BIS
 10
92.199333264325304
 20
172.7492072728908
 30
0.0
 11
92.293083264325276
 21
173.2492072728908
 31
0.0
  0
LINE
  5
346D
  8
BIS
 10
92.199333264325304
 20
172.7492072728908
 30
0.0
 11
92.011833264325276
 21
173.2492072728908
 31
0.0
  0
LINE
  5
346E
  8
BIS
 10
89.949333264325261
 20
176.7492072728908
 30
0.0
 11
90.699333264325276
 21
172.7492072728908
 31
0.0
  0
LINE
  5
346F
  8
BIS
 10
90.699333264325276
 20
172.7492072728908
 30
0.0
 11
90.793083264325304
 21
173.2492072728908
 31
0.0
  0
LINE
  5
3470
  8
BIS
 10
90.699333264325276
 20
172.7492072728908
 30
0.0
 11
90.511833264325276
 21
173.2492072728908
 31
0.0
  0
LINE
  5
3471
  8
BIS
 10
90.699333264325276
 20
172.7492072728908
 30
0.0
 11
89.855583264325304
 21
176.2492072728908
 31
0.0
  0
LINE
  5
3472
  8
BIS
 10
92.199333264325304
 20
172.7492072728908
 30
0.0
 11
91.355583264325276
 21
176.2492072728908
 31
0.0
  0
LINE
  5
3473
  8
BIS
 10
88.35558326432529
 20
176.2492072728908
 30
0.0
 11
88.449333264325304
 21
176.7492072728908
 31
0.0
  0
LINE
  5
3474
  8
BIS
 10
88.636833264325276
 20
176.2492072728908
 30
0.0
 11
88.449333264325304
 21
176.7492072728908
 31
0.0
  0
LINE
  5
3475
  8
BIS
 10
86.85558326432529
 20
176.2492072728908
 30
0.0
 11
86.94933326432529
 21
176.7492072728908
 31
0.0
  0
LINE
  5
3476
  8
BIS
 10
87.136833264325261
 20
176.2492072728908
 30
0.0
 11
86.94933326432529
 21
176.7492072728908
 31
0.0
  0
LINE
  5
3477
  8
BIS
 10
88.449333264325304
 20
176.7492072728908
 30
0.0
 11
89.19933326432529
 21
172.7492072728908
 31
0.0
  0
LINE
  5
3478
  8
BIS
 10
89.19933326432529
 20
172.7492072728908
 30
0.0
 11
89.29308326432529
 21
173.2492072728908
 31
0.0
  0
LINE
  5
3479
  8
BIS
 10
89.19933326432529
 20
172.7492072728908
 30
0.0
 11
89.011833264325261
 21
173.2492072728908
 31
0.0
  0
LINE
  5
347A
  8
BIS
 10
89.19933326432529
 20
172.7492072728908
 30
0.0
 11
88.35558326432529
 21
176.2492072728908
 31
0.0
  0
LINE
  5
347B
  8
BIS
 10
86.94933326432529
 20
176.7492072728908
 30
0.0
 11
87.699333264325276
 21
172.7492072728908
 31
0.0
  0
LINE
  5
347C
  8
BIS
 10
87.699333264325276
 20
172.7492072728908
 30
0.0
 11
87.79308326432529
 21
173.2492072728908
 31
0.0
  0
LINE
  5
347D
  8
BIS
 10
87.699333264325276
 20
172.7492072728908
 30
0.0
 11
87.511833264325304
 21
173.2492072728908
 31
0.0
  0
LINE
  5
347E
  8
BIS
 10
87.699333264325276
 20
172.7492072728908
 30
0.0
 11
86.85558326432529
 21
176.2492072728908
 31
0.0
  0
LINE
  5
347F
  8
BIS
 10
86.199333264325261
 20
172.7492072728908
 30
0.0
 11
86.293083264325276
 21
173.2492072728908
 31
0.0
  0
LINE
  5
3480
  8
BIS
 10
86.199333264325261
 20
172.7492072728908
 30
0.0
 11
86.01183326432529
 21
173.2492072728908
 31
0.0
  0
ARC
  5
3481
  8
BIS
 10
82.049333264325313
 20
177.7492072728908
 30
0.0
 40
1.0
 50
90.0
 51
180.0
  0
LINE
  5
3482
  8
BIS
 10
85.355583264325276
 20
176.2492072728908
 30
0.0
 11
85.44933326432529
 21
176.7492072728908
 31
0.0
  0
LINE
  5
3483
  8
BIS
 10
84.13683326432529
 20
176.24920727299079
 30
0.0
 11
83.949333264325276
 21
176.74920727299079
 31
0.0
  0
LINE
  5
3484
  8
BIS
 10
83.949333264325276
 20
176.74920727299079
 30
0.0
 11
84.699333264325304
 21
172.74920727299079
 31
0.0
  0
LINE
  5
3485
  8
BIS
 10
84.699333264325304
 20
172.74920727299079
 30
0.0
 11
84.793083264325261
 21
173.24920727299079
 31
0.0
  0
LINE
  5
3486
  8
BIS
 10
84.699333264325304
 20
172.74920727299079
 30
0.0
 11
84.51183326432529
 21
173.24920727299079
 31
0.0
  0
LINE
  5
3487
  8
BIS
 10
84.699333264325304
 20
172.74920727299079
 30
0.0
 11
83.949333264325276
 21
175.8603183839908
 31
0.0
  0
LINE
  5
3488
  8
BIS
 10
82.049333264325313
 20
178.7492072728908
 30
0.0
 11
83.449333264325304
 21
178.7492072728908
 31
0.0
  0
LINE
  5
3489
  8
BIS
 10
83.949333264325276
 20
179.7492072728908
 30
0.0
 11
83.449333264325304
 21
179.7492072728908
 31
0.0
  0
LINE
  5
348A
  8
HIDDEN
 10
83.949333264256197
 20
178.7492072728908
 30
0.0
 11
84.949333264275168
 21
178.7492072728908
 31
0.0
  0
LINE
  5
348B
  8
HIDDEN
 10
106.44666460189509
 20
201.24231501778829
 30
0.0
 11
106.44666460189509
 21
200.2423150177693
 31
0.0
  0
LINE
  5
3496
  8
MODEL
 10
84.94933326429414
 20
200.2492072728717
 30
0.0
 11
84.94933326429414
 21
176.2492072728908
 31
0.0
  0
ARC
  5
3497
  8
MODEL
 10
85.656440045375206
 20
203.5421004916908
 30
0.0
 40
4.0
 50
15.59559125129778
 51
135.0
  0
ARC
  5
3498
  8
MODEL
 10
93.949333264275154
 20
191.2492072728908
 30
0.0
 40
24.0
 50
90.0
 51
180.0
  0
LINE
  5
3499
  8
MODEL
 10
77.449333264275168
 20
155.74920727289069
 30
0.0
 11
83.218206092627696
 21
161.9314484757254
 31
0.0
  0
LINE
  5
349A
  8
MODEL
 10
84.949333264275168
 20
161.2492072728661
 30
0.0
 11
84.949333264275168
 21
150.24920727289069
 31
0.0
  0
LINE
  5
349B
  8
MODEL
 10
69.949333264275168
 20
153.49920727289069
 30
0.0
 11
69.949333264275168
 21
191.2492072728908
 31
0.0
  0
LINE
  5
349C
  8
MODEL
 10
75.949333264275282
 20
155.74920727289069
 30
0.0
 11
75.949333264275168
 21
163.74920727289069
 31
0.0
  0
LINE
  5
349D
  8
MODEL
 10
74.249333264275236
 20
167.74920727289069
 30
0.0
 11
74.249333264275236
 21
191.2492072728908
 31
0.0
  0
LINE
  5
349E
  8
MODEL
 10
75.949333264275282
 20
155.74920727289069
 30
0.0
 11
77.449333264275168
 21
155.74920727289069
 31
0.0
  0
LINE
  5
349F
  8
MODEL
 10
73.199333264275154
 20
150.24920727289069
 30
0.0
 11
84.949333264275168
 21
150.24920727289069
 31
0.0
  0
LINE
  5
34A0
  8
MODEL
 10
83.949333264275168
 20
194.7492072728908
 30
0.0
 11
83.949333264275168
 21
191.2492072728908
 31
0.0
  0
ARC
  5
34A1
  8
MODEL
 10
83.949333264275168
 20
161.2492072728661
 30
0.0
 40
1.0
 50
0.0
 51
136.98097224044119
  0
LINE
  5
34A2
  8
MODEL
 10
83.949333264275168
 20
191.2492072728908
 30
0.0
 11
74.249333264275236
 21
191.2492072728908
 31
0.0
  0
LINE
  5
34A3
  8
MODEL
 10
78.828012920675263
 20
202.3705276164907
 30
0.0
 11
82.828012920675263
 21
206.3705276164907
 31
0.0
  0
LINE
  5
34A4
  8
MODEL
 10
83.949333264275168
 20
194.7492072728908
 30
0.0
 11
80.581057216775179
 21
195.6893674653908
 31
0.0
  0
ARC
  5
34A5
  8
MODEL
 10
81.656440045375206
 20
199.5421004916908
 30
0.0
 40
4.0
 50
135.0
 51
254.40440874889501
  0
LINE
  5
34A6
  8
MODEL
 10
131.6993332642752
 20
215.2492072728908
 30
0.0
 11
93.949333264275225
 21
215.2492072728908
 31
0.0
  0
LINE
  5
34A7
  8
MODEL
 10
129.4493332644461
 20
209.2492072728908
 30
0.0
 11
121.4493332644461
 21
209.2492072728908
 31
0.0
  0
LINE
  5
34A8
  8
MODEL
 10
117.4493332644784
 20
210.9492072728907
 30
0.0
 11
93.949333264275154
 21
210.94920727289079
 31
0.0
  0
LINE
  5
34A9
  8
MODEL
 10
93.949333264275154
 20
201.2492072728908
 30
0.0
 11
93.949333264275154
 21
210.94920727289079
 31
0.0
  0
LINE
  5
34AA
  8
MODEL
 10
90.449333264275154
 20
201.2492072728908
 30
0.0
 11
89.509173071675249
 21
204.61748332039079
 31
0.0
  0
LINE
  5
34AB
  8
MODEL
 10
90.449333264275154
 20
201.2492072728908
 30
0.0
 11
93.949333264275154
 21
201.2492072728908
 31
0.0
  0
LINE
  5
34AC
  8
MODEL
 10
123.9492947844913
 20
200.24920727289069
 30
0.0
 11
134.9493332642752
 21
200.2492072728908
 31
0.0
  0
LINE
  5
34AD
  8
MODEL
 10
129.4493332644461
 20
209.2492072728908
 30
0.0
 11
129.44933326441759
 21
207.74920727204599
 31
0.0
  0
LINE
  5
34AE
  8
MODEL
 10
129.44933326441759
 20
207.74920727204599
 30
0.0
 11
123.26709206147341
 21
201.98033444381079
 31
0.0
  0
ARC
  5
34AF
  8
MODEL
 10
123.9493332643187
 20
201.2492072721503
 30
0.0
 40
1.0
 50
133.01902775847111
 51
269.99999999891219
  0
LINE
  5
34B0
  8
MODEL
 10
134.9493332642752
 20
211.9992072728908
 30
0.0
 11
134.9493332642752
 21
200.2492072728908
 31
0.0
  0
ARC
  5
34B1
  8
MODEL
 10
73.199333264275154
 20
153.49920727289069
 30
0.0
 40
3.25
 50
180.0
 51
270.0
  0
ARC
  5
34B2
  8
MODEL
 10
131.6993332642752
 20
211.9992072728908
 30
0.0
 40
3.25
 50
0.0
 51
90.0
  0
LINE
  5
34B3
  8
MODEL
 10
75.949333264275282
 20
163.74920727289069
 30
0.0
 11
74.249333264275236
 21
167.74920727289069
 31
0.0
  0
LINE
  5
34B4
  8
MODEL
 10
121.4493332644461
 20
209.2492072728908
 30
0.0
 11
117.4493332644784
 21
210.9492072728907
 31
0.0
  0
LINE
  5
386A
  8
DEFPOINTS
 10
0.0
 20
0.0
 30
0.0
 11
210.0
 21
0.0
 31
0.0
  0
LINE
  5
386D
  8
DEFPOINTS
 10
210.0
 20
0.0
 30
0.0
 11
210.0
 21
297.0
 31
0.0
  0
LINE
  5
386E
  8
DEFPOINTS
 10
210.0
 20
297.0
 30
0.0
 11
0.0
 21
297.0
 31
0.0
  0
LINE
  5
386F
  8
DEFPOINTS
 10
0.0
 20
297.0
 30
0.0
 11
0.0
 21
0.0
 31
0.0
  0
SOLID
  5
3871
  8
DIMS
 10
85.72134959982067
 20
164.33785342925941
 30
0.0
 11
84.253960898475157
 21
165.7370966212294
 31
0.0
 12
86.095839894440957
 22
164.8893980454778
 32
0.0
 13
86.095839894440957
 23
164.8893980454778
 33
0.0
1001
ACAD
1000
DSTYLE
1002
{
1070
     5
1000

1070
    40
1040
1.0
1002
}
  0
SOLID
  5
3873
  8
DIMS
 10
93.724028384300098
 20
171.63327627986499
 30
0.0
 11
92.499333264325315
 21
173.2492072728908
 31
0.0
 12
94.181914375553049
 22
172.11782231839879
 32
0.0
 13
94.181914375553049
 23
172.11782231839879
 33
0.0
1001
ACAD
1000
DSTYLE
1002
{
1070
     5
1000

1070
    40
1040
1.0
1002
}
  0
SOLID
  5
3875
  8
DIMS
 10
83.993619487848946
 20
153.89868356294551
 30
0.0
 11
82.362133152821556
 21
155.10257867869689
 31
0.0
 12
84.295883507280337
 22
154.49288967785989
 32
0.0
 13
84.295883507280337
 23
154.49288967785989
 33
0.0
1001
ACAD
1000
DSTYLE
1002
{
1070
     5
1000

1070
    40
1040
1.0
1002
}
  0
LINE
  5
3877
  8
TITLE
 10
20.0
 20
12.625
 30
0.0
 11
199.75
 21
12.625
 31
0.0
  0
LINE
  5
3878
  8
TITLE
 10
199.75
 20
12.625
 30
0.0
 11
199.75
 21
284.375
 31
0.0
  0
LINE
  5
3879
  8
TITLE
 10
199.75
 20
284.375
 30
0.0
 11
20.0
 21
284.375
 31
0.0
  0
LINE
  5
387A
  8
TITLE
 10
20.0
 20
284.375
 30
0.0
 11
20.0
 21
12.625
 31
0.0
  0
TEXT
  5
387B
  8
TITLE
 10
77.291666666666671
 20
63.675497065706601
 30
0.0
 40
2.5
  1
群          別
  0
TEXT
  5
387C
  8
TITLE
 10
37.460271961790653
 20
24.385450258878901
 30
0.0
 40
2.5
  1
固定金具：鋼板フォーミング成形　亜鉛メッキ仕上
  0
TEXT
  5
387D
  8
TITLE
 10
37.62693862845731
 20
20.21878359221224
 30
0.0
 40
2.5
  1
　　　　　アルミ押出型材（Ａ６０６３Ｓ－Ｔ５）
  0
TEXT
  5
387E
  8
TITLE
 10
32.333333333333329
 20
48.675497065706601
 30
0.0
 40
2.5
  1
経          歴
  0
TEXT
  5
387F
  8
TITLE
 10
21.16555319691588
 20
28.739356149794158
 30
0.0
 40
2.5
  1
特記事項
  0
TEXT
  5
3880
  8
TITLE
 10
23.433530944715631
 20
43.760535166713879
 30
0.0
 40
2.0
  1
1
  0
LINE
  5
3881
  8
TITLE
 10
24.375
 20
47.0
 30
0.0
 11
22.20993649053889
 21
43.25
 31
0.0
  0
LINE
  5
3882
  8
TITLE
 10
22.20993649053889
 20
43.25
 30
0.0
 11
26.54006350946111
 21
43.25
 31
0.0
  0
LINE
  5
3883
  8
TITLE
 10
26.54006350946111
 20
43.25
 30
0.0
 11
24.375
 21
47.0
 31
0.0
  0
LINE
  5
3884
  8
TITLE
 10
24.375
 20
42.0
 30
0.0
 11
22.20993649053889
 21
38.25
 31
0.0
  0
LINE
  5
3885
  8
TITLE
 10
22.20993649053889
 20
38.25
 30
0.0
 11
26.54006350946111
 21
38.25
 31
0.0
  0
LINE
  5
3886
  8
TITLE
 10
26.54006350946111
 20
38.25
 30
0.0
 11
24.375
 21
42.0
 31
0.0
  0
LINE
  5
3887
  8
TITLE
 10
24.375
 20
37.0
 30
0.0
 11
22.20993649053889
 21
33.25
 31
0.0
  0
LINE
  5
3888
  8
TITLE
 10
22.20993649053889
 20
33.25
 30
0.0
 11
26.54006350946111
 21
33.25
 31
0.0
  0
LINE
  5
3889
  8
TITLE
 10
26.54006350946111
 20
33.25
 30
0.0
 11
24.375
 21
37.0
 31
0.0
  0
TEXT
  5
388A
  8
TITLE
 10
23.422619047619051
 20
33.677403026748948
 30
0.0
 40
2.0
  1
3
  0
TEXT
  5
388B
  8
TITLE
 10
23.39038268634409
 20
38.634565554712367
 30
0.0
 40
2.0
  1
2
  0
TEXT
  5
388C
  8
TITLE
 10
66.903959893265423
 20
34.604066584276673
 30
0.0
 40
2.5
  1
重量
  0
TEXT
  5
388D
  8
TITLE
 10
66.903959893265423
 20
41.27073325094328
 30
0.0
 40
2.5
  1
規格
  0
TEXT
  5
388E
  8
TITLE
 10
66.903959893265423
 20
47.93739991761003
 30
0.0
 40
2.5
  1
材質
  0
TEXT
  5
388F
  8
TITLE
 10
27.75
 20
56.25
 30
0.0
 40
2.5
  1
ショックレスコーナー
  0
TEXT
  5
3890
  8
TITLE
 10
32.416666666666671
 20
63.675497065706601
 30
0.0
 40
2.5
  1
品          名
  0
TEXT
  5
3891
  8
TITLE
 10
140.85331854688309
 20
48.828796392541342
 30
0.0
 40
2.5
  1
仕上
  0
TEXT
  5
3892
  8
TITLE
 10
110.8533185468832
 20
48.828796392541342
 30
0.0
 40
2.5
  1
縮尺
  0
TEXT
  5
3894
  8
TITLE
 10
170.5199852135498
 20
48.828796392541342
 30
0.0
 40
2.5
  1
日付
  0
TEXT
  5
3895
  8
TITLE
 10
117.7083333333333
 20
56.25
 30
0.0
 40
2.5
  1
ＹＭＰＣ－６５６５Ｖ
  0
TEXT
  5
3896
  8
DIMS
 62
     7
 10
125.28254787288979
 20
145.06032470259689
 30
0.0
 40
2.5
  1
タッピングビス
  0
TEXT
  5
3897
  8
DIMS
 62
     7
 10
125.61588120622309
 20
135.06032470259689
 30
0.0
 40
2.5
  1
緩衝材：合成樹脂
  0
TEXT
  5
3898
  8
TITLE
 10
122.0416666666666
 20
63.675497065706601
 30
0.0
 40
2.5
  1
タ    イ    プ
  0
SOLID
  5
3899
  8
DIMS
 10
98.885807769768093
 20
140.28508712006001
 30
0.0
 11
97.213167510452195
 21
141.43111751844691
 31
0.0
 12
99.167080317390003
 22
140.88951263110229
 32
0.0
 13
99.167080317390003
 23
140.88951263110229
 33
0.0
1001
ACAD
1000
DSTYLE
1002
{
1070
     5
1000

1070
    40
1040
1.0
1002
}
  0
SOLID
  5
389B
  8
DIMS
 10
91.536059496747384
 20
140.1592254545595
 30
0.0
 11
89.907546329682447
 21
141.36713934876181
 31
0.0
 12
91.839787615566266
 22
140.752684530051
 32
0.0
 13
91.839787615566266
 23
140.752684530051
 33
0.0
1001
ACAD
1000
DSTYLE
1002
{
1070
     5
1000

1070
    40
1040
1.0
1002
}
  0
TEXT
  5
389D
  8
DIMS
 62
     7
 10
125.61588120622309
 20
125.0603247025969
 30
0.0
 40
2.5
  1
石膏ボード
  0
TEXT
  5
389E
  8
DIMS
 62
     7
 10
125.44921453955639
 20
140.06032470259689
 30
0.0
 40
2.5
  1
固定金具
  0
TEXT
  5
389F
  8
DIMS
 62
     7
 10
125.61588120622309
 20
130.06032470259689
 30
0.0
 40
2.5
  1
軽量鉄骨
  0
TEXT
  5
38A0
  8
TITLE
 10
167.20833333333329
 20
56.25
 30
0.0
 40
2.5
  1
６Ｈ－０２０５
  0
TEXT
  5
38A1
  8
TITLE
 10
167.125
 20
63.675497065706601
 30
0.0
 40
2.5
  1
図  面  番  号
  0
LINE
  5
38A2
  8
DIMS
 10
110.4493332642751
 20
207.4992072666416
 30
0.0
 11
110.4493332642751
 21
223.99920726667969
 31
0.0
  0
LINE
  5
38A3
  8
DIMS
 10
69.949333264275168
 20
192.49920726666039
 30
0.0
 11
69.949333264275168
 21
223.99920726667969
 31
0.0
  0
LINE
  5
38A4
  8
DIMS
 10
108.4493332742435
 20
222.74920727290981
 30
0.0
 11
71.949333254306808
 21
222.74920727290981
 31
0.0
  0
SOLID
  5
38A5
  8
DIMS
 10
108.4493332742435
 20
223.08254060458179
 30
0.0
 11
108.4493332742435
 21
222.41587394123781
 31
0.0
 12
110.4493332642751
 22
222.74920727290981
 32
0.0
 13
110.4493332642751
 23
222.74920727290981
 33
0.0
  0
SOLID
  5
38A6
  8
DIMS
 10
71.949333254306808
 20
223.08254060458179
 30
0.0
 11
71.949333254306808
 21
222.41587394123781
 31
0.0
 12
69.949333264275168
 22
222.74920727290981
 32
0.0
 13
69.949333264275168
 23
222.74920727290981
 33
0.0
  0
LINE
  5
38A8
  8
DIMS
 10
92.699333270505321
 20
215.2492072728908
 30
0.0
 11
58.699333270505392
 21
215.2492072728908
 31
0.0
  0
LINE
  5
38A9
  8
DIMS
 10
71.949333270505321
 20
150.24920727290981
 30
0.0
 11
58.699333270505392
 21
150.24920727290981
 31
0.0
  0
LINE
  5
38AA
  8
DIMS
 10
59.949333264275182
 20
213.2492072828592
 30
0.0
 11
59.949333264275168
 21
152.24920726294141
 31
0.0
  0
SOLID
  5
38AB
  8
DIMS
 10
59.615999932603252
 20
213.2492072828592
 30
0.0
 11
60.282666595947127
 21
213.2492072828592
 31
0.0
 12
59.949333264275182
 22
215.2492072728908
 32
0.0
 13
59.949333264275182
 23
215.2492072728908
 33
0.0
  0
SOLID
  5
38AC
  8
DIMS
 10
59.615999932603209
 20
152.24920726294141
 30
0.0
 11
60.282666595947113
 21
152.24920726294141
 31
0.0
 12
59.949333264275168
 22
150.24920727290981
 32
0.0
 13
59.949333264275168
 23
150.24920727290981
 33
0.0
  0
LINE
  5
38AE
  8
DIMS
 10
134.9493332642752
 20
213.2492072666796
 30
0.0
 11
134.9493332642752
 21
223.99920726667969
 31
0.0
  0
LINE
  5
38AF
  8
DIMS
 10
110.4493332642751
 20
207.4992072666416
 30
0.0
 11
110.4493332642751
 21
223.99920726667969
 31
0.0
  0
LINE
  5
38B0
  8
DIMS
 10
132.94933327424349
 20
222.74920727290981
 30
0.0
 11
112.44933325430679
 21
222.74920727290981
 31
0.0
  0
SOLID
  5
38B1
  8
DIMS
 10
132.94933327424349
 20
223.08254060458179
 30
0.0
 11
132.94933327424349
 21
222.41587394123781
 31
0.0
 12
134.9493332642752
 22
222.74920727290981
 32
0.0
 13
134.9493332642752
 23
222.74920727290981
 33
0.0
  0
SOLID
  5
38B2
  8
DIMS
 10
112.44933325430679
 20
223.08254060458179
 30
0.0
 11
112.44933325430679
 21
222.41587394123781
 31
0.0
 12
110.4493332642751
 22
222.74920727290981
 32
0.0
 13
110.4493332642751
 23
222.74920727290981
 33
0.0
  0
LINE
  5
38B4
  8
DIMS
 10
136.19933325804499
 20
200.2492072728717
 30
0.0
 11
143.69933325804499
 21
200.2492072728717
 31
0.0
  0
LINE
  5
38B5
  8
DIMS
 10
132.94933325804499
 20
215.24920727289091
 30
0.0
 11
143.69933325804499
 21
215.24920727289091
 31
0.0
  0
LINE
  5
38B6
  8
DIMS
 10
142.4493332642752
 20
202.24920726290341
 30
0.0
 11
142.4493332642752
 21
213.2492072828592
 31
0.0
  0
SOLID
  5
38B7
  8
DIMS
 10
142.11599993260319
 20
202.24920726290341
 30
0.0
 11
142.78266659594721
 21
202.24920726290341
 31
0.0
 12
142.4493332642752
 22
200.2492072728717
 32
0.0
 13
142.4493332642752
 23
200.2492072728717
 33
0.0
  0
SOLID
  5
38B8
  8
DIMS
 10
142.11599993260319
 20
213.2492072828592
 30
0.0
 11
142.78266659594721
 21
213.2492072828592
 31
0.0
 12
142.4493332642752
 22
215.24920727289091
 32
0.0
 13
142.4493332642752
 23
215.24920727289091
 33
0.0
  0
LINE
  5
38BB
  8
DIMS
 10
85.908594747130834
 20
164.61362573736861
 30
0.0
 11
122.99088120622309
 21
139.43532470259689
 31
0.0
1001
ACAD
1000
DSTYLE
1002
{
1070
     5
1000

1070
    40
1040
1.0
1002
}
  0
LINE
  5
38BC
  8
DIMS
 10
122.99088120622309
 20
139.43532470259689
 30
0.0
 11
136.78254787288981
 21
139.43532470259689
 31
0.0
1001
ACAD
1000
DSTYLE
1002
{
1070
     5
1000

1070
    40
1040
1.0
1002
}
  0
LINE
  5
38BD
  8
DIMS
 10
93.952971379926566
 20
171.87554929913179
 30
0.0
 11
122.99088120622309
 21
144.43532470259689
 31
0.0
1001
ACAD
1000
DSTYLE
1002
{
1070
     5
1000

1070
    40
1040
1.0
1002
}
  0
LINE
  5
38BE
  8
DIMS
 10
122.99088120622309
 20
144.43532470259689
 30
0.0
 11
145.44921453955641
 21
144.43532470259689
 31
0.0
1001
ACAD
1000
DSTYLE
1002
{
1070
     5
1000

1070
    40
1040
1.0
1002
}
  0
LINE
  5
38BF
  8
DIMS
 10
84.144751497564656
 20
154.19578662040271
 30
0.0
 11
122.99088120622309
 21
134.43532470259689
 31
0.0
1001
ACAD
1000
DSTYLE
1002
{
1070
     5
1000

1070
    40
1040
1.0
1002
}
  0
LINE
  5
38C0
  8
DIMS
 10
122.99088120622309
 20
134.43532470259689
 30
0.0
 11
148.94921453955649
 21
134.43532470259689
 31
0.0
1001
ACAD
1000
DSTYLE
1002
{
1070
     5
1000

1070
    40
1040
1.0
1002
}
  0
LINE
  5
38C1
  8
DIMS
 10
99.026444043579048
 20
140.58729987558121
 30
0.0
 11
122.99088120622309
 21
129.43532470259689
 31
0.0
1001
ACAD
1000
DSTYLE
1002
{
1070
     5
1000

1070
    40
1040
1.0
1002
}
  0
LINE
  5
38C2
  8
DIMS
 10
122.99088120622309
 20
129.43532470259689
 30
0.0
 11
137.16313042907609
 21
129.43532470259689
 31
0.0
1001
ACAD
1000
DSTYLE
1002
{
1070
     5
1000

1070
    40
1040
1.0
1002
}
  0
LINE
  5
38C3
  8
DIMS
 10
91.687923556156846
 20
140.45595499230521
 30
0.0
 11
122.99088120622309
 21
124.4353247025969
 31
0.0
1001
ACAD
1000
DSTYLE
1002
{
1070
     5
1000

1070
    40
1040
1.0
1002
}
  0
LINE
  5
38C4
  8
DIMS
 10
122.99088120622309
 20
124.4353247025969
 30
0.0
 11
139.61588120622309
 21
124.4353247025969
 31
0.0
1001
ACAD
1000
DSTYLE
1002
{
1070
     5
1000

1070
    40
1040
1.0
1002
}
  0
TEXT
  5
38C5
  8
DIMS
 62
     7
 10
59.324333267390251
 20
180.9188501391659
 30
0.0
 40
2.499999987539574
  1
65
 50
90.0
 41
0.75
  7
DIMS
  0
TEXT
  5
38C6
  8
DIMS
 62
     7
 10
87.074333279850705
 20
223.37420726979479
 30
0.0
 40
2.499999987539574
  1
40.5
 41
0.75
  7
DIMS
  0
TEXT
  5
38C7
  8
DIMS
 62
     7
 10
141.8243332673903
 20
205.8295644253063
 30
0.0
 40
2.499999987539574
  1
15
 50
90.0
 41
0.75
  7
DIMS
  0
TEXT
  5
38C8
  8
DIMS
 62
     7
 10
119.57433327985071
 20
223.37420726979479
 30
0.0
 40
2.499999987539574
  1
24.5
 41
0.75
  7
DIMS
  0
TEXT
  5
3C9D
  8
TEXT
 10
101.2083333333333
 20
265.375
 30
0.0
 40
2.5
  1
%%U軽量鉄骨下地
  0
TEXT
  5
3E8E
  8
TITLE
 10
28.079861342176631
 20
43.852380952380948
 30
0.0
 40
2.5
  1
H14.3.1:寸法訂正
  0
TEXT
  5
3E8F
  8
TITLE
 10
28.079861342176631
 20
38.852380952380962
 30
0.0
 40
2.5
  1
H23.11.19:形状変更他
  0
TEXT
  5
3E90
  8
TITLE
 10
173.20833333333329
 20
44.346428571428568
 30
0.0
 40
2.5
  1
Ｈ１２．７．１３
  0
ENDSEC
  0
EOF
