  0
SECTION
  2
HEADER
  9
$ACADVER
  1
AC1009
  9
$INSBASE
 10
0.0
 20
0.0
 30
0.0
  9
$EXTMIN
 10
-0.0272080323173896
 20
-0.0226558438690745
 30
-0.000000000000013
  9
$EXTMAX
 10
210.0248496943567
 20
297.00000138318302
 30
0.0000000000000023
  9
$LIMMIN
 10
0.0
 20
0.0
  9
$LIMMAX
 10
420.0
 20
297.0
  9
$ORTHOMODE
 70
     1
  9
$REGENMODE
 70
     1
  9
$FILLMODE
 70
     1
  9
$QTEXTMODE
 70
     0
  9
$MIRRTEXT
 70
     1
  9
$DRAGMODE
 70
     2
  9
$LTSCALE
 40
0.3
  9
$OSMODE
 70
   167
  9
$ATTMODE
 70
     1
  9
$TEXTSIZE
 40
2.5
  9
$TRACEWID
 40
1.0
  9
$TEXTSTYLE
  7
STANDARD
  9
$CLAYER
  8
0
  9
$CELTYPE
  6
BYLAYER
  9
$CECOLOR
 62
   256
  9
$DIMSCALE
 40
0.0
  9
$DIMASZ
 40
2.0
  9
$DIMEXO
 40
0.625
  9
$DIMDLI
 40
3.75
  9
$DIMRND
 40
0.0
  9
$DIMDLE
 40
0.0
  9
$DIMEXE
 40
1.25
  9
$DIMTP
 40
0.0
  9
$DIMTM
 40
0.0
  9
$DIMTXT
 40
2.5
  9
$DIMCEN
 40
0.0
  9
$DIMTSZ
 40
0.0
  9
$DIMTOL
 70
     0
  9
$DIMLIM
 70
     0
  9
$DIMTIH
 70
     0
  9
$DIMTOH
 70
     0
  9
$DIMSE1
 70
     0
  9
$DIMSE2
 70
     0
  9
$DIMTAD
 70
     1
  9
$DIMZIN
 70
     8
  9
$DIMBLK
  1

  9
$DIMASO
 70
     1
  9
$DIMSHO
 70
     1
  9
$DIMPOST
  1

  9
$DIMAPOST
  1

  9
$DIMALT
 70
     0
  9
$DIMALTD
 70
     3
  9
$DIMALTF
 40
0.03937007874016
  9
$DIMLFAC
 40
1.0
  9
$DIMTOFL
 70
     1
  9
$DIMTVP
 40
0.0
  9
$DIMTIX
 70
     0
  9
$DIMSOXD
 70
     0
  9
$DIMSAH
 70
     0
  9
$DIMBLK1
  1

  9
$DIMBLK2
  1

  9
$DIMSTYLE
  2
DIMS
  9
$DIMCLRD
 70
     0
  9
$DIMCLRE
 70
     0
  9
$DIMCLRT
 70
     7
  9
$DIMTFAC
 40
1.0
  9
$DIMGAP
 40
0.625
  9
$LUNITS
 70
     2
  9
$LUPREC
 70
     4
  9
$SKETCHINC
 40
1.0
  9
$FILLETRAD
 40
0.0
  9
$AUNITS
 70
     0
  9
$AUPREC
 70
     0
  9
$MENU
  1
.
  9
$ELEVATION
 40
0.0
  9
$PELEVATION
 40
0.0
  9
$THICKNESS
 40
0.0
  9
$LIMCHECK
 70
     0
  9
$BLIPMODE
 70
     0
  9
$CHAMFERA
 40
0.0
  9
$CHAMFERB
 40
0.0
  9
$SKPOLY
 70
     0
  9
$TDCREATE
 40
2451639.7154235072
  9
$TDUPDATE
 40
2456288.4511498031
  9
$TDINDWG
 40
0.2160629398
  9
$TDUSRTIMER
 40
0.2160628241
  9
$USRTIMER
 70
     1
  9
$ANGBASE
 50
0.0
  9
$ANGDIR
 70
     0
  9
$PDMODE
 70
     0
  9
$PDSIZE
 40
0.0
  9
$PLINEWID
 40
0.0
  9
$COORDS
 70
     0
  9
$SPLFRAME
 70
     0
  9
$SPLINETYPE
 70
     6
  9
$SPLINESEGS
 70
     8
  9
$ATTDIA
 70
     0
  9
$ATTREQ
 70
     1
  9
$HANDLING
 70
     1
  9
$HANDSEED
  5
537F
  9
$SURFTAB1
 70
     6
  9
$SURFTAB2
 70
     6
  9
$SURFTYPE
 70
     6
  9
$SURFU
 70
     6
  9
$SURFV
 70
     6
  9
$UCSNAME
  2

  9
$UCSORG
 10
0.0
 20
0.0
 30
0.0
  9
$UCSXDIR
 10
1.0
 20
0.0
 30
0.0
  9
$UCSYDIR
 10
0.0
 20
1.0
 30
0.0
  9
$PUCSNAME
  2

  9
$PUCSORG
 10
0.0
 20
0.0
 30
0.0
  9
$PUCSXDIR
 10
1.0
 20
0.0
 30
0.0
  9
$PUCSYDIR
 10
0.0
 20
1.0
 30
0.0
  9
$USERI1
 70
     0
  9
$USERI2
 70
     0
  9
$USERI3
 70
     0
  9
$USERI4
 70
     0
  9
$USERI5
 70
     0
  9
$USERR1
 40
0.0
  9
$USERR2
 40
0.0
  9
$USERR3
 40
0.0
  9
$USERR4
 40
0.0
  9
$USERR5
 40
0.0
  9
$WORLDVIEW
 70
     1
  9
$SHADEDGE
 70
     3
  9
$SHADEDIF
 70
    70
  9
$TILEMODE
 70
     1
  9
$MAXACTVP
 70
    48
  9
$PLIMCHECK
 70
     0
  9
$PEXTMIN
 10
0.0
 20
0.0
 30
0.0
  9
$PEXTMAX
 10
0.0
 20
0.0
 30
0.0
  9
$PLIMMIN
 10
0.0
 20
0.0
  9
$PLIMMAX
 10
12.0
 20
9.0
  9
$UNITMODE
 70
     0
  9
$VISRETAIN
 70
     1
  9
$PLINEGEN
 70
     0
  9
$PSLTSCALE
 70
     0
  0
ENDSEC
  0
SECTION
  2
TABLES
  0
TABLE
  2
VPORT
 70
     1
  0
VPORT
  2
*ACTIVE
 70
     0
 10
0.0
 20
0.0
 11
1.0
 21
1.0
 12
104.9988208310197
 22
148.48867276965689
 13
0.0
 23
0.0
 14
10.0
 24
10.0
 15
10.0
 25
10.0
 16
0.0
 26
0.0
 36
1.0
 17
0.0
 27
0.0
 37
0.0
 40
300.07949417964608
 41
1.7199312714776629
 42
50.0
 43
0.0
 44
0.0
 50
0.0
 51
0.0
 71
     0
 72
   100
 73
     1
 74
     3
 75
     0
 76
     0
 77
     0
 78
     0
  0
ENDTAB
  0
TABLE
  2
LTYPE
 70
     3
  0
LTYPE
  2
CONTINUOUS
 70
     0
  3
Solid line
 72
    65
 73
     0
 40
0.0
  0
LTYPE
  2
CENTER
 70
     0
  3
Center ____ _ ____ _ ____ _ ____ _ ____ _ ____
 72
    65
 73
     4
 40
50.799999999999997
 49
31.75
 49
-6.3499999999999988
 49
6.3499999999999988
 49
-6.3499999999999988
  0
ENDTAB
  0
TABLE
  2
LAYER
 70
     8
  0
LAYER
  2
0
 70
     0
 62
     7
  6
CONTINUOUS
  0
LAYER
  2
MODEL
 70
     0
 62
     7
  6
CONTINUOUS
  0
LAYER
  2
DIMS
 70
     0
 62
     1
  6
CONTINUOUS
  0
LAYER
  2
TITLE
 70
     0
 62
     7
  6
CONTINUOUS
  0
LAYER
  2
DEFPOINTS
 70
     0
 62
     4
  6
CONTINUOUS
  0
LAYER
  2
GENKYO
 70
     0
 62
     3
  6
CONTINUOUS
  0
LAYER
  2
TEXT
 70
     0
 62
     7
  6
CONTINUOUS
  0
LAYER
  2
CENTER
 70
     0
 62
     6
  6
CENTER
  0
ENDTAB
  0
TABLE
  2
STYLE
 70
     2
  0
STYLE
  2
STANDARD
 70
     0
 40
0.0
 41
1.0
 50
0.0
 71
     0
 42
2.5
  3
romans.shx
  4
bigfont.shx
  0
STYLE
  2
DIMS
 70
     0
 40
0.0
 41
0.75
 50
0.0
 71
     0
 42
2.5
  3
romans.shx
  4
bigfont.shx
  0
ENDTAB
  0
TABLE
  2
VIEW
 70
     1
  0
VIEW
  2
PRINT
 70
     1
 40
128.5
 10
98.875866602002361
 20
145.24226553880581
 41
88.0
 11
0.0
 21
0.0
 31
1.0
 12
0.0
 22
0.0
 32
0.0
 42
50.0
 43
0.0
 44
0.0
 50
0.0
 71
     0
  0
ENDTAB
  0
TABLE
  2
UCS
 70
     0
  0
ENDTAB
  0
TABLE
  2
APPID
 70
    10
  0
APPID
  2
ACAD
 70
     0
  0
APPID
  2
ACAD_MLEADERVER
 70
     0
  0
APPID
  2
ACAD_EXEMPT_FROM_CAD_STANDARDS
 70
     0
  0
APPID
  2
ACAECLAYERSTANDARD
 70
     0
  0
APPID
  2
ACAD_DSTYLE_DIMRADIAL_EXTENSION
 70
     0
  0
APPID
  2
ACAD_DSTYLE_DIMJAG
 70
     0
  0
APPID
  2
ACAD_DSTYLE_DIMBREAK
 70
     0
  0
APPID
  2
ACAD_DSTYLE_DIMTALN
 70
     0
  0
APPID
  2
ACAD_PSEXT
 70
     0
  0
APPID
  2
ACADANNOTATIVE
 70
     0
  0
ENDTAB
  0
TABLE
  2
DIMSTYLE
 70
     2
  0
DIMSTYLE
  2
DIMS
 70
     0
  3

  4

  5

  6

  7

 40
0.0
 41
2.0
 42
0.625
 43
3.75
 44
1.25
 45
0.0
 46
0.0
 47
0.0
 48
0.0
140
2.5
141
0.0
142
0.0
143
0.03937007874016
144
1.0
145
0.0
146
1.0
147
0.625
 71
     0
 72
     0
 73
     0
 74
     0
 75
     0
 76
     0
 77
     1
 78
     8
170
     0
171
     3
172
     1
173
     0
174
     0
175
     0
176
     0
177
     0
178
     7
  0
ENDTAB
  0
ENDSEC
  0
SECTION
  2
BLOCKS
  0
BLOCK
  8
0
  2
$MODEL_SPACE
 70
     0
 10
0.0
 20
0.0
 30
0.0
  3
$MODEL_SPACE
  1

  0
ENDBLK
  5
21
  8
0
  0
BLOCK
 67
     1
  8
0
  2
$PAPER_SPACE
 70
     0
 10
0.0
 20
0.0
 30
0.0
  3
$PAPER_SPACE
  1

  0
ENDBLK
  5
F33
 67
     1
  8
0
  0
ENDSEC
  0
SECTION
  2
ENTITIES
  0
LINE
  5
3C7B
  8
TITLE
 10
20.0
 20
67.5
 30
0.0
 11
199.75
 21
67.5
 31
0.0
  0
LINE
  5
3C7C
  8
TITLE
 10
20.0
 20
62.5
 30
0.0
 11
199.75
 21
62.5
 31
0.0
  0
LINE
  5
3C7D
  8
TITLE
 10
20.0
 20
52.5
 30
0.0
 11
199.75
 21
52.5
 31
0.0
  0
LINE
  5
3C7E
  8
TITLE
 10
20.0
 20
32.5
 30
0.0
 11
199.75
 21
32.5
 31
0.0
  0
LINE
  5
3C7F
  8
TITLE
 10
64.875
 20
45.83333333333325
 30
0.0
 11
109.875
 21
45.83333333333325
 31
0.0
  0
LINE
  5
3C80
  8
TITLE
 10
64.875
 20
39.166666666666629
 30
0.0
 11
109.875
 21
39.166666666666629
 31
0.0
  0
LINE
  5
3C81
  8
TITLE
 10
20.0
 20
37.5
 30
0.0
 11
64.875
 21
37.5
 31
0.0
  0
LINE
  5
3C82
  8
TITLE
 10
20.0
 20
47.5
 30
0.0
 11
64.875
 21
47.5
 31
0.0
  0
LINE
  5
3C83
  8
TITLE
 10
20.0
 20
42.5
 30
0.0
 11
64.875
 21
42.5
 31
0.0
  0
LINE
  5
3C84
  8
TITLE
 10
20.0
 20
47.5
 30
0.0
 11
64.875
 21
47.5
 31
0.0
  0
LINE
  5
3C8E
  8
TITLE
 10
64.875
 20
67.5
 30
0.0
 11
64.875
 21
32.5
 31
0.0
  0
LINE
  5
3C94
  8
TITLE
 10
109.875
 20
42.5
 30
0.0
 11
199.75
 21
42.5
 31
0.0
  0
LINE
  5
3C95
  8
TITLE
 10
163.83938001836259
 20
34.945089337666332
 30
0.0
 11
164.43991920054981
 21
35.545628519861111
 31
0.0
  0
LINE
  5
3C96
  8
TITLE
 10
163.79388960876159
 20
34.986883800719852
 30
0.0
 11
164.40886986011941
 21
35.601864052077531
 31
0.0
  0
LINE
  5
3C97
  8
TITLE
 10
163.74945170916089
 20
35.029730773762481
 30
0.0
 11
164.38052671146261
 21
35.660805776067953
 31
0.0
  0
LINE
  5
3C98
  8
TITLE
 10
163.62244836990789
 20
35.164582052454882
 30
0.0
 11
164.7422845439682
 21
36.284418226511548
 31
0.0
  0
LINE
  5
3C99
  8
TITLE
 10
163.5822249979251
 20
35.211643553111912
 30
0.0
 11
164.65499967132109
 21
36.284418226511548
 31
0.0
  0
LINE
  5
3C9A
  8
TITLE
 10
163.54306563805761
 20
35.259769065887902
 30
0.0
 11
164.56771479868121
 21
36.284418226511548
 31
0.0
  0
LINE
  5
3C9B
  8
TITLE
 10
163.5049782626142
 20
35.308966563095851
 30
0.0
 11
164.48042992603399
 21
36.284418226511548
 31
0.0
  0
LINE
  5
3C9C
  8
TITLE
 10
163.46797286119951
 20
35.359246034324322
 30
0.0
 11
164.39314505338689
 21
36.284418226511548
 31
0.0
  0
LINE
  5
3C9D
  8
TITLE
 10
163.78519915347439
 20
37.771309270119673
 30
0.0
 11
164.45565693613301
 21
38.441767052771191
 31
0.0
  0
LINE
  5
3C9E
  8
TITLE
 10
163.69791428082681
 20
37.771309270119673
 30
0.0
 11
164.47751313027439
 21
38.550908119567453
 31
0.0
  0
LINE
  5
3C9F
  8
TITLE
 10
163.6106294081801
 20
37.771309270119673
 30
0.0
 11
164.49936932442321
 21
38.660049186359288
 31
0.0
  0
LINE
  5
3CA0
  8
TITLE
 10
163.64175646383541
 20
38.762569924883337
 30
0.0
 11
164.7344747903139
 21
39.855288251358161
 31
0.0
  0
LINE
  5
3CA1
  8
TITLE
 10
163.7290413364826
 20
38.762569924883337
 30
0.0
 11
164.82175966296111
 21
39.855288251358161
 31
0.0
  0
LINE
  5
3CA2
  8
TITLE
 10
162.24414350464571
 20
36.753962857166933
 30
0.0
 11
165.00828459895681
 21
39.518103951478452
 31
0.0
  0
LINE
  5
3CA3
  8
TITLE
 10
162.1568586319986
 20
36.753962857166933
 30
0.0
 11
165.08605933516259
 21
39.683163560327223
 31
0.0
  0
LINE
  5
3CA4
  8
TITLE
 10
163.71401195220679
 20
38.572970795313161
 30
0.0
 11
164.99632940824861
 21
39.855288251358161
 31
0.0
  0
LINE
  5
3CA5
  8
TITLE
 10
163.73586814635561
 20
38.682111862105899
 30
0.0
 11
164.9090445356087
 21
39.855288251358161
 31
0.0
  0
LINE
  5
3CA6
  8
TITLE
 10
163.67029956391701
 20
38.354688661725277
 30
0.0
 11
165.16383407136121
 21
39.848223169176663
 31
0.0
  0
LINE
  5
3CA7
  8
TITLE
 10
163.6921557580585
 20
38.463829728521318
 30
0.0
 11
165.08361428089569
 21
39.855288251358161
 31
0.0
  0
LINE
  5
3CA8
  8
TITLE
 10
163.52334453554019
 20
37.771309270119673
 30
0.0
 11
165.16675037408459
 21
39.414715108664723
 31
0.0
  0
LINE
  5
3CA9
  8
TITLE
 10
163.4360596628926
 20
37.771309270119673
 30
0.0
 11
165.0794655014374
 21
39.414715108664723
 31
0.0
  0
LINE
  5
3CAA
  8
TITLE
 10
163.3487747902459
 20
37.771309270119673
 30
0.0
 11
164.99218062879021
 21
39.414715108664723
 31
0.0
  0
LINE
  5
3CAB
  8
TITLE
 10
164.0771258302216
 20
36.753962857166933
 30
0.0
 11
164.5988419772525
 21
37.27567900419411
 31
0.0
  0
LINE
  5
3CAC
  8
TITLE
 10
163.98984095757481
 20
36.753962857166933
 30
0.0
 11
164.51155710460529
 21
37.27567900419411
 31
0.0
  0
LINE
  5
3CAD
  8
TITLE
 10
163.9025560849272
 20
36.753962857166933
 30
0.0
 11
164.42427223195821
 21
37.27567900419411
 31
0.0
  0
LINE
  5
3CAE
  8
TITLE
 10
163.93353315712369
 20
34.86467273113692
 30
0.0
 11
164.5096564882478
 21
35.440796062264212
 31
0.0
  0
LINE
  5
3CAF
  8
TITLE
 10
163.88592616740971
 20
34.904350614073223
 30
0.0
 11
164.4735467605496
 21
35.491971207213851
 31
0.0
  0
LINE
  5
3CB0
  8
TITLE
 10
164.0827993326306
 20
34.752084288709632
 30
0.0
 11
164.63230346866251
 21
35.301588424737808
 31
0.0
  0
LINE
  5
3CB1
  8
TITLE
 10
164.03195971082781
 20
34.788529539550268
 30
0.0
 11
164.58906959329619
 21
35.345639422015097
 31
0.0
  0
LINE
  5
3CB2
  8
TITLE
 10
163.9822080056087
 20
34.826062706977837
 30
0.0
 11
164.54817926948411
 21
35.392033970853852
 31
0.0
  0
LINE
  5
3CB3
  8
TITLE
 10
164.04705377141539
 20
37.771309270119673
 30
0.0
 11
164.62094155772729
 21
38.345197056431289
 31
0.0
  0
LINE
  5
3CB4
  8
TITLE
 10
163.95976889876829
 20
37.771309270119673
 30
0.0
 11
164.53365668507971
 21
38.345197056431289
 31
0.0
  0
LINE
  5
3CB5
  8
TITLE
 10
163.87248402612161
 20
37.771309270119673
 30
0.0
 11
164.44637181243289
 21
38.345197056431289
 31
0.0
  0
LINE
  5
3CB6
  8
TITLE
 10
164.338980448163
 20
36.753962857166933
 30
0.0
 11
164.86069659518671
 21
37.27567900419411
 31
0.0
  0
LINE
  5
3CB7
  8
TITLE
 10
164.2516955755159
 20
36.753962857166933
 30
0.0
 11
164.77341172253949
 21
37.27567900419411
 31
0.0
  0
LINE
  5
3CB8
  8
TITLE
 10
164.16441070286871
 20
36.753962857166933
 30
0.0
 11
164.68612684989239
 21
37.27567900419411
 31
0.0
  0
LINE
  5
3CB9
  8
TITLE
 10
164.35386264349609
 20
34.586723236342891
 30
0.0
 11
164.8842354959979
 21
35.117096088840533
 31
0.0
  0
LINE
  5
3CBA
  8
TITLE
 10
164.29733678512139
 20
34.617482250611381
 30
0.0
 11
164.82891374684999
 21
35.149059212343793
 31
0.0
  0
LINE
  5
3CBB
  8
TITLE
 10
164.24198955075011
 20
34.649419888890748
 30
0.0
 11
164.77613331764081
 21
35.183563655778023
 31
0.0
  0
LINE
  5
3CBC
  8
TITLE
 10
164.1877975154903
 20
34.682512726274808
 30
0.0
 11
164.72580804164591
 21
35.220523252430212
 31
0.0
  0
LINE
  5
3CBD
  8
TITLE
 10
164.13474009566511
 20
34.716740179100498
 30
0.0
 11
164.6778773617971
 21
35.259877445225356
 31
0.0
  0
LINE
  5
3CBE
  8
TITLE
 10
164.33393915069331
 20
35.788787960585871
 30
0.0
 11
164.82956941661541
 21
36.284418226511548
 31
0.0
  0
LINE
  5
3CBF
  8
TITLE
 10
164.2889598913107
 20
39.497058225001872
 30
0.0
 11
164.64718991766671
 21
39.855288251358161
 31
0.0
  0
LINE
  5
3CC0
  8
TITLE
 10
164.30890838935741
 20
37.771309270119673
 30
0.0
 11
164.88279617566869
 21
38.345197056431289
 31
0.0
  0
LINE
  5
3CC1
  8
TITLE
 10
164.22162351670971
 20
37.771309270119673
 30
0.0
 11
164.7955113030211
 21
38.345197056431289
 31
0.0
  0
LINE
  5
3CC2
  8
TITLE
 10
164.13433864406301
 20
37.771309270119673
 30
0.0
 11
164.7082264303744
 21
38.345197056431289
 31
0.0
  0
LINE
  5
3CC3
  8
TITLE
 10
129.5928977933286
 20
37.44553849680085
 30
0.0
 11
131.9925944808551
 21
39.845235184330818
 31
0.0
  0
LINE
  5
3CC4
  8
TITLE
 10
129.5928977933286
 20
37.532823369444259
 30
0.0
 11
131.90530960820789
 21
39.845235184330818
 31
0.0
  0
LINE
  5
3CC5
  8
TITLE
 10
129.5928977933286
 20
37.620108242091533
 30
0.0
 11
131.8180247355676
 21
39.845235184330818
 31
0.0
  0
LINE
  5
3CC6
  8
TITLE
 10
129.5928977933286
 20
37.707393114738807
 30
0.0
 11
131.7307398629209
 21
39.845235184330818
 31
0.0
  0
LINE
  5
3CC7
  8
TITLE
 10
129.5928977933286
 20
37.794677987385853
 30
0.0
 11
131.64345499027331
 21
39.845235184330818
 31
0.0
  0
LINE
  5
3CC8
  8
TITLE
 10
129.5928977933286
 20
37.881962860033127
 30
0.0
 11
131.5561701176261
 21
39.845235184330818
 31
0.0
  0
LINE
  5
3CC9
  8
TITLE
 10
130.97683703823529
 20
34.290664364088229
 30
0.0
 11
132.03426179105921
 21
35.348089116911297
 31
0.0
  0
LINE
  5
3CCA
  8
TITLE
 10
130.6276975476471
 20
34.290664364088229
 30
0.0
 11
131.68512230047011
 21
35.348089116911297
 31
0.0
  0
LINE
  5
3CCB
  8
TITLE
 10
130.540412675
 20
34.290664364088229
 30
0.0
 11
131.5978374278229
 21
35.348089116911297
 31
0.0
  0
LINE
  5
3CCC
  8
TITLE
 10
130.88955216558861
 20
34.290664364088229
 30
0.0
 11
131.94697691841151
 21
35.348089116911297
 31
0.0
  0
LINE
  5
3CCD
  8
TITLE
 10
130.80226729294139
 20
34.290664364088229
 30
0.0
 11
131.8596920457644
 21
35.348089116911297
 31
0.0
  0
LINE
  5
3CCE
  8
TITLE
 10
130.71498242029429
 20
34.290664364088229
 30
0.0
 11
131.77240717311719
 21
35.348089116911297
 31
0.0
  0
LINE
  5
3CCF
  8
TITLE
 10
130.9244860950771
 20
38.689841925901881
 30
0.0
 11
132.07987935350229
 21
39.845235184330818
 31
0.0
  0
LINE
  5
3CD0
  8
TITLE
 10
131.5005462741114
 20
34.290664364088229
 30
0.0
 11
132.6332124734231
 21
35.423330563399993
 31
0.0
  0
LINE
  5
3CD1
  8
TITLE
 10
131.4132614014643
 20
34.290664364088229
 30
0.0
 11
132.5137681585488
 21
35.391171121172867
 31
0.0
  0
LINE
  5
3CD2
  8
TITLE
 10
131.32597652881711
 20
34.290664364088229
 30
0.0
 11
132.40519659512481
 21
35.369884430395807
 31
0.0
  0
LINE
  5
3CD3
  8
TITLE
 10
131.2386916561772
 20
34.290664364088229
 30
0.0
 11
132.3046877111442
 21
35.356660419062912
 31
0.0
  0
LINE
  5
3CD4
  8
TITLE
 10
131.15140678353009
 20
34.290664364088229
 30
0.0
 11
132.21053226598769
 21
35.34978984654618
 31
0.0
  0
LINE
  5
3CD5
  8
TITLE
 10
131.0641219108829
 20
34.290664364088229
 30
0.0
 11
132.12154666370591
 21
35.348089116911297
 31
0.0
  0
LINE
  5
3CD6
  8
TITLE
 10
131.53548020359949
 20
38.689841925901881
 30
0.0
 11
132.6908734620319
 21
39.845235184330818
 31
0.0
  0
LINE
  5
3CD7
  8
TITLE
 10
131.4481953309523
 20
38.689841925901881
 30
0.0
 11
132.6035885893848
 21
39.845235184330818
 31
0.0
  0
LINE
  5
3CD8
  8
TITLE
 10
131.3609104583052
 20
38.689841925901881
 30
0.0
 11
132.51630371673809
 21
39.845235184330818
 31
0.0
  0
LINE
  5
3CD9
  8
TITLE
 10
131.27362558566529
 20
38.689841925901881
 30
0.0
 11
132.42901884409051
 21
39.845235184330818
 31
0.0
  0
LINE
  5
3CDA
  8
TITLE
 10
131.1863407130181
 20
38.689841925901881
 30
0.0
 11
132.34173397144369
 21
39.845235184330818
 31
0.0
  0
LINE
  5
3CDB
  8
TITLE
 10
131.09905584037139
 20
38.689841925901881
 30
0.0
 11
132.2544490987961
 21
39.845235184330818
 31
0.0
  0
LINE
  5
3CDC
  8
TITLE
 10
131.0117709677242
 20
38.689841925901881
 30
0.0
 11
132.167164226149
 21
39.845235184330818
 31
0.0
  0
LINE
  5
3CDF
  8
TITLE
 10
109.875
 20
67.5
 30
0.0
 11
109.875
 21
32.5
 31
0.0
  0
LINE
  5
3CE0
  8
TITLE
 10
119.71808476266681
 20
33.450833178000501
 30
0.0
 11
122.53469980975891
 21
36.267448225091933
 31
0.0
  0
LINE
  5
3CE1
  8
TITLE
 10
119.54351501740349
 20
33.450833178000607
 30
0.0
 11
122.44112745603979
 21
36.348445616665117
 31
0.0
  0
LINE
  5
3CE2
  8
TITLE
 10
119.6307998900197
 20
33.450833178000607
 30
0.0
 11
122.4868557481595
 21
36.306889036140092
 31
0.0
  0
LINE
  5
3CE3
  8
TITLE
 10
119.8053696353136
 20
33.450833178000607
 30
0.0
 11
122.5846894423362
 21
36.230152985022762
 31
0.0
  0
LINE
  5
3CE4
  8
TITLE
 10
119.8926545079612
 20
33.450833178000607
 30
0.0
 11
122.6368707391243
 21
36.195049409163751
 31
0.0
  0
LINE
  5
3CE5
  8
TITLE
 10
119.9799393806088
 20
33.450833178000607
 30
0.0
 11
122.6913078215825
 21
36.162201618974557
 31
0.0
  0
LINE
  5
3CE6
  8
TITLE
 10
120.0672242532564
 20
33.450833178000607
 30
0.0
 11
122.74808539198639
 21
36.131694316731227
 31
0.0
  0
LINE
  5
3CE7
  8
TITLE
 10
120.15450912590219
 20
33.450833178000607
 30
0.0
 11
122.8073123541471
 21
36.103636406244853
 31
0.0
  0
LINE
  5
3CE8
  8
TITLE
 10
120.2417939985498
 20
33.450833178000607
 30
0.0
 11
122.8691268949387
 21
36.078166074389173
 31
0.0
  0
LINE
  5
3CE9
  8
TITLE
 10
120.329078871197
 20
33.450833178000948
 30
0.0
 11
122.93370364306701
 21
36.055457949870181
 31
0.0
  0
LINE
  5
3CEA
  8
TITLE
 10
120.4163637438228
 20
33.450833178000948
 30
0.0
 11
123.00126389369601
 21
36.035733327855723
 31
0.0
  0
LINE
  5
3CEB
  8
TITLE
 10
120.503648616484
 20
33.450833178000607
 30
0.0
 11
123.0720905350867
 21
36.019275096603337
 31
0.0
  0
LINE
  5
3CEC
  8
TITLE
 10
120.5909334891316
 20
33.450833178000607
 30
0.0
 11
123.1465504968819
 21
36.006450185750737
 31
0.0
  0
LINE
  5
3CED
  8
TITLE
 10
120.6782183617788
 20
33.450833178000607
 30
0.0
 11
123.2251298298502
 21
35.997744646072192
 31
0.0
  0
LINE
  5
3CEE
  8
TITLE
 10
120.76550323442601
 20
33.450833178000501
 30
0.0
 11
123.30849127268991
 21
35.99382121626514
 31
0.0
  0
LINE
  5
3CEF
  8
TITLE
 10
120.8527881070727
 20
33.450833178000607
 30
0.0
 11
123.3975748664184
 21
35.99561993734585
 31
0.0
  0
LINE
  5
3CF0
  8
TITLE
 10
120.9400729797203
 20
33.450833178000607
 30
0.0
 11
123.49378910120321
 21
36.004549299483529
 31
0.0
  0
LINE
  5
3CF1
  8
TITLE
 10
121.027357852367
 20
33.450833178000607
 30
0.0
 11
123.5994184705409
 21
36.022893796174799
 31
0.0
  0
LINE
  5
3CF2
  8
TITLE
 10
121.11464272501409
 20
33.450833178000948
 30
0.0
 11
123.7186552097546
 21
36.054845662740611
 31
0.0
  0
LINE
  5
3CF3
  8
TITLE
 10
121.20192759766221
 20
33.450833178000948
 30
0.0
 11
123.8610965150265
 21
36.110002095365758
 31
0.0
  0
LINE
  5
3CF4
  8
TITLE
 10
121.3764973429488
 20
33.450833178000607
 30
0.0
 11
126.41282693096581
 21
38.487162766017718
 31
0.0
  0
LINE
  5
3CF5
  8
TITLE
 10
121.4637822155964
 20
33.450833178000607
 30
0.0
 11
126.500111803612
 21
38.487162766017491
 31
0.0
  0
LINE
  5
3CF6
  8
TITLE
 10
121.5510670882431
 20
33.450833178000607
 30
0.0
 11
126.5873966762606
 21
38.487162766017718
 31
0.0
  0
LINE
  5
3CF7
  8
TITLE
 10
121.28921247032299
 20
33.450833178000607
 30
0.0
 11
124.06602082510059
 21
36.227641532797747
 31
0.0
  0
LINE
  5
3CF8
  8
TITLE
 10
121.6383519608912
 20
33.450833178000607
 30
0.0
 11
126.6746815489068
 21
38.487162766017718
 31
0.0
  0
LINE
  5
3CF9
  8
TITLE
 10
121.725636833537
 20
33.450833178000948
 30
0.0
 11
126.7619664215549
 21
38.487162766017491
 31
0.0
  0
LINE
  5
3CFA
  8
TITLE
 10
121.8129217061846
 20
33.450833178000607
 30
0.0
 11
126.84925129420211
 21
38.487162766017718
 31
0.0
  0
LINE
  5
3CFB
  8
TITLE
 10
121.9002065788322
 20
33.450833178000607
 30
0.0
 11
126.9365361668488
 21
38.487162766017718
 31
0.0
  0
LINE
  5
3CFC
  8
TITLE
 10
121.9874914514785
 20
33.450833178000948
 30
0.0
 11
126.973799117336
 21
38.437140843857946
 31
0.0
  0
LINE
  5
3CFD
  8
TITLE
 10
122.07477632412559
 20
33.450833178000607
 30
0.0
 11
126.9943521626069
 21
38.370409016481858
 31
0.0
  0
LINE
  5
3CFE
  8
TITLE
 10
122.16206119677319
 20
33.450833178000607
 30
0.0
 11
127.0138707060769
 21
38.302642687304122
 31
0.0
  0
LINE
  5
3CFF
  8
TITLE
 10
122.24934606941039
 20
33.450833178000607
 30
0.0
 11
127.0323226261435
 21
38.233809734727863
 31
0.0
  0
LINE
  5
3D00
  8
TITLE
 10
122.33663094205799
 20
33.450833178000607
 30
0.0
 11
127.04967294494639
 21
38.163875180883338
 31
0.0
  0
LINE
  5
3D01
  8
TITLE
 10
122.4239158147074
 20
33.450833178000607
 30
0.0
 11
127.06588350361601
 21
38.092800866909563
 31
0.0
  0
LINE
  5
3D02
  8
TITLE
 10
122.5112006873546
 20
33.450833178000607
 30
0.0
 11
127.0809125858309
 21
38.020545076476878
 31
0.0
  0
LINE
  5
3D03
  8
TITLE
 10
122.59848556000181
 20
33.450833178000607
 30
0.0
 11
127.09471447931629
 21
37.947062097314983
 31
0.0
  0
LINE
  5
3D04
  8
TITLE
 10
122.6857704326453
 20
33.450833178000607
 30
0.0
 11
127.1072389624087
 21
37.872301707764223
 31
0.0
  0
LINE
  5
3D05
  8
TITLE
 10
122.7730553052956
 20
33.450833178000607
 30
0.0
 11
127.1184306994864
 21
37.79620857219129
 31
0.0
  0
LINE
  5
3D06
  8
TITLE
 10
123.7574626493615
 20
33.475106922954751
 30
0.0
 11
127.12948208891559
 21
36.847126362508789
 31
0.0
  0
LINE
  5
3D07
  8
TITLE
 10
123.66044827911131
 20
33.465377425351448
 30
0.0
 11
127.1392115865192
 21
36.944140732759138
 31
0.0
  0
LINE
  5
3D08
  8
TITLE
 10
123.857390997995
 20
33.487750398940882
 30
0.0
 11
127.1168386129297
 21
36.747198013875511
 31
0.0
  0
LINE
  5
3D09
  8
TITLE
 10
123.47415987532069
 20
33.453658766853778
 30
0.0
 11
127.1509302450167
 21
37.130429136551697
 31
0.0
  0
LINE
  5
3D0A
  8
TITLE
 10
123.56608722700911
 20
33.458301245895427
 30
0.0
 11
127.1462877659751
 21
37.038501784862213
 31
0.0
  0
LINE
  5
3D0B
  8
TITLE
 10
122.8603401779432
 20
33.450833178000948
 30
0.0
 11
127.1282285247257
 21
37.718721524790233
 31
0.0
  0
LINE
  5
3D0C
  8
TITLE
 10
122.9648162964986
 20
33.468024423909128
 30
0.0
 11
127.1365645879614
 21
37.63977271537135
 31
0.0
  0
LINE
  5
3D0D
  8
TITLE
 10
123.0453024283688
 20
33.461225683142857
 30
0.0
 11
127.1433633287279
 21
37.559286583495009
 31
0.0
  0
LINE
  5
3D0E
  8
TITLE
 10
123.1274103954688
 20
33.456048777583987
 30
0.0
 11
127.1485402342859
 21
37.477178616409113
 31
0.0
  0
LINE
  5
3D0F
  8
TITLE
 10
123.211235179192
 20
33.452588688660292
 30
0.0
 11
127.1608025945806
 21
37.402156104049368
 31
0.0
  0
LINE
  5
3D10
  8
TITLE
 10
123.296884098549
 20
33.450952735378792
 30
0.0
 11
127.1536362764918
 21
37.307704913320208
 31
0.0
  0
LINE
  5
3D11
  8
TITLE
 10
123.38447913735121
 20
33.451262901534513
 30
0.0
 11
127.1533261103359
 21
37.22010987451722
 31
0.0
  0
LINE
  5
3D12
  8
TITLE
 10
119.50061965915749
 20
37.248472216222581
 30
0.0
 11
123.3562265634982
 21
41.10407912057223
 31
0.0
  0
LINE
  5
3D13
  8
TITLE
 10
119.5022281098659
 20
37.162795794283397
 30
0.0
 11
123.4435114361454
 21
41.10407912057223
 31
0.0
  0
LINE
  5
3D14
  8
TITLE
 10
119.5056623657137
 20
37.078945177492869
 30
0.0
 11
123.5307963087925
 21
41.10407912057223
 31
0.0
  0
LINE
  5
3D15
  8
TITLE
 10
119.5108149115576
 20
36.996812850689821
 30
0.0
 11
123.61808118143971
 21
41.10407912057223
 31
0.0
  0
LINE
  5
3D16
  8
TITLE
 10
119.51759060022459
 20
36.91630366670973
 30
0.0
 11
123.70536605408689
 21
41.10407912057223
 31
0.0
  0
LINE
  5
3D17
  8
TITLE
 10
119.52590477776219
 20
36.837332971600183
 30
0.0
 11
123.792650926734
 21
41.10407912057223
 31
0.0
  0
LINE
  5
3D18
  8
TITLE
 10
119.5356817625029
 20
36.759825083693961
 30
0.0
 11
123.8799357993812
 21
41.10407912057223
 31
0.0
  0
LINE
  5
3D19
  8
TITLE
 10
119.65962101534789
 20
36.18548535537537
 30
0.0
 11
124.5782147805598
 21
41.10407912057223
 31
0.0
  0
LINE
  5
3D1A
  8
TITLE
 10
119.6801591723347
 20
36.118738639708681
 30
0.0
 11
124.66549965319879
 21
41.10407912057223
 31
0.0
  0
LINE
  5
3D1B
  8
TITLE
 10
119.70170269854771
 20
36.052997293274188
 30
0.0
 11
124.7527845258455
 21
41.10407912057223
 31
0.0
  0
LINE
  5
3D1C
  8
TITLE
 10
119.7242243448936
 20
35.988234066972488
 30
0.0
 11
124.8400693984927
 21
41.10407912057223
 31
0.0
  0
LINE
  5
3D1D
  8
TITLE
 10
119.5731426444104
 20
36.535431347660051
 30
0.0
 11
124.14179041731541
 21
41.10407912057223
 31
0.0
  0
LINE
  5
3D1E
  8
TITLE
 10
119.58815414519989
 20
36.463157975812237
 30
0.0
 11
124.22907528997391
 21
41.10407912057223
 31
0.0
  0
LINE
  5
3D1F
  8
TITLE
 10
119.6043477600806
 20
36.392066718045392
 30
0.0
 11
124.3163601626206
 21
41.10407912057223
 31
0.0
  0
LINE
  5
3D20
  8
TITLE
 10
119.6216817176951
 20
36.32211580301589
 30
0.0
 11
124.4036450352646
 21
41.10407912057223
 31
0.0
  0
LINE
  5
3D21
  8
TITLE
 10
119.6401178100718
 20
36.253267022746172
 30
0.0
 11
124.49092990791171
 21
41.10407912057223
 31
0.0
  0
LINE
  5
3D22
  8
TITLE
 10
119.54685359953319
 20
36.6837120480767
 30
0.0
 11
123.9672206720283
 21
41.10407912057223
 31
0.0
  0
LINE
  5
3D23
  8
TITLE
 10
119.55935903193949
 20
36.60893260782882
 30
0.0
 11
124.0545055446687
 21
41.10407912057223
 31
0.0
  0
LINE
  5
3D24
  8
TITLE
 10
119.7476989814177
 20
35.924423830850287
 30
0.0
 11
124.92735427113981
 21
41.10407912057223
 31
0.0
  0
LINE
  5
3D25
  8
TITLE
 10
119.77210340953521
 20
35.861543386320932
 30
0.0
 11
125.01463914378741
 21
41.10407912057223
 31
0.0
  0
LINE
  5
3D26
  8
TITLE
 10
119.79741619693181
 20
35.79957130106925
 30
0.0
 11
125.1019240164337
 21
41.10407912057223
 31
0.0
  0
LINE
  5
3D27
  8
TITLE
 10
119.82361753197441
 20
35.73848776346518
 30
0.0
 11
125.1892088890813
 21
41.10407912057223
 31
0.0
  0
LINE
  5
3D28
  8
TITLE
 10
119.85068909498381
 20
35.678274453828408
 30
0.0
 11
125.2764937617289
 21
41.10407912057223
 31
0.0
  0
LINE
  5
3D29
  8
TITLE
 10
125.33823048282279
 20
41.10407912057223
 30
0.0
 11
122.41937018706081
 21
38.185218824809787
 31
0.0
  0
LINE
  5
3D2A
  8
TITLE
 10
119.97055903818359
 20
39.114969557597867
 30
0.0
 11
121.9596686011582
 21
41.10407912057223
 31
0.0
  0
LINE
  5
3D2B
  8
TITLE
 10
119.8061210691303
 20
38.775961843213743
 30
0.0
 11
122.1342383464453
 21
41.10407912057223
 31
0.0
  0
LINE
  5
3D2C
  8
TITLE
 10
119.87837471686809
 20
38.935500363634219
 30
0.0
 11
122.0469534738054
 21
41.10407912057223
 31
0.0
  0
LINE
  5
3D2D
  8
TITLE
 10
119.7475570630408
 20
38.630112964483381
 30
0.0
 11
122.2215232190924
 21
41.10407912057223
 31
0.0
  0
LINE
  5
3D2E
  8
TITLE
 10
119.6588508908735
 20
38.366837047043418
 30
0.0
 11
122.3960929643867
 21
41.10407912057223
 31
0.0
  0
LINE
  5
3D2F
  8
TITLE
 10
119.62504444435901
 20
38.24574572788277
 30
0.0
 11
122.4833778370334
 21
41.10407912057223
 31
0.0
  0
LINE
  5
3D30
  8
TITLE
 10
119.59672006767281
 20
38.130136478562797
 30
0.0
 11
122.570662709681
 21
41.10407912057223
 31
0.0
  0
LINE
  5
3D31
  8
TITLE
 10
119.57309171664239
 20
38.019223254885453
 30
0.0
 11
122.65794758232821
 21
41.10407912057223
 31
0.0
  0
LINE
  5
3D32
  8
TITLE
 10
119.5535553710679
 20
37.91240203666348
 30
0.0
 11
122.7452324549749
 21
41.10407912057223
 31
0.0
  0
LINE
  5
3D33
  8
TITLE
 10
119.5376348155601
 20
37.809196608509303
 30
0.0
 11
122.8325173276225
 21
41.10407912057223
 31
0.0
  0
LINE
  5
3D34
  8
TITLE
 10
119.5249466109308
 20
37.709223531232851
 30
0.0
 11
122.9198022002697
 21
41.10407912057223
 31
0.0
  0
LINE
  5
3D35
  8
TITLE
 10
119.515176548241
 20
37.61216859589581
 30
0.0
 11
123.0070870729168
 21
41.10407912057223
 31
0.0
  0
LINE
  5
3D36
  8
TITLE
 10
119.5080632908662
 20
37.517770465861418
 30
0.0
 11
123.0943719455567
 21
41.10407912057223
 31
0.0
  0
LINE
  5
3D37
  8
TITLE
 10
119.5033866891867
 20
37.425808991536087
 30
0.0
 11
123.1816568182039
 21
41.10407912057223
 31
0.0
  0
LINE
  5
3D38
  8
TITLE
 10
119.50095923156231
 20
37.336096661273821
 30
0.0
 11
123.26894169085099
 21
41.10407912057223
 31
0.0
  0
LINE
  5
3D39
  8
TITLE
 10
119.6991955842627
 20
38.494466613062862
 30
0.0
 11
122.30880809173961
 21
41.10407912057223
 31
0.0
  0
LINE
  5
3D3A
  8
TITLE
 10
120.4317519027408
 20
34.775494426607452
 30
0.0
 11
122.2442300364996
 21
36.587972560356206
 31
0.0
  0
LINE
  5
3D3B
  8
TITLE
 10
120.06328357058329
 20
35.279874820909981
 30
0.0
 11
122.0434802906088
 21
37.260071540929182
 31
0.0
  0
LINE
  5
3D3C
  8
TITLE
 10
120.0968040634875
 20
35.226110441196283
 30
0.0
 11
122.0473277703136
 21
37.176634147990057
 31
0.0
  0
LINE
  5
3D3D
  8
TITLE
 10
120.1310817927647
 20
35.17310329781867
 30
0.0
 11
122.0559687700524
 21
37.097990275081088
 31
0.0
  0
LINE
  5
3D3E
  8
TITLE
 10
120.20187769474791
 20
35.069329454486933
 30
0.0
 11
122.0851454223889
 21
36.952597182127867
 31
0.0
  0
LINE
  5
3D3F
  8
TITLE
 10
120.2383820510445
 20
35.018548938136291
 30
0.0
 11
122.104824553463
 21
36.884991440554813
 31
0.0
  0
LINE
  5
3D40
  8
TITLE
 10
120.16610875714279
 20
35.12084538950797
 30
0.0
 11
122.06873736886109
 21
37.023474001244153
 31
0.0
  0
LINE
  5
3D41
  8
TITLE
 10
120.27561595025691
 20
34.968497964702692
 30
0.0
 11
122.12749083113469
 21
36.820372845580209
 31
0.0
  0
LINE
  5
3D42
  8
TITLE
 10
120.3135741703727
 20
34.91917131217042
 30
0.0
 11
122.1529221823248
 21
36.758519324122631
 31
0.0
  0
LINE
  5
3D43
  8
TITLE
 10
120.3522521212294
 20
34.870564390380203
 30
0.0
 11
122.1809433794769
 21
36.699255648627847
 31
0.0
  0
LINE
  5
3D44
  8
TITLE
 10
120.3916458255553
 20
34.822673222058597
 30
0.0
 11
122.21141576110131
 21
36.642443157604127
 31
0.0
  0
LINE
  5
3D45
  8
TITLE
 10
120.514090557313
 20
34.68326333588027
 30
0.0
 11
122.3165647872934
 21
36.485737565855857
 31
0.0
  0
LINE
  5
3D46
  8
TITLE
 10
120.5563192463169
 20
34.638207152264499
 30
0.0
 11
122.3559745190459
 21
36.437862424963441
 31
0.0
  0
LINE
  5
3D47
  8
TITLE
 10
120.59925251611
 20
34.593855549403322
 30
0.0
 11
122.3975003441046
 21
36.392103377374951
 31
0.0
  0
LINE
  5
3D48
  8
TITLE
 10
120.47256755522849
 20
34.729025206448227
 30
0.0
 11
122.27930117902859
 21
36.535758830238251
 31
0.0
  0
LINE
  5
3D49
  8
TITLE
 10
120.0305290909705
 20
35.334405213938233
 30
0.0
 11
122.04537152320739
 21
37.349247646174952
 31
0.0
  0
LINE
  5
3D4A
  8
TITLE
 10
119.8786139441458
 20
35.618914430321752
 30
0.0
 11
122.2803928826206
 21
38.020693368814712
 31
0.0
  0
LINE
  5
3D4B
  8
TITLE
 10
119.9073764141267
 20
35.560392027709561
 30
0.0
 11
122.1607584701223
 21
37.813774083683832
 31
0.0
  0
LINE
  5
3D4C
  8
TITLE
 10
119.9369620260149
 20
35.50269276695952
 30
0.0
 11
122.1051251839026
 21
37.670855924819648
 31
0.0
  0
LINE
  5
3D4D
  8
TITLE
 10
119.9673574068533
 20
35.445803275119722
 30
0.0
 11
122.07292524772851
 21
37.551371115991969
 31
0.0
  0
LINE
  5
3D4E
  8
TITLE
 10
119.99855021796149
 20
35.389711213578501
 30
0.0
 11
122.0544190242494
 21
37.44558001986514
 31
0.0
  0
LINE
  5
3D4F
  8
TITLE
 10
120.0962783141608
 20
39.327973706222679
 30
0.0
 11
121.8723837285111
 21
41.10407912057223
 31
0.0
  0
LINE
  5
3D50
  8
TITLE
 10
120.30236018531239
 20
39.621340450015168
 30
0.0
 11
121.78509885586389
 21
41.10407912057223
 31
0.0
  0
LINE
  5
3D51
  8
TITLE
 10
121.7420937297893
 20
41.10407912057223
 30
0.0
 11
120.6213018105436
 21
39.983287201326682
 31
0.0
  0
LINE
  5
3D52
  8
TITLE
 10
129.5928977933286
 20
39.278520822373707
 30
0.0
 11
130.15961215527881
 21
39.845235184330818
 31
0.0
  0
LINE
  5
3D53
  8
TITLE
 10
129.5928977933286
 20
39.19123594972973
 30
0.0
 11
130.246897027926
 21
39.845235184330818
 31
0.0
  0
LINE
  5
3D54
  8
TITLE
 10
129.5928977933286
 20
39.103951077082463
 30
0.0
 11
130.33418190057321
 21
39.845235184330818
 31
0.0
  0
LINE
  5
3D55
  8
TITLE
 10
129.5928977933286
 20
38.580241841203019
 30
0.0
 11
130.85789113645609
 21
39.845235184330818
 31
0.0
  0
LINE
  5
3D56
  8
TITLE
 10
129.5928977933286
 20
38.667526713850293
 30
0.0
 11
130.77060626380899
 21
39.845235184330818
 31
0.0
  0
LINE
  5
3D57
  8
TITLE
 10
129.5928977933286
 20
38.143817477970742
 30
0.0
 11
131.29431549968459
 21
39.845235184330818
 31
0.0
  0
LINE
  5
3D58
  8
TITLE
 10
129.5928977933286
 20
38.231102350618023
 30
0.0
 11
131.20703062703751
 21
39.845235184330818
 31
0.0
  0
LINE
  5
3D59
  8
TITLE
 10
129.5928977933286
 20
38.318387223265177
 30
0.0
 11
131.11974575439029
 21
39.845235184330818
 31
0.0
  0
LINE
  5
3D5A
  8
TITLE
 10
129.5928977933286
 20
38.405672095908812
 30
0.0
 11
131.03246088174319
 21
39.845235184330818
 31
0.0
  0
LINE
  5
3D5B
  8
TITLE
 10
129.5928977933286
 20
38.492956968555859
 30
0.0
 11
130.94517600909651
 21
39.845235184330818
 31
0.0
  0
LINE
  5
3D5C
  8
TITLE
 10
129.5928977933286
 20
37.969247732680287
 30
0.0
 11
131.46888524497899
 21
39.845235184330818
 31
0.0
  0
LINE
  5
3D5D
  8
TITLE
 10
129.5928977933286
 20
38.056532605327448
 30
0.0
 11
131.3816003723318
 21
39.845235184330818
 31
0.0
  0
LINE
  5
3D5E
  8
TITLE
 10
129.5928977933286
 20
38.754811586497681
 30
0.0
 11
130.6833213911618
 21
39.845235184330818
 31
0.0
  0
LINE
  5
3D5F
  8
TITLE
 10
129.5928977933286
 20
38.842096459144379
 30
0.0
 11
130.59603651851461
 21
39.845235184330818
 31
0.0
  0
LINE
  5
3D60
  8
TITLE
 10
129.5928977933286
 20
38.92938133179166
 30
0.0
 11
130.5087516458679
 21
39.845235184330818
 31
0.0
  0
LINE
  5
3D61
  8
TITLE
 10
129.5928977933286
 20
39.01666620443882
 30
0.0
 11
130.42146677322029
 21
39.845235184330818
 31
0.0
  0
LINE
  5
3D62
  8
TITLE
 10
124.3769474790779
 20
36.538568186776729
 30
0.0
 11
126.3255420583059
 21
38.487162766017718
 31
0.0
  0
LINE
  5
3D63
  8
TITLE
 10
124.4945869165049
 20
36.743492496843828
 30
0.0
 11
126.2382571856788
 21
38.487162766017491
 31
0.0
  0
LINE
  5
3D64
  8
TITLE
 10
124.5497433491296
 20
36.885933802115908
 30
0.0
 11
126.150972313032
 21
38.487162766017491
 31
0.0
  0
LINE
  5
3D65
  8
TITLE
 10
124.6107677956052
 20
37.296097739180141
 30
0.0
 11
125.8018328224429
 21
38.487162766017718
 31
0.0
  0
LINE
  5
3D66
  8
TITLE
 10
124.581695215696
 20
37.005170541328987
 30
0.0
 11
126.0636874403849
 21
38.487162766017718
 31
0.0
  0
LINE
  5
3D67
  8
TITLE
 10
124.6000397123871
 20
37.110799910667431
 30
0.0
 11
125.9764025677373
 21
38.487162766017718
 31
0.0
  0
LINE
  5
3D68
  8
TITLE
 10
124.6089690745243
 20
37.207014145452028
 30
0.0
 11
125.88911769509011
 21
38.487162766017718
 31
0.0
  0
LINE
  5
3D69
  8
TITLE
 10
124.6068443657982
 20
37.37945918202081
 30
0.0
 11
125.7145479497953
 21
38.487162766017718
 31
0.0
  0
LINE
  5
3D6A
  8
TITLE
 10
124.59813882611979
 20
37.458038514988743
 30
0.0
 11
125.6272630771486
 21
38.487162766017718
 31
0.0
  0
LINE
  5
3D6B
  8
TITLE
 10
124.58531391526731
 20
37.53249847678353
 30
0.0
 11
125.53997820450191
 21
38.487162766017718
 31
0.0
  0
LINE
  5
3D6C
  8
TITLE
 10
124.5688556840168
 20
37.60332511816614
 30
0.0
 11
125.4526933318748
 21
38.487162766017491
 31
0.0
  0
LINE
  5
3D6D
  8
TITLE
 10
124.5491310620004
 20
37.67088536880317
 30
0.0
 11
125.3654084592149
 21
38.487162766017491
 31
0.0
  0
LINE
  5
3D6E
  8
TITLE
 10
125.3741686879834
 20
34.044394489821457
 30
0.0
 11
126.5601945220492
 21
35.230420323887301
 31
0.0
  0
LINE
  5
3D6F
  8
TITLE
 10
125.66539193621109
 20
34.248332865401949
 30
0.0
 11
126.3562561464687
 21
34.939197075659081
 31
0.0
  0
LINE
  5
3D70
  8
TITLE
 10
124.01661645152031
 20
38.360358975367149
 30
0.0
 11
124.1434202421719
 21
38.487162766017953
 31
0.0
  0
LINE
  5
3D71
  8
TITLE
 10
123.9053333632428
 20
38.423645632392997
 30
0.0
 11
123.96885049686711
 21
38.487162766017718
 31
0.0
  0
LINE
  5
3D72
  8
TITLE
 10
123.962145854266
 20
38.393173250769571
 30
0.0
 11
124.05613536951429
 21
38.487162766017718
 31
0.0
  0
LINE
  5
3D73
  8
TITLE
 10
124.1188514460177
 20
38.28802422457489
 30
0.0
 11
124.3179899874612
 21
38.487162766017718
 31
0.0
  0
LINE
  5
3D74
  8
TITLE
 10
124.06883018163811
 20
38.32528783283783
 30
0.0
 11
124.2307051148191
 21
38.487162766017953
 31
0.0
  0
LINE
  5
3D75
  8
TITLE
 10
124.1667265869232
 20
38.248614492810589
 30
0.0
 11
124.4052748601343
 21
38.487162766017953
 31
0.0
  0
LINE
  5
3D76
  8
TITLE
 10
124.29769997573059
 20
38.11773326371042
 30
0.0
 11
124.66712947803759
 21
38.487162766017718
 31
0.0
  0
LINE
  5
3D77
  8
TITLE
 10
124.2561433951964
 20
38.163461555839831
 30
0.0
 11
124.5798446053718
 21
38.487162766017718
 31
0.0
  0
LINE
  5
3D78
  8
TITLE
 10
124.2124856345076
 20
38.207088667754761
 30
0.0
 11
124.49255973277469
 21
38.487162766017718
 31
0.0
  0
LINE
  5
3D79
  8
TITLE
 10
124.33714078677851
 20
38.069889202111881
 30
0.0
 11
124.7544143506848
 21
38.487162766017718
 31
0.0
  0
LINE
  5
3D7A
  8
TITLE
 10
124.4095396027069
 20
37.967718272745863
 30
0.0
 11
124.92898409597861
 21
38.487162766017718
 31
0.0
  0
LINE
  5
3D7B
  8
TITLE
 10
124.472894695139
 20
37.8565036198844
 30
0.0
 11
125.1035538412729
 21
38.487162766017718
 31
0.0
  0
LINE
  5
3D7C
  8
TITLE
 10
124.5264229374816
 20
37.735462116931792
 30
0.0
 11
125.2781235865677
 21
38.487162766017718
 31
0.0
  0
LINE
  5
3D7D
  8
TITLE
 10
124.5009526056255
 20
37.79727665772316
 30
0.0
 11
125.1908387139206
 21
38.487162766017718
 31
0.0
  0
LINE
  5
3D7E
  8
TITLE
 10
124.4423873928958
 20
37.913281190288103
 30
0.0
 11
125.01626896862579
 21
38.487162766017718
 31
0.0
  0
LINE
  5
3D7F
  8
TITLE
 10
124.3744360268479
 20
38.019899569533891
 30
0.0
 11
124.8416992233324
 21
38.487162766017718
 31
0.0
  0
LINE
  5
3D80
  8
TITLE
 10
125.1618332045709
 20
33.91934387905394
 30
0.0
 11
126.6852451328141
 21
35.442755807295839
 31
0.0
  0
LINE
  5
3D81
  8
TITLE
 10
124.98272433684311
 20
33.827519883972172
 30
0.0
 11
126.7770691278983
 21
35.621864675026593
 31
0.0
  0
LINE
  5
3D82
  8
TITLE
 10
124.67774191356369
 20
33.697107205987209
 30
0.0
 11
126.90748180588299
 21
35.926847098305757
 31
0.0
  0
LINE
  5
3D83
  8
TITLE
 10
124.8234209858055
 20
33.755501405585392
 30
0.0
 11
126.8490876062874
 21
35.781168026070418
 31
0.0
  0
LINE
  5
3D84
  8
TITLE
 10
123.9605466579464
 20
33.503621186252651
 30
0.0
 11
127.10096782561681
 21
36.644042353919083
 31
0.0
  0
LINE
  5
3D85
  8
TITLE
 10
124.06731190958
 20
33.52310156523879
 30
0.0
 11
127.0814874466309
 21
36.53727710228555
 31
0.0
  0
LINE
  5
3D86
  8
TITLE
 10
124.1781613964545
 20
33.546666179466342
 30
0.0
 11
127.057922832404
 21
36.42642761541606
 31
0.0
  0
LINE
  5
3D87
  8
TITLE
 10
124.41470140681891
 20
33.608636444536273
 30
0.0
 11
126.9959525673339
 21
36.189887605051467
 31
0.0
  0
LINE
  5
3D88
  8
TITLE
 10
124.2936969420907
 20
33.574916852455203
 30
0.0
 11
127.029672159415
 21
36.310892069779811
 31
0.0
  0
LINE
  5
3D89
  8
TITLE
 10
124.5422261388139
 20
33.648876303887853
 30
0.0
 11
126.9557127079824
 21
36.0623628730566
 31
0.0
  0
LINE
  5
3D8A
  8
TITLE
 10
123.8460696877482
 20
38.451666829545729
 30
0.0
 11
123.8815656242204
 21
38.487162766017718
 31
0.0
  0
LINE
  5
3D8B
  8
TITLE
 10
123.78421616629061
 20
38.477098180735197
 30
0.0
 11
123.79428075157369
 21
38.487162766017718
 31
0.0
  0
LINE
  5
3D8C
  8
TITLE
 10
129.5928977933286
 20
37.096399006216082
 30
0.0
 11
130.87271801804991
 21
38.376219230933998
 31
0.0
  0
LINE
  5
3D8D
  8
TITLE
 10
129.5928977933286
 20
37.183683878863242
 30
0.0
 11
130.87271801804991
 21
38.463504103580817
 31
0.0
  0
LINE
  5
3D8E
  8
TITLE
 10
129.79509420735749
 20
37.036740802303832
 30
0.0
 11
130.87271801804991
 21
38.114364612995928
 31
0.0
  0
LINE
  5
3D8F
  8
TITLE
 10
129.70780933471079
 20
37.036740802303832
 30
0.0
 11
130.87271801804991
 21
38.201649485642747
 31
0.0
  0
LINE
  5
3D90
  8
TITLE
 10
129.62052446206371
 20
37.036740802303832
 30
0.0
 11
130.87271801804991
 21
38.288934358286269
 31
0.0
  0
LINE
  5
3D91
  8
TITLE
 10
129.5928977933286
 20
37.270968751506757
 30
0.0
 11
130.87271801804991
 21
38.550788976224339
 31
0.0
  0
LINE
  5
3D92
  8
TITLE
 10
129.5928977933286
 20
37.358253624153797
 30
0.0
 11
130.87271801804991
 21
38.638073848871159
 31
0.0
  0
LINE
  5
3D93
  8
TITLE
 10
130.14423369794659
 20
37.036740802303832
 30
0.0
 11
130.87271801804991
 21
37.765225122407173
 31
0.0
  0
LINE
  5
3D94
  8
TITLE
 10
130.05694882529949
 20
37.036740802303832
 30
0.0
 11
130.87271801804991
 21
37.85250999505422
 31
0.0
  0
LINE
  5
3D95
  8
TITLE
 10
129.9696639526523
 20
37.036740802303832
 30
0.0
 11
130.87271801804991
 21
37.939794867701501
 31
0.0
  0
LINE
  5
3D96
  8
TITLE
 10
129.88237908000519
 20
37.036740802303832
 30
0.0
 11
130.87271801804991
 21
38.02707974034854
 31
0.0
  0
LINE
  5
3D97
  8
TITLE
 10
130.4060883158881
 20
37.036740802303832
 30
0.0
 11
130.87271801804991
 21
37.503370504469217
 31
0.0
  0
LINE
  5
3D98
  8
TITLE
 10
130.31880344324051
 20
37.036740802303832
 30
0.0
 11
130.87271801804991
 21
37.590655377112739
 31
0.0
  0
LINE
  5
3D99
  8
TITLE
 10
130.23151857059429
 20
37.036740802303832
 30
0.0
 11
130.87271801804991
 21
37.677940249759899
 31
0.0
  0
LINE
  5
3D9A
  8
TITLE
 10
130.6679429338223
 20
37.036740802303832
 30
0.0
 11
130.87271801804991
 21
37.241515886531147
 31
0.0
  0
LINE
  5
3D9B
  8
TITLE
 10
130.5806580611752
 20
37.036740802303832
 30
0.0
 11
130.87271801804991
 21
37.328800759175117
 31
0.0
  0
LINE
  5
3D9C
  8
TITLE
 10
130.49337318852761
 20
37.036740802303832
 30
0.0
 11
130.87271801804991
 21
37.416085631822291
 31
0.0
  0
LINE
  5
3D9D
  8
TITLE
 10
130.84251267911671
 20
37.036740802303832
 30
0.0
 11
130.87271801804991
 21
37.066946141237047
 31
0.0
  0
LINE
  5
3D9E
  8
TITLE
 10
130.75522780646949
 20
37.036740802303832
 30
0.0
 11
130.87271801804991
 21
37.154231013884221
 31
0.0
  0
LINE
  5
3D9F
  8
TITLE
 10
130.1617067820934
 20
35.221231560875033
 30
0.0
 11
130.28856433812999
 21
35.348089116911297
 31
0.0
  0
LINE
  5
3DA0
  8
TITLE
 10
130.1617067820934
 20
35.308516433522193
 30
0.0
 11
130.20127946548291
 21
35.348089116911297
 31
0.0
  0
LINE
  5
3DA1
  8
TITLE
 10
130.1617067820934
 20
34.959376942936842
 30
0.0
 11
130.55041895606419
 21
35.348089116911297
 31
0.0
  0
LINE
  5
3DA2
  8
TITLE
 10
130.1617067820934
 20
35.046661815584123
 30
0.0
 11
130.46313408342439
 21
35.348089116911297
 31
0.0
  0
LINE
  5
3DA3
  8
TITLE
 10
130.1617067820934
 20
35.133946688231163
 30
0.0
 11
130.3758492107772
 21
35.348089116911297
 31
0.0
  0
LINE
  5
3DA4
  8
TITLE
 10
130.45312780235281
 20
34.290664364088229
 30
0.0
 11
131.51055255517619
 21
35.348089116911297
 31
0.0
  0
LINE
  5
3DA5
  8
TITLE
 10
130.36584292970559
 20
34.290664364088229
 30
0.0
 11
131.42326768253579
 21
35.348089116911297
 31
0.0
  0
LINE
  5
3DA6
  8
TITLE
 10
130.27855805706531
 20
34.290664364088229
 30
0.0
 11
131.33598280988869
 21
35.348089116911297
 31
0.0
  0
LINE
  5
3DA7
  8
TITLE
 10
130.19127318441861
 20
34.290664364088229
 30
0.0
 11
131.2486979372415
 21
35.348089116911297
 31
0.0
  0
LINE
  5
3DA8
  8
TITLE
 10
130.1617067820934
 20
34.348382834410593
 30
0.0
 11
131.1614130645944
 21
35.348089116911297
 31
0.0
  0
LINE
  5
3DA9
  8
TITLE
 10
130.1617067820934
 20
34.435667707057519
 30
0.0
 11
131.07412819194721
 21
35.348089116911297
 31
0.0
  0
LINE
  5
3DAA
  8
TITLE
 10
130.1617067820934
 20
34.522952579704679
 30
0.0
 11
130.98684331930011
 21
35.348089116911297
 31
0.0
  0
LINE
  5
3DAB
  8
TITLE
 10
130.1617067820934
 20
34.610237452351953
 30
0.0
 11
130.89955844665289
 21
35.348089116911297
 31
0.0
  0
LINE
  5
3DAC
  8
TITLE
 10
130.1617067820934
 20
34.697522324999341
 30
0.0
 11
130.8122735740057
 21
35.348089116911297
 31
0.0
  0
LINE
  5
3DAD
  8
TITLE
 10
130.1617067820934
 20
34.78480719764616
 30
0.0
 11
130.7249887013586
 21
35.348089116911297
 31
0.0
  0
LINE
  5
3DAE
  8
TITLE
 10
130.1617067820934
 20
34.87209207029332
 30
0.0
 11
130.63770382871141
 21
35.348089116911297
 31
0.0
  0
LINE
  5
3DAF
  8
TITLE
 10
129.5928977933286
 20
39.45309056766758
 30
0.0
 11
129.98504240998449
 21
39.845235184330818
 31
0.0
  0
LINE
  5
3DB0
  8
TITLE
 10
129.5928977933286
 20
39.54037544031474
 30
0.0
 11
129.8977575373446
 21
39.845235184330818
 31
0.0
  0
LINE
  5
3DB1
  8
TITLE
 10
129.5928977933286
 20
39.365805695020413
 30
0.0
 11
130.0723272826321
 21
39.845235184330818
 31
0.0
  0
LINE
  5
3DB2
  8
TITLE
 10
129.5928977933286
 20
39.714945185609167
 30
0.0
 11
129.72318779205031
 21
39.845235184330818
 31
0.0
  0
LINE
  5
3DB3
  8
TITLE
 10
129.5928977933286
 20
39.8022300582561
 30
0.0
 11
129.63590291940321
 21
39.845235184330818
 31
0.0
  0
LINE
  5
3DB4
  8
TITLE
 10
129.5928977933286
 20
39.627660312961893
 30
0.0
 11
129.8104726646975
 21
39.845235184330818
 31
0.0
  0
LINE
  5
3DB6
  8
TITLE
 10
139.875
 20
52.5
 30
0.0
 11
139.875
 21
42.5
 31
0.0
  0
LINE
  5
3DB7
  8
TITLE
 10
147.91010233164701
 20
34.290664364088229
 30
0.0
 11
149.34393512367021
 21
35.724497156111063
 31
0.0
  0
LINE
  5
3DB8
  8
TITLE
 10
147.82281745899991
 20
34.290664364088229
 30
0.0
 11
149.3898134447486
 21
35.857660349836813
 31
0.0
  0
LINE
  5
3DB9
  8
TITLE
 10
147.6481874641326
 20
34.901598223037809
 30
0.0
 11
149.80271833445661
 21
37.056129093358102
 31
0.0
  0
LINE
  5
3DBA
  8
TITLE
 10
147.6481874641326
 20
34.988883095681111
 30
0.0
 11
149.84859665553489
 21
37.189292287084299
 31
0.0
  0
LINE
  5
3DBB
  8
TITLE
 10
147.6481874641326
 20
35.076167968328377
 30
0.0
 11
149.89447497660649
 21
37.32245548080607
 31
0.0
  0
LINE
  5
3DBC
  8
TITLE
 10
147.6481874641326
 20
35.163452840975879
 30
0.0
 11
149.94035329768531
 21
37.455618674532161
 31
0.0
  0
LINE
  5
3DBD
  8
TITLE
 10
147.6481874641326
 20
35.25073771361906
 30
0.0
 11
149.9862316187637
 21
37.588781868257684
 31
0.0
  0
LINE
  5
3DBE
  8
TITLE
 10
147.6481874641326
 20
35.338022586266447
 30
0.0
 11
150.03210993984251
 21
37.721945061983433
 31
0.0
  0
LINE
  5
3DBF
  8
TITLE
 10
147.6481874641326
 20
34.639743605096221
 30
0.0
 11
149.66508337122059
 21
36.656639512184711
 31
0.0
  0
LINE
  5
3DC0
  8
TITLE
 10
147.6481874641326
 20
34.727028477743488
 30
0.0
 11
149.71096169229889
 21
36.789802705910347
 31
0.0
  0
LINE
  5
3DC1
  8
TITLE
 10
147.6481874641326
 20
34.814313350390762
 30
0.0
 11
149.75684001337819
 21
36.922965899635869
 31
0.0
  0
LINE
  5
3DC2
  8
TITLE
 10
147.73553258635269
 20
34.290664364088229
 30
0.0
 11
149.43569176582741
 21
35.99082354356279
 31
0.0
  0
LINE
  5
3DC3
  8
TITLE
 10
147.64824771371281
 20
34.290664364088229
 30
0.0
 11
149.4815700869062
 21
36.123986737284781
 31
0.0
  0
LINE
  5
3DC4
  8
TITLE
 10
147.6481874641326
 20
34.377888987154734
 30
0.0
 11
149.52744840798459
 21
36.257149931010652
 31
0.0
  0
LINE
  5
3DC5
  8
TITLE
 10
147.6481874641326
 20
34.465173859801901
 30
0.0
 11
149.5733267290629
 21
36.390313124733098
 31
0.0
  0
LINE
  5
3DC6
  8
TITLE
 10
147.6481874641326
 20
34.552458732449281
 30
0.0
 11
149.6192050501422
 21
36.523476318458393
 31
0.0
  0
LINE
  5
3DC7
  8
TITLE
 10
138.17835846748949
 20
36.778802670431219
 30
0.0
 11
141.22079048910419
 21
39.821234692053849
 31
0.0
  0
LINE
  5
3DC8
  8
TITLE
 10
138.17835846748949
 20
36.8660875430785
 30
0.0
 11
141.11257891923881
 21
39.800307994835073
 31
0.0
  0
LINE
  5
3DC9
  8
TITLE
 10
138.17835846748949
 20
36.953372415725539
 30
0.0
 11
141.00176757038659
 21
39.776781518622784
 31
0.0
  0
LINE
  5
3DCA
  8
TITLE
 10
138.17835846748949
 20
37.04065728837282
 30
0.0
 11
140.88812516274169
 21
39.750423983625872
 31
0.0
  0
LINE
  5
3DCB
  8
TITLE
 10
138.17835846748949
 20
37.127942161019639
 30
0.0
 11
140.7713804755158
 21
39.72096416904629
 31
0.0
  0
LINE
  5
3DCC
  8
TITLE
 10
138.17835846748949
 20
37.215227033663162
 30
0.0
 11
140.651211909133
 21
39.68808047531104
 31
0.0
  0
LINE
  5
3DCD
  8
TITLE
 10
138.0822591989286
 20
37.206412637753488
 30
0.0
 11
140.5272332402119
 21
39.651386679040797
 31
0.0
  0
LINE
  5
3DCE
  8
TITLE
 10
139.62562638847379
 20
38.13878571877558
 30
0.0
 11
141.32660142470601
 21
39.839760755008342
 31
0.0
  0
LINE
  5
3DCF
  8
TITLE
 10
137.7761585635744
 20
37.07488174768617
 30
0.0
 11
140.26584947541551
 21
39.564572659535202
 31
0.0
  0
LINE
  5
3DD0
  8
TITLE
 10
137.635039327627
 20
37.021047384393448
 30
0.0
 11
140.12712112781171
 21
39.51312918457802
 31
0.0
  0
LINE
  5
3DD1
  8
TITLE
 10
137.50014370117421
 20
36.973436630584501
 30
0.0
 11
139.98182835518631
 21
39.455121284592558
 31
0.0
  0
LINE
  5
3DD2
  8
TITLE
 10
137.37058204309909
 20
36.931159845160103
 30
0.0
 11
139.82868408240751
 21
39.38926188446851
 31
0.0
  0
LINE
  5
3DD3
  8
TITLE
 10
137.9246858038359
 20
37.13612411530471
 30
0.0
 11
140.39897371736879
 21
39.610412028840528
 31
0.0
  0
LINE
  5
3DD4
  8
TITLE
 10
133.71760201976389
 20
38.689841925901881
 30
0.0
 11
134.87299527818959
 21
39.845235184330818
 31
0.0
  0
LINE
  5
3DD5
  8
TITLE
 10
133.63031714711681
 20
38.689841925901881
 30
0.0
 11
134.7857104055424
 21
39.845235184330818
 31
0.0
  0
LINE
  5
3DD6
  8
TITLE
 10
133.54303227447011
 20
38.689841925901881
 30
0.0
 11
134.69842553289479
 21
39.845235184330818
 31
0.0
  0
LINE
  5
3DD7
  8
TITLE
 10
133.45574740182241
 20
38.689841925901881
 30
0.0
 11
134.6111406602476
 21
39.845235184330818
 31
0.0
  0
LINE
  5
3DD8
  8
TITLE
 10
133.3684625291757
 20
38.689841925901881
 30
0.0
 11
134.5238557876082
 21
39.845235184330818
 31
0.0
  0
LINE
  5
3DD9
  8
TITLE
 10
133.2811776565286
 20
38.689841925901881
 30
0.0
 11
134.43657091496101
 21
39.845235184330818
 31
0.0
  0
LINE
  5
3DDA
  8
TITLE
 10
133.19389278388141
 20
38.689841925901881
 30
0.0
 11
134.34928604231391
 21
39.845235184330818
 31
0.0
  0
LINE
  5
3DDB
  8
TITLE
 10
133.1066079112411
 20
38.689841925901881
 30
0.0
 11
134.26200116966669
 21
39.845235184330818
 31
0.0
  0
LINE
  5
3DDC
  8
TITLE
 10
133.01932303859391
 20
38.689841925901881
 30
0.0
 11
134.17471629701959
 21
39.845235184330818
 31
0.0
  0
LINE
  5
3DDD
  8
TITLE
 10
132.93203816594681
 20
38.689841925901881
 30
0.0
 11
134.0874314243724
 21
39.845235184330818
 31
0.0
  0
LINE
  5
3DDE
  8
TITLE
 10
132.84475329329959
 20
38.689841925901881
 30
0.0
 11
134.00014655172521
 21
39.845235184330818
 31
0.0
  0
LINE
  5
3DDF
  8
TITLE
 10
132.7574684206524
 20
38.689841925901881
 30
0.0
 11
133.91286167907759
 21
39.845235184330818
 31
0.0
  0
LINE
  5
3DE0
  8
TITLE
 10
132.6701835480057
 20
38.689841925901881
 30
0.0
 11
133.82557680643089
 21
39.845235184330818
 31
0.0
  0
LINE
  5
3DE1
  8
TITLE
 10
132.58289867535811
 20
38.689841925901881
 30
0.0
 11
133.73829193378381
 21
39.845235184330818
 31
0.0
  0
LINE
  5
3DE2
  8
TITLE
 10
132.4956138027114
 20
38.689841925901881
 30
0.0
 11
133.6510070611366
 21
39.845235184330818
 31
0.0
  0
LINE
  5
3DE3
  8
TITLE
 10
132.40832893006379
 20
38.689841925901881
 30
0.0
 11
133.56372218849631
 21
39.845235184330818
 31
0.0
  0
LINE
  5
3DE4
  8
TITLE
 10
132.32104405741711
 20
38.689841925901881
 30
0.0
 11
133.4764373158491
 21
39.845235184330818
 31
0.0
  0
LINE
  5
3DE5
  8
TITLE
 10
132.2337591847772
 20
38.689841925901881
 30
0.0
 11
133.38915244320239
 21
39.845235184330818
 31
0.0
  0
LINE
  5
3DE6
  8
TITLE
 10
132.14647431213001
 20
38.689841925901881
 30
0.0
 11
133.3018675705552
 21
39.845235184330818
 31
0.0
  0
LINE
  5
3DE7
  8
TITLE
 10
132.0591894394824
 20
38.689841925901881
 30
0.0
 11
133.21458269790759
 21
39.845235184330818
 31
0.0
  0
LINE
  5
3DE8
  8
TITLE
 10
131.97190456683569
 20
38.689841925901881
 30
0.0
 11
133.12729782526091
 21
39.845235184330818
 31
0.0
  0
LINE
  5
3DE9
  8
TITLE
 10
131.8846196941881
 20
38.689841925901881
 30
0.0
 11
133.04001295261381
 21
39.845235184330818
 31
0.0
  0
LINE
  5
3DEA
  8
TITLE
 10
131.79733482154089
 20
38.689841925901881
 30
0.0
 11
132.95272807996659
 21
39.845235184330818
 31
0.0
  0
LINE
  5
3DEB
  8
TITLE
 10
131.71004994889381
 20
38.689841925901881
 30
0.0
 11
132.8654432073194
 21
39.845235184330818
 31
0.0
  0
LINE
  5
3DEC
  8
TITLE
 10
131.62276507624659
 20
38.689841925901881
 30
0.0
 11
132.7781583346723
 21
39.845235184330818
 31
0.0
  0
LINE
  5
3DED
  8
TITLE
 10
137.2456657119819
 20
36.893528386682988
 30
0.0
 11
139.66589271248861
 21
39.313755387196807
 31
0.0
  0
LINE
  5
3DEE
  8
TITLE
 10
133.8234146472609
 20
38.621084808108321
 30
0.0
 11
135.04756502348391
 21
39.845235184330818
 31
0.0
  0
LINE
  5
3DEF
  8
TITLE
 10
133.8048868924111
 20
38.689841925901881
 30
0.0
 11
134.9602801508363
 21
39.845235184330818
 31
0.0
  0
LINE
  5
3DF0
  8
TITLE
 10
133.8234146472609
 20
38.533799935460941
 30
0.0
 11
135.13484989613099
 21
39.845235184330818
 31
0.0
  0
LINE
  5
3DF1
  8
TITLE
 10
133.8234146472609
 20
38.097375572224898
 30
0.0
 11
135.1387854337799
 21
39.412746358744023
 31
0.0
  0
LINE
  5
3DF2
  8
TITLE
 10
133.8234146472609
 20
38.184660444872179
 30
0.0
 11
135.1387854337799
 21
39.500031231391397
 31
0.0
  0
LINE
  5
3DF3
  8
TITLE
 10
133.8234146472609
 20
38.27194531751946
 30
0.0
 11
135.1387854337799
 21
39.587316104038223
 31
0.0
  0
LINE
  5
3DF4
  8
TITLE
 10
133.8234146472609
 20
38.3592301901665
 30
0.0
 11
135.1387854337799
 21
39.674600976685163
 31
0.0
  0
LINE
  5
3DF5
  8
TITLE
 10
133.8234146472609
 20
38.446515062813781
 30
0.0
 11
135.1387854337799
 21
39.761885849332543
 31
0.0
  0
LINE
  5
3DF6
  8
TITLE
 10
133.8234146472609
 20
38.010090699581497
 30
0.0
 11
135.1387854337799
 21
39.325461486096742
 31
0.0
  0
LINE
  5
3DF7
  8
TITLE
 10
135.6009427371518
 20
37.60549697330714
 30
0.0
 11
135.81755557183391
 21
37.822109807993463
 31
0.0
  0
LINE
  5
3DF8
  8
TITLE
 10
135.6009427371518
 20
37.692781845951352
 30
0.0
 11
135.72795005783831
 21
37.819789166644803
 31
0.0
  0
LINE
  5
3DF9
  8
TITLE
 10
135.6009427371518
 20
37.256357482722137
 30
0.0
 11
136.19123603529621
 21
37.846650780866639
 31
0.0
  0
LINE
  5
3DFA
  8
TITLE
 10
135.6009427371518
 20
37.343642355369411
 30
0.0
 11
136.09535955470389
 21
37.838059172922272
 31
0.0
  0
LINE
  5
3DFB
  8
TITLE
 10
135.6009427371518
 20
37.430927228016571
 30
0.0
 11
136.00118090381011
 21
37.831165394675402
 31
0.0
  0
LINE
  5
3DFC
  8
TITLE
 10
135.6009427371518
 20
37.518212100660087
 30
0.0
 11
135.90860738553459
 21
37.825876749046763
 31
0.0
  0
LINE
  5
3DFD
  8
TITLE
 10
135.6009427371518
 20
37.081787737427817
 30
0.0
 11
136.3885090000158
 21
37.869354000292219
 31
0.0
  0
LINE
  5
3DFE
  8
TITLE
 10
135.6009427371518
 20
37.169072610075091
 30
0.0
 11
136.28891381967969
 21
37.857043692603838
 31
0.0
  0
LINE
  5
3DFF
  8
TITLE
 10
135.61900412636621
 20
36.663424763414127
 30
0.0
 11
136.92053195825559
 21
37.964952595300467
 31
0.0
  0
LINE
  5
3E00
  8
TITLE
 10
135.6009427371518
 20
36.732648246842928
 30
0.0
 11
136.8089712692263
 21
37.940676778921222
 31
0.0
  0
LINE
  5
3E01
  8
TITLE
 10
135.6009427371518
 20
36.819933119486791
 30
0.0
 11
136.7002008248237
 21
37.919191207166477
 31
0.0
  0
LINE
  5
3E02
  8
TITLE
 10
135.6009427371518
 20
36.907217992133837
 30
0.0
 11
136.5939931766024
 21
37.900268431588408
 31
0.0
  0
LINE
  5
3E03
  8
TITLE
 10
135.6009427371518
 20
36.994502864780877
 30
0.0
 11
136.4901525553237
 21
37.883712682960208
 31
0.0
  0
LINE
  5
3E04
  8
TITLE
 10
133.62269831766571
 20
36.238246662352033
 30
0.0
 11
135.1387854337799
 21
37.754333778462069
 31
0.0
  0
LINE
  5
3E05
  8
TITLE
 10
133.69985969700789
 20
36.402692914337308
 30
0.0
 11
135.1387854337799
 21
37.841618651109457
 31
0.0
  0
LINE
  5
3E06
  8
TITLE
 10
133.74817320077909
 20
36.538291290752461
 30
0.0
 11
135.1387854337799
 21
37.928903523756958
 31
0.0
  0
LINE
  5
3E07
  8
TITLE
 10
133.78033264299981
 20
36.657735605623998
 30
0.0
 11
135.1387854337799
 21
38.016188396400253
 31
0.0
  0
LINE
  5
3E08
  8
TITLE
 10
133.80161933378349
 20
36.766307169047543
 30
0.0
 11
135.1387854337799
 21
38.10347326904764
 31
0.0
  0
LINE
  5
3E09
  8
TITLE
 10
133.56978837649461
 20
34.526924140895737
 30
0.0
 11
134.9025256569725
 21
35.859661421373183
 31
0.0
  0
LINE
  5
3E0A
  8
TITLE
 10
133.7429555842746
 20
34.612806476028247
 30
0.0
 11
134.81664332183931
 21
35.686494213593278
 31
0.0
  0
LINE
  5
3E0B
  8
TITLE
 10
133.45254868230811
 20
35.980812154347291
 30
0.0
 11
135.1387854337799
 21
37.66704890581525
 31
0.0
  0
LINE
  5
3E0C
  8
TITLE
 10
133.4204500329497
 20
34.464870669998277
 30
0.0
 11
134.96457912786991
 21
36.008999764918258
 31
0.0
  0
LINE
  5
3E0D
  8
TITLE
 10
133.28613763006021
 20
34.417843139748243
 30
0.0
 11
135.01160665811989
 21
36.14331216780807
 31
0.0
  0
LINE
  5
3E0E
  8
TITLE
 10
133.1625056264688
 20
34.381496008807517
 30
0.0
 11
135.0479537890574
 21
36.26694417139948
 31
0.0
  0
LINE
  5
3E0F
  8
TITLE
 10
133.04702469539049
 20
34.353299950380233
 30
0.0
 11
135.0761498474881
 21
36.382425102474137
 31
0.0
  0
LINE
  5
3E10
  8
TITLE
 10
132.93806686818101
 20
34.331626995810318
 30
0.0
 11
135.09782280205761
 21
36.491382929686893
 31
0.0
  0
LINE
  5
3E11
  8
TITLE
 10
132.83451018011959
 20
34.315355180399933
 30
0.0
 11
135.11409461746459
 21
36.594939617748203
 31
0.0
  0
LINE
  5
3E12
  8
TITLE
 10
132.73554203711231
 20
34.303671910036307
 30
0.0
 11
135.1257778878321
 21
36.693907760755678
 31
0.0
  0
LINE
  5
3E13
  8
TITLE
 10
132.64055128721469
 20
34.295966032789131
 30
0.0
 11
135.1334837650752
 21
36.788898510649801
 31
0.0
  0
LINE
  5
3E14
  8
TITLE
 10
132.54906446653101
 20
34.291764084749389
 30
0.0
 11
135.13768571311849
 21
36.880385331336917
 31
0.0
  0
LINE
  5
3E15
  8
TITLE
 10
132.46067987322289
 20
34.290664364088229
 30
0.0
 11
135.1387854337799
 21
36.96876992464513
 31
0.0
  0
LINE
  5
3E16
  8
TITLE
 10
132.37339500057581
 20
34.290664364088229
 30
0.0
 11
135.1387854337799
 21
37.056054797292518
 31
0.0
  0
LINE
  5
3E17
  8
TITLE
 10
132.28611012792911
 20
34.290664364088229
 30
0.0
 11
135.1387854337799
 21
37.143339669935813
 31
0.0
  0
LINE
  5
3E18
  8
TITLE
 10
132.19882525528141
 20
34.290664364088229
 30
0.0
 11
135.1387854337799
 21
37.230624542582973
 31
0.0
  0
LINE
  5
3E19
  8
TITLE
 10
132.11154038264161
 20
34.290664364088229
 30
0.0
 11
135.1387854337799
 21
37.317909415226502
 31
0.0
  0
LINE
  5
3E1A
  8
TITLE
 10
132.02425550999391
 20
34.290664364088229
 30
0.0
 11
135.1387854337799
 21
37.405194287873996
 31
0.0
  0
LINE
  5
3E1B
  8
TITLE
 10
131.9369706373472
 20
34.290664364088229
 30
0.0
 11
135.1387854337799
 21
37.492479160520823
 31
0.0
  0
LINE
  5
3E1C
  8
TITLE
 10
131.8496857647001
 20
34.290664364088229
 30
0.0
 11
135.1387854337799
 21
37.57976403316809
 31
0.0
  0
LINE
  5
3E1D
  8
TITLE
 10
131.76240089205291
 20
34.290664364088229
 30
0.0
 11
133.19069160982869
 21
35.718955081863903
 31
0.0
  0
LINE
  5
3E1E
  8
TITLE
 10
131.67511601940581
 20
34.290664364088229
 30
0.0
 11
132.9332571018235
 21
35.548805446506208
 31
0.0
  0
LINE
  5
3E1F
  8
TITLE
 10
131.58783114675859
 20
34.290664364088229
 30
0.0
 11
132.76881084983461
 21
35.471644067164789
 31
0.0
  0
LINE
  5
3E20
  8
TITLE
 10
133.8234146472609
 20
37.573666336349341
 30
0.0
 11
135.1387854337799
 21
38.889037122868103
 31
0.0
  0
LINE
  5
3E21
  8
TITLE
 10
133.8234146472609
 20
37.660951208996487
 30
0.0
 11
135.1387854337799
 21
38.97632199551186
 31
0.0
  0
LINE
  5
3E22
  8
TITLE
 10
133.8234146472609
 20
37.48638146370206
 30
0.0
 11
135.1387854337799
 21
38.801752250220829
 31
0.0
  0
LINE
  5
3E23
  8
TITLE
 10
133.8234146472609
 20
37.049957100469783
 30
0.0
 11
135.1387854337799
 21
38.365327886985142
 31
0.0
  0
LINE
  5
3E24
  8
TITLE
 10
133.8234146472609
 20
37.137241973117057
 30
0.0
 11
135.1387854337799
 21
38.45261275963253
 31
0.0
  0
LINE
  5
3E25
  8
TITLE
 10
133.81484334510969
 20
36.866816053027613
 30
0.0
 11
135.1387854337799
 21
38.190758141694353
 31
0.0
  0
LINE
  5
3E26
  8
TITLE
 10
133.82171391762631
 20
36.960971498188201
 30
0.0
 11
135.1387854337799
 21
38.278043014338209
 31
0.0
  0
LINE
  5
3E27
  8
TITLE
 10
133.8234146472609
 20
37.22452684576092
 30
0.0
 11
135.1387854337799
 21
38.539897632279811
 31
0.0
  0
LINE
  5
3E28
  8
TITLE
 10
133.8234146472609
 20
37.311811718408201
 30
0.0
 11
135.1387854337799
 21
38.627182504926623
 31
0.0
  0
LINE
  5
3E29
  8
TITLE
 10
133.8234146472609
 20
37.399096591054899
 30
0.0
 11
135.1387854337799
 21
38.714467377573783
 31
0.0
  0
LINE
  5
3E2A
  8
TITLE
 10
133.9649085022256
 20
34.747474521331917
 30
0.0
 11
134.68197527653589
 21
35.46454129564291
 31
0.0
  0
LINE
  5
3E2B
  8
TITLE
 10
133.8234146472609
 20
37.748236081643427
 30
0.0
 11
135.1387854337799
 21
39.063606868159127
 31
0.0
  0
LINE
  5
3E2C
  8
TITLE
 10
133.8234146472609
 20
37.835520954290587
 30
0.0
 11
135.1387854337799
 21
39.150891740802649
 31
0.0
  0
LINE
  5
3E2D
  8
TITLE
 10
133.8234146472609
 20
37.922805826934223
 30
0.0
 11
135.1387854337799
 21
39.23817661344993
 31
0.0
  0
LINE
  5
3E2E
  8
TITLE
 10
135.6009427371518
 20
37.780066718598171
 30
0.0
 11
135.63972242446201
 21
37.81884640591602
 31
0.0
  0
LINE
  5
3E2F
  8
TITLE
 10
136.8938219711826
 20
36.803539263828839
 30
0.0
 11
139.08383951003401
 21
38.993556802679791
 31
0.0
  0
LINE
  5
3E30
  8
TITLE
 10
136.78294519211201
 20
36.779947357401397
 30
0.0
 11
138.82879720034271
 21
38.825799365632179
 31
0.0
  0
LINE
  5
3E31
  8
TITLE
 10
136.56917158942679
 20
36.74074350000717
 30
0.0
 11
138.29336139830909
 21
38.464933308892803
 31
0.0
  0
LINE
  5
3E32
  8
TITLE
 10
136.4658662677252
 20
36.724723050955852
 30
0.0
 11
138.1211753907109
 21
38.38003217394192
 31
0.0
  0
LINE
  5
3E33
  8
TITLE
 10
136.67480150505571
 20
36.759088542992458
 30
0.0
 11
138.4835440896168
 21
38.567831127553411
 31
0.0
  0
LINE
  5
3E34
  8
TITLE
 10
137.12484853071871
 20
36.859996078069798
 30
0.0
 11
139.4908127055173
 21
39.225960252872262
 31
0.0
  0
LINE
  5
3E35
  8
TITLE
 10
137.00768852730599
 20
36.830120947300998
 30
0.0
 11
139.29926065819831
 21
39.121693078193744
 31
0.0
  0
LINE
  5
3E36
  8
TITLE
 10
136.36472098974991
 20
36.710862645627799
 30
0.0
 11
137.96114514669441
 21
38.30728680256891
 31
0.0
  0
LINE
  5
3E37
  8
TITLE
 10
136.26559155389481
 20
36.69901808241287
 30
0.0
 11
137.81064334461729
 21
38.244069873139097
 31
0.0
  0
LINE
  5
3E38
  8
TITLE
 10
138.17835846748949
 20
36.42966317984633
 30
0.0
 11
139.4937292540007
 21
37.745033966361802
 31
0.0
  0
LINE
  5
3E39
  8
TITLE
 10
138.17835846748949
 20
36.516948052493262
 30
0.0
 11
139.4937292540007
 21
37.832318839008849
 31
0.0
  0
LINE
  5
3E3A
  8
TITLE
 10
138.17835846748949
 20
36.604232925136792
 30
0.0
 11
139.4937292540007
 21
37.919603711655903
 31
0.0
  0
LINE
  5
3E3B
  8
TITLE
 10
138.17835846748949
 20
36.691517797784059
 30
0.0
 11
139.4937292540007
 21
38.006888584302828
 31
0.0
  0
LINE
  5
3E3C
  8
TITLE
 10
138.17835846748949
 20
36.16780856190838
 30
0.0
 11
139.4937292540007
 21
37.483179348423732
 31
0.0
  0
LINE
  5
3E3D
  8
TITLE
 10
138.17835846748949
 20
36.255093434555192
 30
0.0
 11
139.4937292540007
 21
37.570464221067247
 31
0.0
  0
LINE
  5
3E3E
  8
TITLE
 10
138.17835846748949
 20
36.342378307199169
 30
0.0
 11
139.4937292540007
 21
37.657749093714528
 31
0.0
  0
LINE
  5
3E3F
  8
TITLE
 10
138.17835846748949
 20
35.993238816613832
 30
0.0
 11
139.4937292540007
 21
37.308609603133171
 31
0.0
  0
LINE
  5
3E40
  8
TITLE
 10
138.17835846748949
 20
36.080523689261099
 30
0.0
 11
139.4937292540007
 21
37.395894475776458
 31
0.0
  0
LINE
  5
3E41
  8
TITLE
 10
139.4434696849448
 20
34.290664364088229
 30
0.0
 11
139.4937292540007
 21
34.34092393315121
 31
0.0
  0
LINE
  5
3E42
  8
TITLE
 10
139.3561848122977
 20
34.290664364088229
 30
0.0
 11
139.4937292540007
 21
34.428208805798818
 31
0.0
  0
LINE
  5
3E43
  8
TITLE
 10
139.26889993965091
 20
34.290664364088229
 30
0.0
 11
139.4937292540007
 21
34.515493678445871
 31
0.0
  0
LINE
  5
3E44
  8
TITLE
 10
139.1816150670038
 20
34.290664364088229
 30
0.0
 11
139.4937292540007
 21
34.602778551089159
 31
0.0
  0
LINE
  5
3E45
  8
TITLE
 10
139.09433019435619
 20
34.290664364088229
 30
0.0
 11
139.4937292540007
 21
34.690063423736319
 31
0.0
  0
LINE
  5
3E46
  8
TITLE
 10
139.007045321709
 20
34.290664364088229
 30
0.0
 11
139.4937292540007
 21
34.777348296383373
 31
0.0
  0
LINE
  5
3E47
  8
TITLE
 10
138.91976044906181
 20
34.290664364088229
 30
0.0
 11
139.4937292540007
 21
34.864633169026888
 31
0.0
  0
LINE
  5
3E48
  8
TITLE
 10
138.39605121318621
 20
34.290664364088229
 30
0.0
 11
139.4937292540007
 21
35.388342404909849
 31
0.0
  0
LINE
  5
3E49
  8
TITLE
 10
138.30876634053951
 20
34.290664364088229
 30
0.0
 11
139.4937292540007
 21
35.47562727755713
 31
0.0
  0
LINE
  5
3E4A
  8
TITLE
 10
138.48333608583329
 20
34.290664364088229
 30
0.0
 11
139.4937292540007
 21
35.301057532262803
 31
0.0
  0
LINE
  5
3E4B
  8
TITLE
 10
138.83247557641471
 20
34.290664364088229
 30
0.0
 11
139.4937292540007
 21
34.951918041674048
 31
0.0
  0
LINE
  5
3E4C
  8
TITLE
 10
138.74519070376749
 20
34.290664364088229
 30
0.0
 11
139.4937292540007
 21
35.039202914321208
 31
0.0
  0
LINE
  5
3E4D
  8
TITLE
 10
138.65790583112039
 20
34.290664364088229
 30
0.0
 11
139.4937292540007
 21
35.126487786968603
 31
0.0
  0
LINE
  5
3E4E
  8
TITLE
 10
138.5706209584805
 20
34.290664364088229
 30
0.0
 11
139.4937292540007
 21
35.213772659615529
 31
0.0
  0
LINE
  5
3E4F
  8
TITLE
 10
138.22148146789181
 20
34.290664364088229
 30
0.0
 11
139.4937292540007
 21
35.562912150200532
 31
0.0
  0
LINE
  5
3E50
  8
TITLE
 10
138.17835846748949
 20
34.334826236332219
 30
0.0
 11
139.4937292540007
 21
35.650197022847692
 31
0.0
  0
LINE
  5
3E51
  8
TITLE
 10
138.17835846748949
 20
34.422111108979493
 30
0.0
 11
139.4937292540007
 21
35.737481895494859
 31
0.0
  0
LINE
  5
3E52
  8
TITLE
 10
138.17835846748949
 20
34.509395981623129
 30
0.0
 11
139.4937292540007
 21
35.824766768138382
 31
0.0
  0
LINE
  5
3E53
  8
TITLE
 10
138.17835846748949
 20
34.596680854269948
 30
0.0
 11
139.4937292540007
 21
35.912051640785648
 31
0.0
  0
LINE
  5
3E54
  8
TITLE
 10
138.17835846748949
 20
34.858535472208018
 30
0.0
 11
139.4937292540007
 21
36.173906258726788
 31
0.0
  0
LINE
  5
3E55
  8
TITLE
 10
138.17835846748949
 20
34.945820344855179
 30
0.0
 11
139.4937292540007
 21
36.261191131374183
 31
0.0
  0
LINE
  5
3E56
  8
TITLE
 10
138.17835846748949
 20
35.033105217502218
 30
0.0
 11
139.4937292540007
 21
36.348476004021222
 31
0.0
  0
LINE
  5
3E57
  8
TITLE
 10
138.17835846748949
 20
35.120390090149499
 30
0.0
 11
139.4937292540007
 21
36.435760876664858
 31
0.0
  0
LINE
  5
3E58
  8
TITLE
 10
138.17835846748949
 20
35.207674962796773
 30
0.0
 11
139.4937292540007
 21
36.523045749312018
 31
0.0
  0
LINE
  5
3E59
  8
TITLE
 10
138.17835846748949
 20
35.294959835443599
 30
0.0
 11
139.4937292540007
 21
36.610330621959072
 31
0.0
  0
LINE
  5
3E5A
  8
TITLE
 10
138.17835846748949
 20
34.683965726917343
 30
0.0
 11
139.4937292540007
 21
35.999336513432702
 31
0.0
  0
LINE
  5
3E5B
  8
TITLE
 10
138.17835846748949
 20
34.771250599561078
 30
0.0
 11
139.4937292540007
 21
36.086621386079862
 31
0.0
  0
LINE
  5
3E5C
  8
TITLE
 10
138.17835846748949
 20
35.38224470809098
 30
0.0
 11
139.4937292540007
 21
36.697615494602807
 31
0.0
  0
LINE
  5
3E5D
  8
TITLE
 10
138.17835846748949
 20
35.469529580734729
 30
0.0
 11
139.4937292540007
 21
36.784900367250088
 31
0.0
  0
LINE
  5
3E5E
  8
TITLE
 10
138.17835846748949
 20
35.556814453381662
 30
0.0
 11
139.4937292540007
 21
36.872185239897249
 31
0.0
  0
LINE
  5
3E5F
  8
TITLE
 10
138.17835846748949
 20
35.644099326025639
 30
0.0
 11
139.4937292540007
 21
36.959470112544302
 31
0.0
  0
LINE
  5
3E60
  8
TITLE
 10
138.17835846748949
 20
35.731384198672799
 30
0.0
 11
139.4937292540007
 21
37.046754985191342
 31
0.0
  0
LINE
  5
3E61
  8
TITLE
 10
138.17835846748949
 20
35.818669071319619
 30
0.0
 11
139.4937292540007
 21
37.134039857838388
 31
0.0
  0
LINE
  5
3E62
  8
TITLE
 10
138.17835846748949
 20
35.905953943966892
 30
0.0
 11
139.4937292540007
 21
37.221324730485662
 31
0.0
  0
LINE
  5
3E63
  8
TITLE
 10
135.886889893708
 20
36.66945591281808
 30
0.0
 11
137.27488665635019
 21
38.057452675456943
 31
0.0
  0
LINE
  5
3E64
  8
TITLE
 10
135.7961874517286
 20
36.666038343485411
 30
0.0
 11
137.15314117007529
 21
38.022992061829079
 31
0.0
  0
LINE
  5
3E65
  8
TITLE
 10
135.70691449470951
 20
36.66405025911024
 30
0.0
 11
137.03514973620389
 21
37.992285500604801
 31
0.0
  0
LINE
  5
3E66
  8
TITLE
 10
136.16835074212031
 20
36.689062143292738
 30
0.0
 11
137.66788887180061
 21
38.1886002729658
 31
0.0
  0
LINE
  5
3E67
  8
TITLE
 10
136.07288564064129
 20
36.680881914460663
 30
0.0
 11
137.5316075596383
 21
38.139603833454309
 31
0.0
  0
LINE
  5
3E68
  8
TITLE
 10
135.979095482638
 20
36.674376629097758
 30
0.0
 11
137.40085015379191
 21
38.0961313002515
 31
0.0
  0
LINE
  5
3E69
  8
TITLE
 10
140.3678826130585
 20
38.444617580124941
 30
0.0
 11
141.3601337483824
 21
39.43686871545242
 31
0.0
  0
LINE
  5
3E6A
  8
TITLE
 10
139.79104971230299
 20
38.216924169958247
 30
0.0
 11
141.3601337483824
 21
39.786008206037309
 31
0.0
  0
LINE
  5
3E6B
  8
TITLE
 10
140.23350378221721
 20
38.397523621927242
 30
0.0
 11
141.3601337483824
 21
39.524153588095828
 31
0.0
  0
LINE
  5
3E6C
  8
TITLE
 10
140.09331629552699
 20
38.344621007887781
 30
0.0
 11
141.3601337483824
 21
39.611438460742882
 31
0.0
  0
LINE
  5
3E6D
  8
TITLE
 10
139.9462940002563
 20
38.284883585264197
 30
0.0
 11
141.3601337483824
 21
39.698723333390149
 31
0.0
  0
LINE
  5
3E6E
  8
TITLE
 10
145.37981592444291
 20
38.743167768598482
 30
0.0
 11
146.49193640720199
 21
39.855288251358161
 31
0.0
  0
LINE
  5
3E6F
  8
TITLE
 10
145.29253105179581
 20
38.743167768598482
 30
0.0
 11
146.40465153455531
 21
39.855288251358161
 31
0.0
  0
LINE
  5
3E70
  8
TITLE
 10
145.20524617914859
 20
38.743167768598482
 30
0.0
 11
146.3173666619081
 21
39.855288251358161
 31
0.0
  0
LINE
  5
3E71
  8
TITLE
 10
145.4671007970901
 20
38.743167768598482
 30
0.0
 11
146.57922127984961
 21
39.855288251358161
 31
0.0
  0
LINE
  5
3E72
  8
TITLE
 10
146.1653797782601
 20
38.743167768598482
 30
0.0
 11
146.7549315011947
 21
39.332719491533339
 31
0.0
  0
LINE
  5
3E73
  8
TITLE
 10
146.07809490561289
 20
38.743167768598482
 30
0.0
 11
146.7549315011947
 21
39.420004364180272
 31
0.0
  0
LINE
  5
3E74
  8
TITLE
 10
145.9908100329653
 20
38.743167768598482
 30
0.0
 11
146.7549315011947
 21
39.507289236827553
 31
0.0
  0
LINE
  5
3E75
  8
TITLE
 10
145.90352516031859
 20
38.743167768598482
 30
0.0
 11
146.7549315011947
 21
39.594574109474713
 31
0.0
  0
LINE
  5
3E76
  8
TITLE
 10
145.81624028767101
 20
38.743167768598482
 30
0.0
 11
146.7549315011947
 21
39.681858982121753
 31
0.0
  0
LINE
  5
3E77
  8
TITLE
 10
145.72895541502379
 20
38.743167768598482
 30
0.0
 11
146.7549315011947
 21
39.76914385476573
 31
0.0
  0
LINE
  5
3E78
  8
TITLE
 10
145.64167054237669
 20
38.743167768598482
 30
0.0
 11
146.75379102514401
 21
39.855288251358161
 31
0.0
  0
LINE
  5
3E79
  8
TITLE
 10
145.55438566973001
 20
38.743167768598482
 30
0.0
 11
146.66650615249631
 21
39.855288251358161
 31
0.0
  0
LINE
  5
3E7A
  8
TITLE
 10
145.117961306501
 20
38.743167768598482
 30
0.0
 11
146.23008178926099
 21
39.855288251358161
 31
0.0
  0
LINE
  5
3E7B
  8
TITLE
 10
145.03067643385381
 20
38.743167768598482
 30
0.0
 11
146.1427969166138
 21
39.855288251358161
 31
0.0
  0
LINE
  5
3E7C
  8
TITLE
 10
144.94339156120711
 20
38.743167768598482
 30
0.0
 11
146.0555120439667
 21
39.855288251358161
 31
0.0
  0
LINE
  5
3E7D
  8
TITLE
 10
141.8134034113063
 20
39.19185939720262
 30
0.0
 11
142.47683226546221
 21
39.855288251358161
 31
0.0
  0
LINE
  5
3E7E
  8
TITLE
 10
141.8134034113063
 20
39.279144269850008
 30
0.0
 11
142.3895473928151
 21
39.855288251358161
 31
0.0
  0
LINE
  5
3E7F
  8
TITLE
 10
141.8134034113063
 20
39.104574524555233
 30
0.0
 11
142.56411713810891
 21
39.855288251358161
 31
0.0
  0
LINE
  5
3E80
  8
TITLE
 10
142.06299076387259
 20
38.743167768598482
 30
0.0
 11
143.17511124663179
 21
39.855288251358161
 31
0.0
  0
LINE
  5
3E81
  8
TITLE
 10
141.975705891225
 20
38.743167768598482
 30
0.0
 11
143.0878263739919
 21
39.855288251358161
 31
0.0
  0
LINE
  5
3E82
  8
TITLE
 10
141.8884210185779
 20
38.743167768598482
 30
0.0
 11
143.00054150134471
 21
39.855288251358161
 31
0.0
  0
LINE
  5
3E83
  8
TITLE
 10
141.8134034113063
 20
38.755435033966698
 30
0.0
 11
142.91325662869801
 21
39.855288251358161
 31
0.0
  0
LINE
  5
3E84
  8
TITLE
 10
141.8134034113063
 20
38.842719906613873
 30
0.0
 11
142.82597175605039
 21
39.855288251358161
 31
0.0
  0
LINE
  5
3E85
  8
TITLE
 10
141.8134034113063
 20
38.93000477926126
 30
0.0
 11
142.73868688340369
 21
39.855288251358161
 31
0.0
  0
LINE
  5
3E86
  8
TITLE
 10
141.8134034113063
 20
39.017289651908072
 30
0.0
 11
142.6514020107561
 21
39.855288251358161
 31
0.0
  0
LINE
  5
3E87
  8
TITLE
 10
140.49723749477741
 20
38.48668758919689
 30
0.0
 11
141.3601337483824
 21
39.349583842805153
 31
0.0
  0
LINE
  5
3E88
  8
TITLE
 10
142.15027563651941
 20
38.743167768598482
 30
0.0
 11
143.2623961192794
 21
39.855288251358161
 31
0.0
  0
LINE
  5
3E89
  8
TITLE
 10
142.23756050916651
 20
38.743167768598482
 30
0.0
 11
143.3496809919265
 21
39.855288251358161
 31
0.0
  0
LINE
  5
3E8A
  8
TITLE
 10
142.67398487240229
 20
38.743167768598482
 30
0.0
 11
143.78610535516231
 21
39.855288251358161
 31
0.0
  0
LINE
  5
3E8B
  8
TITLE
 10
142.58669999975521
 20
38.743167768598482
 30
0.0
 11
143.69882048251469
 21
39.855288251358161
 31
0.0
  0
LINE
  5
3E8C
  8
TITLE
 10
142.49941512710799
 20
38.743167768598482
 30
0.0
 11
143.61153560986801
 21
39.855288251358161
 31
0.0
  0
LINE
  5
3E8D
  8
TITLE
 10
142.41213025446129
 20
38.743167768598482
 30
0.0
 11
143.5242507372204
 21
39.855288251358161
 31
0.0
  0
LINE
  5
3E8E
  8
TITLE
 10
142.3248453818141
 20
38.743167768598482
 30
0.0
 11
143.43696586457369
 21
39.855288251358161
 31
0.0
  0
LINE
  5
3E8F
  8
TITLE
 10
143.28497898092559
 20
38.743167768598482
 30
0.0
 11
144.39709946368521
 21
39.855288251358161
 31
0.0
  0
LINE
  5
3E90
  8
TITLE
 10
143.19769410827851
 20
38.743167768598482
 30
0.0
 11
144.30981459103759
 21
39.855288251358161
 31
0.0
  0
LINE
  5
3E91
  8
TITLE
 10
143.11040923563081
 20
38.743167768598482
 30
0.0
 11
144.2225297183904
 21
39.855288251358161
 31
0.0
  0
LINE
  5
3E92
  8
TITLE
 10
143.02312436298411
 20
38.743167768598482
 30
0.0
 11
144.1352448457437
 21
39.855288251358161
 31
0.0
  0
LINE
  5
3E93
  8
TITLE
 10
142.935839490337
 20
38.743167768598482
 30
0.0
 11
144.04795997309611
 21
39.855288251358161
 31
0.0
  0
LINE
  5
3E94
  8
TITLE
 10
142.84855461768981
 20
38.743167768598482
 30
0.0
 11
143.96067510045671
 21
39.855288251358161
 31
0.0
  0
LINE
  5
3E95
  8
TITLE
 10
142.7612697450495
 20
38.743167768598482
 30
0.0
 11
143.87339022780901
 21
39.855288251358161
 31
0.0
  0
LINE
  5
3E96
  8
TITLE
 10
143.66203262479209
 20
37.549093704824031
 30
0.0
 11
145.96822717131951
 21
39.855288251358161
 31
0.0
  0
LINE
  5
3E97
  8
TITLE
 10
143.66203262479209
 20
37.636378577471191
 30
0.0
 11
145.88094229867241
 21
39.855288251358161
 31
0.0
  0
LINE
  5
3E98
  8
TITLE
 10
143.66203262479209
 20
38.509227303935518
 30
0.0
 11
145.008093572208
 21
39.855288251358161
 31
0.0
  0
LINE
  5
3E99
  8
TITLE
 10
143.66203262479209
 20
38.596512176582912
 30
0.0
 11
144.9208086995682
 21
39.855288251358161
 31
0.0
  0
LINE
  5
3E9A
  8
TITLE
 10
143.66203262479209
 20
38.683797049229838
 30
0.0
 11
144.83352382692101
 21
39.855288251358161
 31
0.0
  0
LINE
  5
3E9B
  8
TITLE
 10
143.6341184715138
 20
38.743167768598482
 30
0.0
 11
144.74623895427339
 21
39.855288251358161
 31
0.0
  0
LINE
  5
3E9C
  8
TITLE
 10
143.54683359886661
 20
38.743167768598482
 30
0.0
 11
144.65895408162669
 21
39.855288251358161
 31
0.0
  0
LINE
  5
3E9D
  8
TITLE
 10
143.45954872621951
 20
38.743167768598482
 30
0.0
 11
144.57166920897899
 21
39.855288251358161
 31
0.0
  0
LINE
  5
3E9E
  8
TITLE
 10
143.3722638535728
 20
38.743167768598482
 30
0.0
 11
144.48438433633231
 21
39.855288251358161
 31
0.0
  0
LINE
  5
3E9F
  8
TITLE
 10
143.66203262479209
 20
37.723663450118238
 30
0.0
 11
145.79365742603201
 21
39.855288251358161
 31
0.0
  0
LINE
  5
3EA0
  8
TITLE
 10
143.66203262479209
 20
37.810948322765739
 30
0.0
 11
145.7063725533848
 21
39.855288251358161
 31
0.0
  0
LINE
  5
3EA1
  8
TITLE
 10
143.66203262479209
 20
37.898233195412793
 30
0.0
 11
145.61908768073809
 21
39.855288251358161
 31
0.0
  0
LINE
  5
3EA2
  8
TITLE
 10
143.66203262479209
 20
37.985518068059598
 30
0.0
 11
145.53180280809099
 21
39.855288251358161
 31
0.0
  0
LINE
  5
3EA3
  8
TITLE
 10
143.66203262479209
 20
38.072802940706993
 30
0.0
 11
145.4445179354438
 21
39.855288251358161
 31
0.0
  0
LINE
  5
3EA4
  8
TITLE
 10
143.66203262479209
 20
38.160087813350742
 30
0.0
 11
145.35723306279669
 21
39.855288251358161
 31
0.0
  0
LINE
  5
3EA5
  8
TITLE
 10
143.66203262479209
 20
38.247372685997682
 30
0.0
 11
145.26994819014911
 21
39.855288251358161
 31
0.0
  0
LINE
  5
3EA6
  8
TITLE
 10
143.66203262479209
 20
38.334657558645063
 30
0.0
 11
145.1826633175024
 21
39.855288251358161
 31
0.0
  0
LINE
  5
3EA7
  8
TITLE
 10
143.66203262479209
 20
38.421942431288358
 30
0.0
 11
145.09537844485521
 21
39.855288251358161
 31
0.0
  0
LINE
  5
3EA8
  8
TITLE
 10
143.66203262479209
 20
36.501675233069022
 30
0.0
 11
144.90630228770851
 21
37.745944895988828
 31
0.0
  0
LINE
  5
3EA9
  8
TITLE
 10
143.66203262479209
 20
36.588960105712317
 30
0.0
 11
144.90630228770851
 21
37.833229768635867
 31
0.0
  0
LINE
  5
3EAA
  8
TITLE
 10
143.66203262479209
 20
36.676244978359477
 30
0.0
 11
144.90630228770851
 21
37.920514641283148
 31
0.0
  0
LINE
  5
3EAB
  8
TITLE
 10
143.66203262479209
 20
36.763529851006979
 30
0.0
 11
144.90630228770851
 21
38.007799513930308
 31
0.0
  0
LINE
  5
3EAC
  8
TITLE
 10
143.66203262479209
 20
36.850814723653798
 30
0.0
 11
144.90630228770851
 21
38.095084386577241
 31
0.0
  0
LINE
  5
3EAD
  8
TITLE
 10
143.66203262479209
 20
36.938099596301413
 30
0.0
 11
144.90630228770851
 21
38.182369259224629
 31
0.0
  0
LINE
  5
3EAE
  8
TITLE
 10
143.66203262479209
 20
37.025384468948232
 30
0.0
 11
144.90630228770851
 21
38.269654131867931
 31
0.0
  0
LINE
  5
3EAF
  8
TITLE
 10
143.66203262479209
 20
37.112669341595172
 30
0.0
 11
144.90630228770851
 21
38.356939004515198
 31
0.0
  0
LINE
  5
3EB0
  8
TITLE
 10
143.66203262479209
 20
37.199954214242439
 30
0.0
 11
144.90630228770851
 21
38.444223877158841
 31
0.0
  0
LINE
  5
3EB1
  8
TITLE
 10
143.66203262479209
 20
37.287239086885961
 30
0.0
 11
144.90630228770851
 21
38.53150874980588
 31
0.0
  0
LINE
  5
3EB2
  8
TITLE
 10
143.66203262479209
 20
37.374523959533583
 30
0.0
 11
144.90630228770851
 21
38.618793622452813
 31
0.0
  0
LINE
  5
3EB3
  8
TITLE
 10
143.66203262479209
 20
37.461808832177098
 30
0.0
 11
144.90630228770851
 21
38.706078495100087
 31
0.0
  0
LINE
  5
3EB4
  8
TITLE
 10
143.66203262479209
 20
36.239820615130732
 30
0.0
 11
144.90630228770851
 21
37.484090278050871
 31
0.0
  0
LINE
  5
3EB5
  8
TITLE
 10
143.66203262479209
 20
36.327105487774702
 30
0.0
 11
144.90630228770851
 21
37.571375150694401
 31
0.0
  0
LINE
  5
3EB6
  8
TITLE
 10
143.66203262479209
 20
36.414390360421862
 30
0.0
 11
144.90630228770851
 21
37.658660023341547
 31
0.0
  0
LINE
  5
3EB7
  8
TITLE
 10
143.66203262479209
 20
36.065250869836753
 30
0.0
 11
144.90630228770851
 21
37.309520532756778
 31
0.0
  0
LINE
  5
3EB8
  8
TITLE
 10
143.66203262479209
 20
36.152535742483799
 30
0.0
 11
144.90630228770851
 21
37.396805405404052
 31
0.0
  0
LINE
  5
3EB9
  8
TITLE
 10
143.8077133172664
 20
34.290664364088229
 30
0.0
 11
144.93623919368559
 21
35.419190240506971
 31
0.0
  0
LINE
  5
3EBA
  8
TITLE
 10
143.7204284446197
 20
34.290664364088229
 30
0.0
 11
144.90630228770851
 21
35.476538207184262
 31
0.0
  0
LINE
  5
3EBB
  8
TITLE
 10
143.6331435719726
 20
34.290664364088229
 30
0.0
 11
144.90630228770851
 21
35.563823079827557
 31
0.0
  0
LINE
  5
3EBC
  8
TITLE
 10
143.54585869932541
 20
34.290664364088229
 30
0.0
 11
144.90630228770851
 21
35.651107952474717
 31
0.0
  0
LINE
  5
3EBD
  8
TITLE
 10
143.4585738266783
 20
34.290664364088229
 30
0.0
 11
144.90630228770851
 21
35.73839282511824
 31
0.0
  0
LINE
  5
3EBE
  8
TITLE
 10
143.66203262479209
 20
35.454256761310262
 30
0.0
 11
144.90630228770851
 21
36.69852642422984
 31
0.0
  0
LINE
  5
3EBF
  8
TITLE
 10
143.66203262479209
 20
35.541541633957763
 30
0.0
 11
144.90630228770851
 21
36.785811296877121
 31
0.0
  0
LINE
  5
3EC0
  8
TITLE
 10
143.66203262479209
 20
35.628826506604241
 30
0.0
 11
144.90630228770851
 21
36.873096169524501
 31
0.0
  0
LINE
  5
3EC1
  8
TITLE
 10
143.66203262479209
 20
35.716111379247756
 30
0.0
 11
144.90630228770851
 21
36.960381042171427
 31
0.0
  0
LINE
  5
3EC2
  8
TITLE
 10
143.66203262479209
 20
35.803396251895151
 30
0.0
 11
144.90630228770851
 21
37.047665914818602
 31
0.0
  0
LINE
  5
3EC3
  8
TITLE
 10
143.66203262479209
 20
35.890681124542539
 30
0.0
 11
144.90630228770851
 21
37.134950787465641
 31
0.0
  0
LINE
  5
3EC4
  8
TITLE
 10
143.66203262479209
 20
35.977965997189933
 30
0.0
 11
144.90630228770851
 21
37.222235660112801
 31
0.0
  0
LINE
  5
3EC5
  8
TITLE
 10
143.37128895403109
 20
34.290664364088229
 30
0.0
 11
144.90630228770851
 21
35.825677697765506
 31
0.0
  0
LINE
  5
3EC6
  8
TITLE
 10
143.2840040813839
 20
34.290664364088229
 30
0.0
 11
144.90630228770851
 21
35.912962570412787
 31
0.0
  0
LINE
  5
3EC7
  8
TITLE
 10
143.19671920873679
 20
34.290664364088229
 30
0.0
 11
144.90630228770851
 21
36.000247443059827
 31
0.0
  0
LINE
  5
3EC8
  8
TITLE
 10
143.10943433609009
 20
34.290664364088229
 30
0.0
 11
144.90630228770851
 21
36.087532315707108
 31
0.0
  0
LINE
  5
3EC9
  8
TITLE
 10
143.02214946344969
 20
34.290664364088229
 30
0.0
 11
144.90630228770851
 21
36.174817188353821
 31
0.0
  0
LINE
  5
3ECA
  8
TITLE
 10
142.93486459080211
 20
34.290664364088229
 30
0.0
 11
144.90630228770851
 21
36.262102061001201
 31
0.0
  0
LINE
  5
3ECB
  8
TITLE
 10
142.8475797181554
 20
34.290664364088229
 30
0.0
 11
144.90630228770851
 21
36.349386933648823
 31
0.0
  0
LINE
  5
3ECC
  8
TITLE
 10
142.76029484550821
 20
34.290664364088229
 30
0.0
 11
144.90630228770851
 21
36.436671806292338
 31
0.0
  0
LINE
  5
3ECD
  8
TITLE
 10
142.67300997286111
 20
34.290664364088229
 30
0.0
 11
144.90630228770851
 21
36.523956678939157
 31
0.0
  0
LINE
  5
3ECE
  8
TITLE
 10
142.58572510021389
 20
34.290664364088229
 30
0.0
 11
144.90630228770851
 21
36.611241551586318
 31
0.0
  0
LINE
  5
3ECF
  8
TITLE
 10
142.06201586433821
 20
34.290664364088229
 30
0.0
 11
143.190541740757
 21
35.419190240506971
 31
0.0
  0
LINE
  5
3ED0
  8
TITLE
 10
141.97473099169059
 20
34.290664364088229
 30
0.0
 11
143.10325686810981
 21
35.419190240506971
 31
0.0
  0
LINE
  5
3ED1
  8
TITLE
 10
141.88744611904389
 20
34.290664364088229
 30
0.0
 11
143.01597199546271
 21
35.419190240506971
 31
0.0
  0
LINE
  5
3ED2
  8
TITLE
 10
141.80016124639681
 20
34.290664364088229
 30
0.0
 11
142.92868712281501
 21
35.419190240506971
 31
0.0
  0
LINE
  5
3ED3
  8
TITLE
 10
141.71287637374959
 20
34.290664364088229
 30
0.0
 11
142.8414022501683
 21
35.419190240506971
 31
0.0
  0
LINE
  5
3ED4
  8
TITLE
 10
141.62559150110241
 20
34.290664364088229
 30
0.0
 11
142.75411737752071
 21
35.419190240506971
 31
0.0
  0
LINE
  5
3ED5
  8
TITLE
 10
141.53830662845479
 20
34.290664364088229
 30
0.0
 11
142.66683250487401
 21
35.419190240506971
 31
0.0
  0
LINE
  5
3ED6
  8
TITLE
 10
141.45102175580769
 20
34.290664364088229
 30
0.0
 11
142.57954763222691
 21
35.419190240506971
 31
0.0
  0
LINE
  5
3ED7
  8
TITLE
 10
141.36373688316101
 20
34.290664364088229
 30
0.0
 11
142.49226275957969
 21
35.419190240506971
 31
0.0
  0
LINE
  5
3ED8
  8
TITLE
 10
141.3601337483824
 20
34.37434610195703
 30
0.0
 11
142.4049778869325
 21
35.419190240506971
 31
0.0
  0
LINE
  5
3ED9
  8
TITLE
 10
141.3601337483824
 20
34.461630974603743
 30
0.0
 11
142.31769301429259
 21
35.419190240506971
 31
0.0
  0
LINE
  5
3EDA
  8
TITLE
 10
141.3601337483824
 20
34.548915847251131
 30
0.0
 11
142.23040814164551
 21
35.419190240506971
 31
0.0
  0
LINE
  5
3EDB
  8
TITLE
 10
141.3601337483824
 20
34.636200719898277
 30
0.0
 11
142.14312326899829
 21
35.419190240506971
 31
0.0
  0
LINE
  5
3EDC
  8
TITLE
 10
141.3601337483824
 20
35.24719482842125
 30
0.0
 11
141.5321291604682
 21
35.419190240506971
 31
0.0
  0
LINE
  5
3EDD
  8
TITLE
 10
141.3601337483824
 20
35.33447970106829
 30
0.0
 11
141.44484428782829
 21
35.419190240506971
 31
0.0
  0
LINE
  5
3EDE
  8
TITLE
 10
141.3601337483824
 20
34.985340210479762
 30
0.0
 11
141.79398377840971
 21
35.419190240506971
 31
0.0
  0
LINE
  5
3EDF
  8
TITLE
 10
141.3601337483824
 20
35.072625083126923
 30
0.0
 11
141.70669890576249
 21
35.419190240506971
 31
0.0
  0
LINE
  5
3EE0
  8
TITLE
 10
141.3601337483824
 20
35.159909955773969
 30
0.0
 11
141.61941403311491
 21
35.419190240506971
 31
0.0
  0
LINE
  5
3EE1
  8
TITLE
 10
141.3601337483824
 20
34.898055337836013
 30
0.0
 11
141.8812686510569
 21
35.419190240506971
 31
0.0
  0
LINE
  5
3EE2
  8
TITLE
 10
141.3601337483824
 20
34.72348559254533
 30
0.0
 11
142.05583839635071
 21
35.419190240506971
 31
0.0
  0
LINE
  5
3EE3
  8
TITLE
 10
141.3601337483824
 20
34.810770465188739
 30
0.0
 11
141.968553523704
 21
35.419190240506971
 31
0.0
  0
LINE
  5
3EE4
  8
TITLE
 10
142.1493007369854
 20
34.290664364088229
 30
0.0
 11
143.2778266134041
 21
35.419190240506971
 31
0.0
  0
LINE
  5
3EE5
  8
TITLE
 10
142.23658560962531
 20
34.290664364088229
 30
0.0
 11
143.36511148605081
 21
35.419190240506971
 31
0.0
  0
LINE
  5
3EE6
  8
TITLE
 10
142.49844022756679
 20
34.290664364088229
 30
0.0
 11
143.6269661039855
 21
35.419190240506971
 31
0.0
  0
LINE
  5
3EE7
  8
TITLE
 10
142.41115535491909
 20
34.290664364088229
 30
0.0
 11
143.53968123133791
 21
35.419190240506971
 31
0.0
  0
LINE
  5
3EE8
  8
TITLE
 10
142.32387048227241
 20
34.290664364088229
 30
0.0
 11
143.4523963586912
 21
35.419190240506971
 31
0.0
  0
LINE
  5
3EE9
  8
TITLE
 10
141.08655544654491
 20
38.639581177735408
 30
0.0
 11
141.3601337483824
 21
38.913159479572869
 31
0.0
  0
LINE
  5
3EEA
  8
TITLE
 10
140.9750952848899
 20
38.615405888720367
 30
0.0
 11
141.3601337483824
 21
39.000444352220264
 31
0.0
  0
LINE
  5
3EEB
  8
TITLE
 10
141.1953641685613
 20
38.661105027101478
 30
0.0
 11
141.3601337483824
 21
38.825874606925709
 31
0.0
  0
LINE
  5
3EEC
  8
TITLE
 10
141.3017276160158
 20
38.680183601908652
 30
0.0
 11
141.3601337483824
 21
38.738589734278428
 31
0.0
  0
LINE
  5
3EED
  8
TITLE
 10
140.86074372522799
 20
38.588339201709459
 30
0.0
 11
141.3601337483824
 21
39.08772922486731
 31
0.0
  0
LINE
  5
3EEE
  8
TITLE
 10
140.74321866771919
 20
38.558099016847223
 30
0.0
 11
141.3601337483824
 21
39.175014097514577
 31
0.0
  0
LINE
  5
3EEF
  8
TITLE
 10
140.62218465666271
 20
38.524349878441967
 30
0.0
 11
141.3601337483824
 21
39.262298970161403
 31
0.0
  0
LINE
  5
3EF0
  8
TITLE
 10
145.46612589754841
 20
34.290664364088229
 30
0.0
 11
146.59465177396709
 21
35.419190240506971
 31
0.0
  0
LINE
  5
3EF1
  8
TITLE
 10
145.37884102490119
 20
34.290664364088229
 30
0.0
 11
146.5073669013199
 21
35.419190240506971
 31
0.0
  0
LINE
  5
3EF2
  8
TITLE
 10
145.29155615225409
 20
34.290664364088229
 30
0.0
 11
146.42008202867279
 21
35.419190240506971
 31
0.0
  0
LINE
  5
3EF3
  8
TITLE
 10
145.2042712796069
 20
34.290664364088229
 30
0.0
 11
146.33279715602561
 21
35.419190240506971
 31
0.0
  0
LINE
  5
3EF4
  8
TITLE
 10
145.1169864069598
 20
34.290664364088229
 30
0.0
 11
146.2455122833789
 21
35.419190240506971
 31
0.0
  0
LINE
  5
3EF5
  8
TITLE
 10
146.16440487871839
 20
34.290664364088229
 30
0.0
 11
147.20820116411869
 21
35.334460649484868
 31
0.0
  0
LINE
  5
3EF6
  8
TITLE
 10
146.0771200060712
 20
34.290664364088229
 30
0.0
 11
147.20564588248999
 21
35.419190240506971
 31
0.0
  0
LINE
  5
3EF7
  8
TITLE
 10
145.98983513342409
 20
34.290664364088229
 30
0.0
 11
147.1183610098428
 21
35.419190240506971
 31
0.0
  0
LINE
  5
3EF8
  8
TITLE
 10
145.90255026077691
 20
34.290664364088229
 30
0.0
 11
147.0310761371957
 21
35.419190240506971
 31
0.0
  0
LINE
  5
3EF9
  8
TITLE
 10
145.81526538813699
 20
34.290664364088229
 30
0.0
 11
146.94379126455581
 21
35.419190240506971
 31
0.0
  0
LINE
  5
3EFA
  8
TITLE
 10
145.72798051548989
 20
34.290664364088229
 30
0.0
 11
146.85650639190911
 21
35.419190240506971
 31
0.0
  0
LINE
  5
3EFB
  8
TITLE
 10
145.6406956428427
 20
34.290664364088229
 30
0.0
 11
146.76922151926141
 21
35.419190240506971
 31
0.0
  0
LINE
  5
3EFC
  8
TITLE
 10
145.55341077019551
 20
34.290664364088229
 30
0.0
 11
146.6819366466143
 21
35.419190240506971
 31
0.0
  0
LINE
  5
3EFD
  8
TITLE
 10
145.02970153431261
 20
34.290664364088229
 30
0.0
 11
146.15822741073131
 21
35.419190240506971
 31
0.0
  0
LINE
  5
3EFE
  8
TITLE
 10
144.94241666166499
 20
34.290664364088229
 30
0.0
 11
146.07094253808421
 21
35.419190240506971
 31
0.0
  0
LINE
  5
3EFF
  8
TITLE
 10
144.85513178902551
 20
34.290664364088229
 30
0.0
 11
145.9836576654443
 21
35.419190240506971
 31
0.0
  0
LINE
  5
3F00
  8
TITLE
 10
144.7678469163784
 20
34.290664364088229
 30
0.0
 11
145.89637279279711
 21
35.419190240506971
 31
0.0
  0
LINE
  5
3F01
  8
TITLE
 10
144.6805620437317
 20
34.290664364088229
 30
0.0
 11
145.80908792014989
 21
35.419190240506971
 31
0.0
  0
LINE
  5
3F02
  8
TITLE
 10
144.59327717108411
 20
34.290664364088229
 30
0.0
 11
145.72180304750279
 21
35.419190240506971
 31
0.0
  0
LINE
  5
3F03
  8
TITLE
 10
144.50599229843689
 20
34.290664364088229
 30
0.0
 11
145.6345181748556
 21
35.419190240506971
 31
0.0
  0
LINE
  5
3F04
  8
TITLE
 10
144.41870742578971
 20
34.290664364088229
 30
0.0
 11
145.5472333022085
 21
35.419190240506971
 31
0.0
  0
LINE
  5
3F05
  8
TITLE
 10
147.1245384778299
 20
34.290664364088229
 30
0.0
 11
147.20820116411869
 21
34.374327050373147
 31
0.0
  0
LINE
  5
3F06
  8
TITLE
 10
147.03725360518271
 20
34.290664364088229
 30
0.0
 11
147.20820116411869
 21
34.461611923020321
 31
0.0
  0
LINE
  5
3F07
  8
TITLE
 10
146.94996873253561
 20
34.290664364088229
 30
0.0
 11
147.20820116411869
 21
34.548896795667702
 31
0.0
  0
LINE
  5
3F08
  8
TITLE
 10
146.86268385988839
 20
34.290664364088229
 30
0.0
 11
147.20820116411869
 21
34.636181668311004
 31
0.0
  0
LINE
  5
3F09
  8
TITLE
 10
146.77539898724169
 20
34.290664364088229
 30
0.0
 11
147.20820116411869
 21
34.72346654095805
 31
0.0
  0
LINE
  5
3F0A
  8
TITLE
 10
146.6881141146018
 20
34.290664364088229
 30
0.0
 11
147.20820116411869
 21
34.810751413605203
 31
0.0
  0
LINE
  5
3F0B
  8
TITLE
 10
146.60082924195419
 20
34.290664364088229
 30
0.0
 11
147.20820116411869
 21
34.898036286252477
 31
0.0
  0
LINE
  5
3F0C
  8
TITLE
 10
146.513544369307
 20
34.290664364088229
 30
0.0
 11
147.20820116411869
 21
34.985321158899978
 31
0.0
  0
LINE
  5
3F0D
  8
TITLE
 10
146.4262594966599
 20
34.290664364088229
 30
0.0
 11
147.20820116411869
 21
35.072606031546798
 31
0.0
  0
LINE
  5
3F0E
  8
TITLE
 10
146.33897462401271
 20
34.290664364088229
 30
0.0
 11
147.20820116411869
 21
35.159890904194071
 31
0.0
  0
LINE
  5
3F0F
  8
TITLE
 10
146.2516897513656
 20
34.290664364088229
 30
0.0
 11
147.20820116411869
 21
35.247175776841353
 31
0.0
  0
LINE
  5
3F10
  8
TITLE
 10
147.6481874641326
 20
35.42530745891316
 30
0.0
 11
147.66171308220009
 21
35.438833076981723
 31
0.0
  0
LINE
  5
3F11
  8
TITLE
 10
146.6018041414886
 20
38.743167768598482
 30
0.0
 11
146.7549315011947
 21
38.896295128301063
 31
0.0
  0
LINE
  5
3F12
  8
TITLE
 10
146.51451926884141
 20
38.743167768598482
 30
0.0
 11
146.7549315011947
 21
38.983580000948109
 31
0.0
  0
LINE
  5
3F13
  8
TITLE
 10
146.68908901413579
 20
38.743167768598482
 30
0.0
 11
146.7549315011947
 21
38.809010255654023
 31
0.0
  0
LINE
  5
3F14
  8
TITLE
 10
146.4272343961938
 20
38.743167768598482
 30
0.0
 11
146.7549315011947
 21
39.070864873592079
 31
0.0
  0
LINE
  5
3F15
  8
TITLE
 10
146.339949523554
 20
38.743167768598482
 30
0.0
 11
146.7549315011947
 21
39.158149746239253
 31
0.0
  0
LINE
  5
3F16
  8
TITLE
 10
146.25266465090681
 20
38.743167768598482
 30
0.0
 11
146.7549315011947
 21
39.245434618886293
 31
0.0
  0
LINE
  5
3F17
  8
TITLE
 10
143.89499818991359
 20
34.290664364088229
 30
0.0
 11
145.02352406633281
 21
35.419190240506971
 31
0.0
  0
LINE
  5
3F18
  8
TITLE
 10
144.3314225531426
 20
34.290664364088229
 30
0.0
 11
145.45994842956179
 21
35.419190240506971
 31
0.0
  0
LINE
  5
3F19
  8
TITLE
 10
144.24413768049541
 20
34.290664364088229
 30
0.0
 11
145.3726635569146
 21
35.419190240506971
 31
0.0
  0
LINE
  5
3F1A
  8
TITLE
 10
144.15685280784831
 20
34.290664364088229
 30
0.0
 11
145.28537868426699
 21
35.419190240506971
 31
0.0
  0
LINE
  5
3F1B
  8
TITLE
 10
144.06956793520109
 20
34.290664364088229
 30
0.0
 11
145.1980938116198
 21
35.419190240506971
 31
0.0
  0
LINE
  5
3F1C
  8
TITLE
 10
143.98228306256121
 20
34.290664364088229
 30
0.0
 11
145.11080893898
 21
35.419190240506971
 31
0.0
  0
LINE
  5
3F1D
  8
TITLE
 10
141.8134034113063
 20
39.366429142496827
 30
0.0
 11
142.3022625201674
 21
39.855288251358161
 31
0.0
  0
LINE
  5
3F1E
  8
TITLE
 10
141.8134034113063
 20
39.453714015140797
 30
0.0
 11
142.2149776475207
 21
39.855288251358161
 31
0.0
  0
LINE
  5
3F1F
  8
TITLE
 10
141.8134034113063
 20
39.715568633078192
 30
0.0
 11
141.9531230295861
 21
39.855288251358161
 31
0.0
  0
LINE
  5
3F20
  8
TITLE
 10
141.8134034113063
 20
39.8028535057257
 30
0.0
 11
141.86583815693891
 21
39.855288251358161
 31
0.0
  0
LINE
  5
3F21
  8
TITLE
 10
141.8134034113063
 20
39.540998887787509
 30
0.0
 11
142.12769277488081
 21
39.855288251358161
 31
0.0
  0
LINE
  5
3F22
  8
TITLE
 10
141.8134034113063
 20
39.628283760434897
 30
0.0
 11
142.0404079022332
 21
39.855288251358161
 31
0.0
  0
LINE
  5
3F23
  8
TITLE
 10
155.32931650659791
 20
34.290664364088229
 30
0.0
 11
156.18174856996069
 21
35.143096427454793
 31
0.0
  0
LINE
  5
3F24
  8
TITLE
 10
155.79094360563519
 20
39.029250222799988
 30
0.0
 11
156.61698163419351
 21
39.855288251358161
 31
0.0
  0
LINE
  5
3F25
  8
TITLE
 10
155.703658732988
 20
39.029250222799988
 30
0.0
 11
156.52969676154629
 21
39.855288251358161
 31
0.0
  0
LINE
  5
3F26
  8
TITLE
 10
155.6163738603409
 20
39.029250222799988
 30
0.0
 11
156.4424118888991
 21
39.855288251358161
 31
0.0
  0
LINE
  5
3F27
  8
TITLE
 10
155.52908898769331
 20
39.029250222799988
 30
0.0
 11
156.3551270162516
 21
39.855288251358161
 31
0.0
  0
LINE
  5
3F28
  8
TITLE
 10
155.44180411504661
 20
39.029250222799988
 30
0.0
 11
156.26784214360481
 21
39.855288251358161
 31
0.0
  0
LINE
  5
3F29
  8
TITLE
 10
155.35451924239939
 20
39.029250222799988
 30
0.0
 11
156.18055727095771
 21
39.855288251358161
 31
0.0
  0
LINE
  5
3F2A
  8
TITLE
 10
156.1148803604151
 20
34.290664364088229
 30
0.0
 11
157.25268124470219
 21
35.428465248375353
 31
0.0
  0
LINE
  5
3F2B
  8
TITLE
 10
156.02759548776791
 20
34.290664364088229
 30
0.0
 11
157.25268124470219
 21
35.515750121022172
 31
0.0
  0
LINE
  5
3F2C
  8
TITLE
 10
155.94031061512081
 20
34.290664364088229
 30
0.0
 11
157.25268124470219
 21
35.603034993669439
 31
0.0
  0
LINE
  5
3F2D
  8
TITLE
 10
155.8530257424809
 20
34.290664364088229
 30
0.0
 11
157.25268124470219
 21
35.690319866316493
 31
0.0
  0
LINE
  5
3F2E
  8
TITLE
 10
155.76574086983371
 20
34.290664364088229
 30
0.0
 11
157.25268124470219
 21
35.77760473896376
 31
0.0
  0
LINE
  5
3F2F
  8
TITLE
 10
155.67845599718649
 20
34.290664364088229
 30
0.0
 11
157.25268124470219
 21
35.864889611607062
 31
0.0
  0
LINE
  5
3F30
  8
TITLE
 10
155.59117112453939
 20
34.290664364088229
 30
0.0
 11
157.25268124470219
 21
35.952174484254222
 31
0.0
  0
LINE
  5
3F31
  8
TITLE
 10
155.5038862518918
 20
34.290664364088229
 30
0.0
 11
157.25268124470219
 21
36.039459356901723
 31
0.0
  0
LINE
  5
3F32
  8
TITLE
 10
155.41660137924509
 20
34.290664364088229
 30
0.0
 11
157.25268124470219
 21
36.126744229544897
 31
0.0
  0
LINE
  5
3F33
  8
TITLE
 10
156.14008309621661
 20
39.029250222799988
 30
0.0
 11
156.9661211247749
 21
39.855288251358161
 31
0.0
  0
LINE
  5
3F34
  8
TITLE
 10
156.0527982235767
 20
39.029250222799988
 30
0.0
 11
156.87883625212771
 21
39.855288251358161
 31
0.0
  0
LINE
  5
3F35
  8
TITLE
 10
155.96551335092909
 20
39.029250222799988
 30
0.0
 11
156.7915513794805
 21
39.855288251358161
 31
0.0
  0
LINE
  5
3F36
  8
TITLE
 10
155.8782284782819
 20
39.029250222799988
 30
0.0
 11
156.70426650684061
 21
39.855288251358161
 31
0.0
  0
LINE
  5
3F37
  8
TITLE
 10
148.6440165897715
 20
37.381270183664931
 30
0.0
 11
150.58264979278599
 21
39.319903386678789
 31
0.0
  0
LINE
  5
3F38
  8
TITLE
 10
148.6898949108504
 20
37.514433377390112
 30
0.0
 11
150.62852811386529
 21
39.453066580404773
 31
0.0
  0
LINE
  5
3F39
  8
TITLE
 10
148.73577323192919
 20
37.647596571116431
 30
0.0
 11
150.67440643494359
 21
39.586229774130182
 31
0.0
  0
LINE
  5
3F3A
  8
TITLE
 10
148.919286516244
 20
38.180249346016012
 30
0.0
 11
150.5943254215826
 21
39.855288251358161
 31
0.0
  0
LINE
  5
3F3B
  8
TITLE
 10
148.96516483732279
 20
38.313412539738238
 30
0.0
 11
150.50704054893549
 21
39.855288251358161
 31
0.0
  0
LINE
  5
3F3C
  8
TITLE
 10
149.01104315840121
 20
38.44657573346376
 30
0.0
 11
150.4197556762883
 21
39.855288251358161
 31
0.0
  0
LINE
  5
3F3D
  8
TITLE
 10
148.781651553008
 20
37.780759764841953
 30
0.0
 11
150.72028475602201
 21
39.719392967852627
 31
0.0
  0
LINE
  5
3F3E
  8
TITLE
 10
148.82752987408639
 20
37.913922958567703
 30
0.0
 11
150.76616307709349
 21
39.852556161578271
 31
0.0
  0
LINE
  5
3F3F
  8
TITLE
 10
148.87340819516521
 20
38.047086152290149
 30
0.0
 11
150.68161029422981
 21
39.855288251358161
 31
0.0
  0
LINE
  5
3F40
  8
TITLE
 10
149.24043476378711
 20
39.112391702089099
 30
0.0
 11
149.98333131305981
 21
39.855288251358161
 31
0.0
  0
LINE
  5
3F41
  8
TITLE
 10
149.2863130848659
 20
39.245554895811331
 30
0.0
 11
149.89604644041259
 21
39.855288251358161
 31
0.0
  0
LINE
  5
3F42
  8
TITLE
 10
149.05692147948
 20
38.57973892718951
 30
0.0
 11
150.33247080364839
 21
39.855288251358161
 31
0.0
  0
LINE
  5
3F43
  8
TITLE
 10
149.10279980055111
 20
38.712902120915707
 30
0.0
 11
150.24518593100129
 21
39.855288251358161
 31
0.0
  0
LINE
  5
3F44
  8
TITLE
 10
149.1486781216299
 20
38.846065314641351
 30
0.0
 11
150.1579010583541
 21
39.855288251358161
 31
0.0
  0
LINE
  5
3F45
  8
TITLE
 10
149.19455644270869
 20
38.979228508363349
 30
0.0
 11
150.07061618570691
 21
39.855288251358161
 31
0.0
  0
LINE
  5
3F46
  8
TITLE
 10
154.20383223845741
 20
39.275121181198188
 30
0.0
 11
154.78399930861769
 21
39.855288251358161
 31
0.0
  0
LINE
  5
3F47
  8
TITLE
 10
154.3943856432879
 20
39.029250222799988
 30
0.0
 11
155.22042367184619
 21
39.855288251358161
 31
0.0
  0
LINE
  5
3F48
  8
TITLE
 10
154.3071007706408
 20
39.029250222799988
 30
0.0
 11
155.1331387991986
 21
39.855288251358161
 31
0.0
  0
LINE
  5
3F49
  8
TITLE
 10
154.21981589800041
 20
39.029250222799988
 30
0.0
 11
155.0458539265519
 21
39.855288251358161
 31
0.0
  0
LINE
  5
3F4A
  8
TITLE
 10
154.20383223845741
 20
39.100551435903867
 30
0.0
 11
154.95856905390471
 21
39.855288251358161
 31
0.0
  0
LINE
  5
3F4B
  8
TITLE
 10
154.20383223845741
 20
39.187836308551027
 30
0.0
 11
154.8712841812648
 21
39.855288251358161
 31
0.0
  0
LINE
  5
3F4C
  8
TITLE
 10
155.2672343697522
 20
39.029250222799988
 30
0.0
 11
156.09327239831049
 21
39.855288251358161
 31
0.0
  0
LINE
  5
3F4D
  8
TITLE
 10
155.1799494971051
 20
39.029250222799988
 30
0.0
 11
156.00598752566339
 21
39.855288251358161
 31
0.0
  0
LINE
  5
3F4E
  8
TITLE
 10
155.0926646244647
 20
39.029250222799988
 30
0.0
 11
155.91870265301571
 21
39.855288251358161
 31
0.0
  0
LINE
  5
3F4F
  8
TITLE
 10
155.0053797518176
 20
39.029250222799988
 30
0.0
 11
155.83141778037589
 21
39.855288251358161
 31
0.0
  0
LINE
  5
3F50
  8
TITLE
 10
154.91809487917041
 20
39.029250222799988
 30
0.0
 11
155.7441329077287
 21
39.855288251358161
 31
0.0
  0
LINE
  5
3F51
  8
TITLE
 10
154.83081000652331
 20
39.029250222799988
 30
0.0
 11
155.65684803508199
 21
39.855288251358161
 31
0.0
  0
LINE
  5
3F52
  8
TITLE
 10
154.74352513387609
 20
39.029250222799988
 30
0.0
 11
155.56956316243441
 21
39.855288251358161
 31
0.0
  0
LINE
  5
3F53
  8
TITLE
 10
154.6562402612289
 20
39.029250222799988
 30
0.0
 11
155.4822782897877
 21
39.855288251358161
 31
0.0
  0
LINE
  5
3F54
  8
TITLE
 10
154.5689553885818
 20
39.029250222799988
 30
0.0
 11
155.39499341714051
 21
39.855288251358161
 31
0.0
  0
LINE
  5
3F55
  8
TITLE
 10
154.48167051593509
 20
39.029250222799988
 30
0.0
 11
155.30770854449341
 21
39.855288251358161
 31
0.0
  0
LINE
  5
3F56
  8
TITLE
 10
151.65865366362459
 20
37.079082096953812
 30
0.0
 11
152.2962797367959
 21
37.716708170125692
 31
0.0
  0
LINE
  5
3F57
  8
TITLE
 10
151.7071958940837
 20
36.865769709471813
 30
0.0
 11
152.5581343547305
 21
37.716708170125692
 31
0.0
  0
LINE
  5
3F58
  8
TITLE
 10
151.69101515059759
 20
36.93687383863255
 30
0.0
 11
152.47084948208339
 21
37.716708170125692
 31
0.0
  0
LINE
  5
3F59
  8
TITLE
 10
151.67483440711109
 20
37.007977967793408
 30
0.0
 11
152.38356460944351
 21
37.716708170125692
 31
0.0
  0
LINE
  5
3F5A
  8
TITLE
 10
151.90136481590611
 20
36.012520159542653
 30
0.0
 11
152.9042128980268
 21
37.015368241659978
 31
0.0
  0
LINE
  5
3F5B
  8
TITLE
 10
151.88518407242009
 20
36.083624288703497
 30
0.0
 11
152.88803215454021
 21
37.08647237082085
 31
0.0
  0
LINE
  5
3F5C
  8
TITLE
 10
151.8690033289335
 20
36.154728417864128
 30
0.0
 11
152.87185141105419
 21
37.157576499984891
 31
0.0
  0
LINE
  5
3F5D
  8
TITLE
 10
151.85282258545431
 20
36.225832547025
 30
0.0
 11
152.85567066757491
 21
37.228680629145863
 31
0.0
  0
LINE
  5
3F5E
  8
TITLE
 10
151.8366418419678
 20
36.296936676185851
 30
0.0
 11
152.83948992408841
 21
37.299784758306487
 31
0.0
  0
LINE
  5
3F5F
  8
TITLE
 10
151.82046109848119
 20
36.36804080534683
 30
0.0
 11
152.82330918060231
 21
37.370888887467352
 31
0.0
  0
LINE
  5
3F60
  8
TITLE
 10
151.8042803549952
 20
36.439144934507112
 30
0.0
 11
152.80712843711581
 21
37.441993016627862
 31
0.0
  0
LINE
  5
3F61
  8
TITLE
 10
151.78809961150861
 20
36.510249063667857
 30
0.0
 11
152.79094769362931
 21
37.513097145788841
 31
0.0
  0
LINE
  5
3F62
  8
TITLE
 10
151.77191886802251
 20
36.581353192829063
 30
0.0
 11
152.7747669501432
 21
37.584201274949471
 31
0.0
  0
LINE
  5
3F63
  8
TITLE
 10
151.75573812453561
 20
36.652457321989573
 30
0.0
 11
152.7585862066571
 21
37.655305404110443
 31
0.0
  0
LINE
  5
3F64
  8
TITLE
 10
151.73955738104951
 20
36.723561451150431
 30
0.0
 11
152.7327041000249
 21
37.716708170125692
 31
0.0
  0
LINE
  5
3F65
  8
TITLE
 10
151.7233766375634
 20
36.794665580311289
 30
0.0
 11
152.64541922737769
 21
37.716708170125692
 31
0.0
  0
LINE
  5
3F66
  8
TITLE
 10
152.01249134603449
 20
34.290664364088229
 30
0.0
 11
153.24400851122709
 21
35.52218152928026
 31
0.0
  0
LINE
  5
3F67
  8
TITLE
 10
151.92520647338779
 20
34.290664364088229
 30
0.0
 11
153.22782776774059
 21
35.593285658440891
 31
0.0
  0
LINE
  5
3F68
  8
TITLE
 10
151.8379216007406
 20
34.290664364088229
 30
0.0
 11
153.21164702425401
 21
35.664389787601863
 31
0.0
  0
LINE
  5
3F69
  8
TITLE
 10
151.75063672809301
 20
34.290664364088229
 30
0.0
 11
153.1954662807675
 21
35.735493916762273
 31
0.0
  0
LINE
  5
3F6A
  8
TITLE
 10
151.6633518554458
 20
34.290664364088229
 30
0.0
 11
153.179285537281
 21
35.806598045923238
 31
0.0
  0
LINE
  5
3F6B
  8
TITLE
 10
151.57606698279909
 20
34.290664364088229
 30
0.0
 11
153.1631047937949
 21
35.877702175083868
 31
0.0
  0
LINE
  5
3F6C
  8
TITLE
 10
151.48878211015199
 20
34.290664364088229
 30
0.0
 11
153.14692405031559
 21
35.948806304244727
 31
0.0
  0
LINE
  5
3F6D
  8
TITLE
 10
151.9822685333383
 20
35.656999513735293
 30
0.0
 11
152.98511661545899
 21
36.659847595856149
 31
0.0
  0
LINE
  5
3F6E
  8
TITLE
 10
151.9660877898518
 20
35.728103642896137
 30
0.0
 11
152.96893587197289
 21
36.730951725017007
 31
0.0
  0
LINE
  5
3F6F
  8
TITLE
 10
151.9499070463653
 20
35.799207772057002
 30
0.0
 11
152.95275512848639
 21
36.802055854177517
 31
0.0
  0
LINE
  5
3F70
  8
TITLE
 10
151.93372630287919
 20
35.870311901217519
 30
0.0
 11
152.9365743849998
 21
36.873159983338148
 31
0.0
  0
LINE
  5
3F71
  8
TITLE
 10
151.91754555939269
 20
35.941416030378257
 30
0.0
 11
152.9203936415133
 21
36.94426411249902
 31
0.0
  0
LINE
  5
3F72
  8
TITLE
 10
152.03081076379021
 20
35.443687126252833
 30
0.0
 11
153.03365884591079
 21
36.44653520837403
 31
0.0
  0
LINE
  5
3F73
  8
TITLE
 10
152.01463002030371
 20
35.514791255413797
 30
0.0
 11
153.0174781024248
 21
36.517639337534213
 31
0.0
  0
LINE
  5
3F74
  8
TITLE
 10
151.9984492768244
 20
35.585895384574769
 30
0.0
 11
153.00129735894501
 21
36.588743466695178
 31
0.0
  0
LINE
  5
3F75
  8
TITLE
 10
151.4014972375048
 20
34.290664364088229
 30
0.0
 11
153.13074330682909
 21
36.01991043340945
 31
0.0
  0
LINE
  5
3F76
  8
TITLE
 10
151.31421236486449
 20
34.290664364088229
 30
0.0
 11
153.11456256334299
 21
36.091014562569633
 31
0.0
  0
LINE
  5
3F77
  8
TITLE
 10
151.2269274922173
 20
34.290664364088229
 30
0.0
 11
153.09838181985651
 21
36.162118691730832
 31
0.0
  0
LINE
  5
3F78
  8
TITLE
 10
151.1396426195702
 20
34.290664364088229
 30
0.0
 11
153.08220107637001
 21
36.233222820891683
 31
0.0
  0
LINE
  5
3F79
  8
TITLE
 10
151.05235774692301
 20
34.290664364088229
 30
0.0
 11
153.0660203328834
 21
36.3043269500522
 31
0.0
  0
LINE
  5
3F7A
  8
TITLE
 10
150.9650728742763
 20
34.290664364088229
 30
0.0
 11
153.04983958939741
 21
36.375431079212717
 31
0.0
  0
LINE
  5
3F7B
  8
TITLE
 10
151.642472920138
 20
37.150186226114897
 30
0.0
 11
152.20899486414919
 21
37.716708170125692
 31
0.0
  0
LINE
  5
3F7C
  8
TITLE
 10
151.62629217665199
 20
37.221290355275869
 30
0.0
 11
152.121709991502
 21
37.716708170125692
 31
0.0
  0
LINE
  5
3F7D
  8
TITLE
 10
148.50638162653601
 20
36.981780602494503
 30
0.0
 11
150.44501482954999
 21
38.920413805505291
 31
0.0
  0
LINE
  5
3F7E
  8
TITLE
 10
148.5522599476148
 20
37.114943796220018
 30
0.0
 11
150.49089315062881
 21
39.053576999227168
 31
0.0
  0
LINE
  5
3F7F
  8
TITLE
 10
148.5981382686937
 20
37.248106989942592
 30
0.0
 11
150.5367714717076
 21
39.186740192953039
 31
0.0
  0
LINE
  5
3F80
  8
TITLE
 10
150.09222414781149
 20
34.290664364088229
 30
0.0
 11
151.20201741002211
 21
35.400457626305752
 31
0.0
  0
LINE
  5
3F81
  8
TITLE
 10
150.00493927516479
 20
34.290664364088229
 30
0.0
 11
151.11473253738259
 21
35.400457626305752
 31
0.0
  0
LINE
  5
3F82
  8
TITLE
 10
149.9176544025172
 20
34.290664364088229
 30
0.0
 11
151.02744766473501
 21
35.400457626305752
 31
0.0
  0
LINE
  5
3F83
  8
TITLE
 10
149.83036952987001
 20
34.290664364088229
 30
0.0
 11
150.9401627920879
 21
35.400457626305752
 31
0.0
  0
LINE
  5
3F84
  8
TITLE
 10
149.74308465722279
 20
34.290664364088229
 30
0.0
 11
150.8528779194412
 21
35.400457626305752
 31
0.0
  0
LINE
  5
3F85
  8
TITLE
 10
149.65579978457609
 20
34.290664364088229
 30
0.0
 11
150.76559304679361
 21
35.400457626305752
 31
0.0
  0
LINE
  5
3F86
  8
TITLE
 10
149.56851491192899
 20
34.290664364088229
 30
0.0
 11
150.67830817414639
 21
35.400457626305752
 31
0.0
  0
LINE
  5
3F87
  8
TITLE
 10
149.4812300392887
 20
34.290664364088229
 30
0.0
 11
150.59102330149969
 21
35.400457626305752
 31
0.0
  0
LINE
  5
3F88
  8
TITLE
 10
149.39394516664149
 20
34.290664364088229
 30
0.0
 11
150.5037384288521
 21
35.400457626305752
 31
0.0
  0
LINE
  5
3F89
  8
TITLE
 10
150.26679389310581
 20
34.290664364088229
 30
0.0
 11
151.3765871553168
 21
35.400457626305752
 31
0.0
  0
LINE
  5
3F8A
  8
TITLE
 10
150.17950902045911
 20
34.290664364088229
 30
0.0
 11
151.2893022826693
 21
35.400457626305752
 31
0.0
  0
LINE
  5
3F8B
  8
TITLE
 10
149.3066602939943
 20
34.290664364088229
 30
0.0
 11
150.41645355620491
 21
35.400457626305752
 31
0.0
  0
LINE
  5
3F8C
  8
TITLE
 10
149.21937542134759
 20
34.290664364088229
 30
0.0
 11
150.32916868355781
 21
35.400457626305752
 31
0.0
  0
LINE
  5
3F8D
  8
TITLE
 10
149.13209054870001
 20
34.290664364088229
 30
0.0
 11
150.2418838109183
 21
35.400457626305752
 31
0.0
  0
LINE
  5
3F8E
  8
TITLE
 10
149.0448056760533
 20
34.290664364088229
 30
0.0
 11
150.15459893827071
 21
35.400457626305752
 31
0.0
  0
LINE
  5
3F8F
  8
TITLE
 10
148.95752080340571
 20
34.290664364088229
 30
0.0
 11
150.06731406562361
 21
35.400457626305752
 31
0.0
  0
LINE
  5
3F90
  8
TITLE
 10
148.8702359307585
 20
34.290664364088229
 30
0.0
 11
149.9800291929769
 21
35.400457626305752
 31
0.0
  0
LINE
  5
3F91
  8
TITLE
 10
148.78295105811179
 20
34.290664364088229
 30
0.0
 11
149.8927443203292
 21
35.400457626305752
 31
0.0
  0
LINE
  5
3F92
  8
TITLE
 10
148.6956661854646
 20
34.290664364088229
 30
0.0
 11
149.8054594476821
 21
35.400457626305752
 31
0.0
  0
LINE
  5
3F93
  8
TITLE
 10
148.6083813128171
 20
34.290664364088229
 30
0.0
 11
149.71817457503491
 21
35.400457626305752
 31
0.0
  0
LINE
  5
3F94
  8
TITLE
 10
148.52109644017719
 20
34.290664364088229
 30
0.0
 11
149.6308897023882
 21
35.400457626305752
 31
0.0
  0
LINE
  5
3F95
  8
TITLE
 10
151.54538845922701
 20
37.576811001079363
 30
0.0
 11
151.6852856282662
 21
37.716708170125692
 31
0.0
  0
LINE
  5
3F96
  8
TITLE
 10
151.52920771574099
 20
37.647915130240683
 30
0.0
 11
151.59800075561901
 21
37.716708170125692
 31
0.0
  0
LINE
  5
3F97
  8
TITLE
 10
151.6101114331654
 20
37.292394484436393
 30
0.0
 11
152.03442511885481
 21
37.716708170125692
 31
0.0
  0
LINE
  5
3F98
  8
TITLE
 10
151.59393068967941
 20
37.363498613597251
 30
0.0
 11
151.94714024620771
 21
37.716708170125692
 31
0.0
  0
LINE
  5
3F99
  8
TITLE
 10
151.5777499461928
 20
37.434602742758329
 30
0.0
 11
151.85985537356049
 21
37.716708170125692
 31
0.0
  0
LINE
  5
3F9A
  8
TITLE
 10
151.5615692027136
 20
37.505706871918733
 30
0.0
 11
151.77257050091339
 21
37.716708170125692
 31
0.0
  0
LINE
  5
3F9B
  8
TITLE
 10
150.87778800162911
 20
34.290664364088229
 30
0.0
 11
151.98758126384649
 21
35.400457626305752
 31
0.0
  0
LINE
  5
3F9C
  8
TITLE
 10
150.7905031289815
 20
34.290664364088229
 30
0.0
 11
151.90029639119939
 21
35.400457626305752
 31
0.0
  0
LINE
  5
3F9D
  8
TITLE
 10
150.70321825633431
 20
34.290664364088229
 30
0.0
 11
151.8130115185522
 21
35.400457626305752
 31
0.0
  0
LINE
  5
3F9E
  8
TITLE
 10
150.6159333836876
 20
34.290664364088229
 30
0.0
 11
151.72572664590501
 21
35.400457626305752
 31
0.0
  0
LINE
  5
3F9F
  8
TITLE
 10
150.52864851103999
 20
34.290664364088229
 30
0.0
 11
151.63844177325791
 21
35.400457626305752
 31
0.0
  0
LINE
  5
3FA0
  8
TITLE
 10
150.44136363839289
 20
34.290664364088229
 30
0.0
 11
151.5511569006112
 21
35.400457626305752
 31
0.0
  0
LINE
  5
3FA1
  8
TITLE
 10
150.354078765753
 20
34.290664364088229
 30
0.0
 11
151.46387202796359
 21
35.400457626305752
 31
0.0
  0
LINE
  5
3FA2
  8
TITLE
 10
148.46050330545771
 20
36.848617408768639
 30
0.0
 11
150.3991365084716
 21
38.787250611783179
 31
0.0
  0
LINE
  5
3FA3
  8
TITLE
 10
148.1852333789929
 20
36.049638246420841
 30
0.0
 11
150.12386658200009
 21
37.988271449431977
 31
0.0
  0
LINE
  5
3FA4
  8
TITLE
 10
148.32286834222171
 20
36.449127827591269
 30
0.0
 11
150.2615015452356
 21
38.387761030605247
 31
0.0
  0
LINE
  5
3FA5
  8
TITLE
 10
148.23111170006399
 20
36.182801440146818
 30
0.0
 11
150.16974490307851
 21
38.12143464315762
 31
0.0
  0
LINE
  5
3FA6
  8
TITLE
 10
148.27699002114289
 20
36.31596463386893
 30
0.0
 11
150.2156232241573
 21
38.254597836879839
 31
0.0
  0
LINE
  5
3FA7
  8
TITLE
 10
148.08360621260999
 20
35.860726207394578
 30
0.0
 11
150.0779882609213
 21
37.855108255709638
 31
0.0
  0
LINE
  5
3FA8
  8
TITLE
 10
148.36874666329999
 20
36.582291021317019
 30
0.0
 11
150.30737986631451
 21
38.520924224331573
 31
0.0
  0
LINE
  5
3FA9
  8
TITLE
 10
148.41462498437889
 20
36.715454215042769
 30
0.0
 11
150.35325818739281
 21
38.654087418056982
 31
0.0
  0
LINE
  5
3FAA
  8
TITLE
 10
148.17195694958849
 20
34.290664364088229
 30
0.0
 11
149.28175021180641
 21
35.400457626305752
 31
0.0
  0
LINE
  5
3FAB
  8
TITLE
 10
148.08467207694139
 20
34.290664364088229
 30
0.0
 11
149.252178481513
 21
35.45817076865967
 31
0.0
  0
LINE
  5
3FAC
  8
TITLE
 10
147.9973872042942
 20
34.290664364088229
 30
0.0
 11
149.29805680259139
 21
35.591333962385313
 31
0.0
  0
LINE
  5
3FAD
  8
TITLE
 10
148.43381156753
 20
34.290664364088229
 30
0.0
 11
149.54360482974101
 21
35.400457626305752
 31
0.0
  0
LINE
  5
3FAE
  8
TITLE
 10
148.34652669488281
 20
34.290664364088229
 30
0.0
 11
149.4563199570934
 21
35.400457626305752
 31
0.0
  0
LINE
  5
3FAF
  8
TITLE
 10
148.25924182223571
 20
34.290664364088229
 30
0.0
 11
149.3690350844536
 21
35.400457626305752
 31
0.0
  0
LINE
  5
3FB0
  8
TITLE
 10
152.2743459639691
 20
34.290664364088229
 30
0.0
 11
153.29255074167889
 21
35.3088691417978
 31
0.0
  0
LINE
  5
3FB1
  8
TITLE
 10
152.18706109132921
 20
34.290664364088229
 30
0.0
 11
153.2763699981997
 21
35.379973270958892
 31
0.0
  0
LINE
  5
3FB2
  8
TITLE
 10
152.09977621868211
 20
34.290664364088229
 30
0.0
 11
153.26018925471311
 21
35.451077400119402
 31
0.0
  0
LINE
  5
3FB3
  8
TITLE
 10
154.02607942946861
 20
34.383985249299137
 30
0.0
 11
154.78519060762071
 21
35.143096427454793
 31
0.0
  0
LINE
  5
3FB4
  8
TITLE
 10
154.02607942946861
 20
34.471270121945849
 30
0.0
 11
154.69790573497349
 21
35.143096427454793
 31
0.0
  0
LINE
  5
3FB5
  8
TITLE
 10
154.02607942946861
 20
34.55855499459301
 30
0.0
 11
154.61062086232641
 21
35.143096427454793
 31
0.0
  0
LINE
  5
3FB6
  8
TITLE
 10
154.02607942946861
 20
34.64583986724017
 30
0.0
 11
154.5233359896792
 21
35.143096427454793
 31
0.0
  0
LINE
  5
3FB7
  8
TITLE
 10
154.02607942946861
 20
34.296700376655281
 30
0.0
 11
154.87247548026789
 21
35.143096427454793
 31
0.0
  0
LINE
  5
3FB8
  8
TITLE
 10
154.36918290748639
 20
34.290664364088229
 30
0.0
 11
155.2216149708492
 21
35.143096427454793
 31
0.0
  0
LINE
  5
3FB9
  8
TITLE
 10
154.2818980348388
 20
34.290664364088229
 30
0.0
 11
155.1343300982094
 21
35.143096427454793
 31
0.0
  0
LINE
  5
3FBA
  8
TITLE
 10
154.1946131621921
 20
34.290664364088229
 30
0.0
 11
155.04704522556219
 21
35.143096427454793
 31
0.0
  0
LINE
  5
3FBB
  8
TITLE
 10
154.10732828954491
 20
34.290664364088229
 30
0.0
 11
154.959760352915
 21
35.143096427454793
 31
0.0
  0
LINE
  5
3FBC
  8
TITLE
 10
154.02607942946861
 20
34.994979357828932
 30
0.0
 11
154.17419649909789
 21
35.143096427454793
 31
0.0
  0
LINE
  5
3FBD
  8
TITLE
 10
154.02607942946861
 20
35.082264230472788
 30
0.0
 11
154.0869116264507
 21
35.143096427454793
 31
0.0
  0
LINE
  5
3FBE
  8
TITLE
 10
153.49633418102209
 20
34.290664364088229
 30
0.0
 11
153.51908115048079
 21
34.313411333547151
 31
0.0
  0
LINE
  5
3FBF
  8
TITLE
 10
153.4090493083749
 20
34.290664364088229
 30
0.0
 11
153.50290040699471
 21
34.384515462708123
 31
0.0
  0
LINE
  5
3FC0
  8
TITLE
 10
153.3217644357278
 20
34.290664364088229
 30
0.0
 11
153.48671966350861
 21
34.455619591868867
 31
0.0
  0
LINE
  5
3FC1
  8
TITLE
 10
153.23447956308061
 20
34.290664364088229
 30
0.0
 11
153.47053892002211
 21
34.526723721029498
 31
0.0
  0
LINE
  5
3FC2
  8
TITLE
 10
153.14719469043351
 20
34.290664364088229
 30
0.0
 11
153.45435817653561
 21
34.597827850190129
 31
0.0
  0
LINE
  5
3FC3
  8
TITLE
 10
153.0599098177936
 20
34.290664364088229
 30
0.0
 11
153.4381774330495
 21
34.668931979350987
 31
0.0
  0
LINE
  5
3FC4
  8
TITLE
 10
152.97262494514641
 20
34.290664364088229
 30
0.0
 11
153.4219966895698
 21
34.740036108511838
 31
0.0
  0
LINE
  5
3FC5
  8
TITLE
 10
152.88534007249919
 20
34.290664364088229
 30
0.0
 11
153.40581594608329
 21
34.811140237672817
 31
0.0
  0
LINE
  5
3FC6
  8
TITLE
 10
152.79805519985209
 20
34.290664364088229
 30
0.0
 11
153.38963520259719
 21
34.882244366833341
 31
0.0
  0
LINE
  5
3FC7
  8
TITLE
 10
152.7107703272049
 20
34.290664364088229
 30
0.0
 11
153.37345445911109
 21
34.953348495994078
 31
0.0
  0
LINE
  5
3FC8
  8
TITLE
 10
152.62348545455779
 20
34.290664364088229
 30
0.0
 11
153.3572737156241
 21
35.024452625154822
 31
0.0
  0
LINE
  5
3FC9
  8
TITLE
 10
154.02607942946861
 20
34.907694485181771
 30
0.0
 11
154.2614813717378
 21
35.143096427454793
 31
0.0
  0
LINE
  5
3FCA
  8
TITLE
 10
154.02607942946861
 20
34.733124739887451
 30
0.0
 11
154.43605111703161
 21
35.143096427454793
 31
0.0
  0
LINE
  5
3FCB
  8
TITLE
 10
154.02607942946861
 20
34.82040961253449
 30
0.0
 11
154.3487662443849
 21
35.143096427454793
 31
0.0
  0
LINE
  5
3FCC
  8
TITLE
 10
155.2420316339508
 20
34.290664364088229
 30
0.0
 11
156.0944636973208
 21
35.143096427454793
 31
0.0
  0
LINE
  5
3FCD
  8
TITLE
 10
155.15474676130361
 20
34.290664364088229
 30
0.0
 11
156.0071788246737
 21
35.143096427454793
 31
0.0
  0
LINE
  5
3FCE
  8
TITLE
 10
155.0674618886564
 20
34.290664364088229
 30
0.0
 11
155.91989395202651
 21
35.143096427454793
 31
0.0
  0
LINE
  5
3FCF
  8
TITLE
 10
154.98017701600881
 20
34.290664364088229
 30
0.0
 11
155.83260907937981
 21
35.143096427454793
 31
0.0
  0
LINE
  5
3FD0
  8
TITLE
 10
154.89289214336941
 20
34.290664364088229
 30
0.0
 11
155.74532420673219
 21
35.143096427454793
 31
0.0
  0
LINE
  5
3FD1
  8
TITLE
 10
154.80560727072179
 20
34.290664364088229
 30
0.0
 11
155.65803933408461
 21
35.143096427454793
 31
0.0
  0
LINE
  5
3FD2
  8
TITLE
 10
154.718322398075
 20
34.290664364088229
 30
0.0
 11
155.5707544614379
 21
35.143096427454793
 31
0.0
  0
LINE
  5
3FD3
  8
TITLE
 10
154.6310375254279
 20
34.290664364088229
 30
0.0
 11
155.48346958879071
 21
35.143096427454793
 31
0.0
  0
LINE
  5
3FD4
  8
TITLE
 10
154.54375265278071
 20
34.290664364088229
 30
0.0
 11
155.39618471614361
 21
35.143096427454793
 31
0.0
  0
LINE
  5
3FD5
  8
TITLE
 10
154.45646778013361
 20
34.290664364088229
 30
0.0
 11
155.30889984349639
 21
35.143096427454793
 31
0.0
  0
LINE
  5
3FD6
  8
TITLE
 10
152.53620058191061
 20
34.290664364088229
 30
0.0
 11
153.34109297213811
 21
35.09555675431546
 31
0.0
  0
LINE
  5
3FD7
  8
TITLE
 10
152.4489157092635
 20
34.290664364088229
 30
0.0
 11
153.3249122286515
 21
35.166660883476538
 31
0.0
  0
LINE
  5
3FD8
  8
TITLE
 10
152.3616308366158
 20
34.290664364088229
 30
0.0
 11
153.308731485165
 21
35.237765012637283
 31
0.0
  0
LINE
  5
3FD9
  8
TITLE
 10
149.46982636918071
 20
39.778207670714551
 30
0.0
 11
149.54690694982401
 21
39.855288251358161
 31
0.0
  0
LINE
  5
3FDA
  8
TITLE
 10
149.3780697270231
 20
39.511881283263172
 30
0.0
 11
149.7214766951183
 21
39.855288251358161
 31
0.0
  0
LINE
  5
3FDB
  8
TITLE
 10
149.42394804810189
 20
39.645044476988801
 30
0.0
 11
149.63419182247111
 21
39.855288251358161
 31
0.0
  0
LINE
  5
3FDC
  8
TITLE
 10
149.33219140594429
 20
39.378718089537188
 30
0.0
 11
149.80876156776549
 21
39.855288251358161
 31
0.0
  0
LINE
  5
3FDD
  8
TITLE
 10
154.20383223845741
 20
39.362406053845348
 30
0.0
 11
154.69671443597011
 21
39.855288251358161
 31
0.0
  0
LINE
  5
3FDE
  8
TITLE
 10
154.20383223845741
 20
39.449690926492508
 30
0.0
 11
154.60942956332289
 21
39.855288251358161
 31
0.0
  0
LINE
  5
3FDF
  8
TITLE
 10
154.20383223845741
 20
39.536975799139903
 30
0.0
 11
154.5221446906757
 21
39.855288251358161
 31
0.0
  0
LINE
  5
3FE0
  8
TITLE
 10
154.20383223845741
 20
39.711545544430692
 30
0.0
 11
154.34757494538189
 21
39.855288251358161
 31
0.0
  0
LINE
  5
3FE1
  8
TITLE
 10
154.20383223845741
 20
39.798830417077632
 30
0.0
 11
154.26029007273419
 21
39.855288251358161
 31
0.0
  0
LINE
  5
3FE2
  8
TITLE
 10
154.20383223845741
 20
39.624260671786828
 30
0.0
 11
154.4348598180286
 21
39.855288251358161
 31
0.0
  0
LINE
  5
3FE3
  8
TITLE
 10
163.55447159118779
 20
38.762569924883337
 30
0.0
 11
164.2066167749731
 21
39.414715108664723
 31
0.0
  0
LINE
  5
3FE4
  8
TITLE
 10
163.46718671854069
 20
38.762569924883337
 30
0.0
 11
164.11933190232591
 21
39.414715108664723
 31
0.0
  0
LINE
  5
3FE5
  8
TITLE
 10
163.37990184589401
 20
38.762569924883337
 30
0.0
 11
164.03204702967881
 21
39.414715108664723
 31
0.0
  0
LINE
  5
3FE6
  8
TITLE
 10
163.29261697324679
 20
38.762569924883337
 30
0.0
 11
163.94476215703159
 21
39.414715108664723
 31
0.0
  0
LINE
  5
3FE7
  8
TITLE
 10
163.20533210060691
 20
38.762569924883337
 30
0.0
 11
163.8775382128438
 21
39.434776037120521
 31
0.0
  0
LINE
  5
3FE8
  8
TITLE
 10
163.11804722795969
 20
38.762569924883337
 30
0.0
 11
163.8775382128438
 21
39.522060909763809
 31
0.0
  0
LINE
  5
3FE9
  8
TITLE
 10
163.03076235531219
 20
38.762569924883337
 30
0.0
 11
163.8775382128438
 21
39.609345782411417
 31
0.0
  0
LINE
  5
3FEA
  8
TITLE
 10
162.943477482665
 20
38.762569924883337
 30
0.0
 11
163.8775382128438
 21
39.696630655058591
 31
0.0
  0
LINE
  5
3FEB
  8
TITLE
 10
162.85619261001781
 20
38.762569924883337
 30
0.0
 11
163.8775382128438
 21
39.783915527705517
 31
0.0
  0
LINE
  5
3FEC
  8
TITLE
 10
162.3324833741421
 20
38.762569924883337
 30
0.0
 11
162.9846285579201
 21
39.414715108664723
 31
0.0
  0
LINE
  5
3FED
  8
TITLE
 10
162.24519850149539
 20
38.762569924883337
 30
0.0
 11
162.897343685273
 21
39.414715108664723
 31
0.0
  0
LINE
  5
3FEE
  8
TITLE
 10
162.15791362884781
 20
38.762569924883337
 30
0.0
 11
162.81005881262621
 21
39.414715108664723
 31
0.0
  0
LINE
  5
3FEF
  8
TITLE
 10
162.0706287562007
 20
38.762569924883337
 30
0.0
 11
162.72277393997859
 21
39.414715108664723
 31
0.0
  0
LINE
  5
3FF0
  8
TITLE
 10
162.5070531194296
 20
38.762569924883337
 30
0.0
 11
163.1591983032144
 21
39.414715108664723
 31
0.0
  0
LINE
  5
3FF1
  8
TITLE
 10
162.41976824678201
 20
38.762569924883337
 30
0.0
 11
163.07191343056729
 21
39.414715108664723
 31
0.0
  0
LINE
  5
3FF2
  8
TITLE
 10
162.59433799207679
 20
38.762569924883337
 30
0.0
 11
163.68705631855531
 21
39.855288251358161
 31
0.0
  0
LINE
  5
3FF3
  8
TITLE
 10
161.22136376600881
 20
38.524299043217518
 30
0.0
 11
162.4860067238028
 21
39.788942001008202
 31
0.0
  0
LINE
  5
3FF4
  8
TITLE
 10
161.20680075065141
 20
38.597020900507118
 30
0.0
 11
162.46506810150271
 21
39.855288251358161
 31
0.0
  0
LINE
  5
3FF5
  8
TITLE
 10
161.1922377352939
 20
38.66974275779728
 30
0.0
 11
162.37778322885509
 21
39.855288251358161
 31
0.0
  0
LINE
  5
3FF6
  8
TITLE
 10
161.2504897967228
 20
38.378855328637201
 30
0.0
 11
162.4860067238028
 21
39.614372255717058
 31
0.0
  0
LINE
  5
3FF7
  8
TITLE
 10
161.23592678136581
 20
38.451577185927249
 30
0.0
 11
162.4860067238028
 21
39.701657128360686
 31
0.0
  0
LINE
  5
3FF8
  8
TITLE
 10
160.90479835613951
 20
37.771309270119673
 30
0.0
 11
162.54820419469161
 21
39.414715108664723
 31
0.0
  0
LINE
  5
3FF9
  8
TITLE
 10
160.81751348349229
 20
37.771309270119673
 30
0.0
 11
162.4860067238028
 21
39.439802510422737
 31
0.0
  0
LINE
  5
3FFA
  8
TITLE
 10
161.983343883554
 20
38.762569924883337
 30
0.0
 11
162.63548906733149
 21
39.414715108664723
 31
0.0
  0
LINE
  5
3FFB
  8
TITLE
 10
161.1776747199369
 20
38.742464615086881
 30
0.0
 11
162.29049835620799
 21
39.855288251358161
 31
0.0
  0
LINE
  5
3FFC
  8
TITLE
 10
161.11049515708919
 20
38.762569924883337
 30
0.0
 11
161.76264034086711
 21
39.414715108664723
 31
0.0
  0
LINE
  5
3FFD
  8
TITLE
 10
161.023210284442
 20
38.762569924883337
 30
0.0
 11
161.67535546822731
 21
39.414715108664723
 31
0.0
  0
LINE
  5
3FFE
  8
TITLE
 10
160.93592541179481
 20
38.762569924883337
 30
0.0
 11
161.58807059558009
 21
39.414715108664723
 31
0.0
  0
LINE
  5
3FFF
  8
TITLE
 10
160.84864053914771
 20
38.762569924883337
 30
0.0
 11
161.5007857229329
 21
39.414715108664723
 31
0.0
  0
LINE
  5
4000
  8
TITLE
 10
162.76890773737111
 20
38.762569924883337
 30
0.0
 11
163.8616260638496
 21
39.855288251358161
 31
0.0
  0
LINE
  5
4001
  8
TITLE
 10
162.68162286472401
 20
38.762569924883337
 30
0.0
 11
163.77434119120241
 21
39.855288251358161
 31
0.0
  0
LINE
  5
4002
  8
TITLE
 10
158.32220491238101
 20
39.029250222799988
 30
0.0
 11
159.1482429409393
 21
39.855288251358161
 31
0.0
  0
LINE
  5
4003
  8
TITLE
 10
158.23492003973379
 20
39.029250222799988
 30
0.0
 11
159.06095806829211
 21
39.855288251358161
 31
0.0
  0
LINE
  5
4004
  8
TITLE
 10
158.14763516708621
 20
39.029250222799988
 30
0.0
 11
158.97367319564501
 21
39.855288251358161
 31
0.0
  0
LINE
  5
4005
  8
TITLE
 10
158.0603502944395
 20
39.029250222799988
 30
0.0
 11
158.88638832299779
 21
39.855288251358161
 31
0.0
  0
LINE
  5
4006
  8
TITLE
 10
157.97306542179189
 20
39.029250222799988
 30
0.0
 11
158.79910345035071
 21
39.855288251358161
 31
0.0
  0
LINE
  5
4007
  8
TITLE
 10
157.88578054914569
 20
39.029250222799988
 30
0.0
 11
158.7118185777035
 21
39.855288251358161
 31
0.0
  0
LINE
  5
4008
  8
TITLE
 10
157.7984956765049
 20
39.029250222799988
 30
0.0
 11
158.62453370505631
 21
39.855288251358161
 31
0.0
  0
LINE
  5
4009
  8
TITLE
 10
158.4967746576753
 20
39.029250222799988
 30
0.0
 11
159.3061145206147
 21
39.838590085739717
 31
0.0
  0
LINE
  5
400A
  8
TITLE
 10
158.4094897850282
 20
39.029250222799988
 30
0.0
 11
159.23552781358649
 21
39.855288251358161
 31
0.0
  0
LINE
  5
400B
  8
TITLE
 10
157.71121080385819
 20
39.029250222799988
 30
0.0
 11
158.53724883241651
 21
39.855288251358161
 31
0.0
  0
LINE
  5
400C
  8
TITLE
 10
157.62392593121101
 20
39.029250222799988
 30
0.0
 11
158.44996395976929
 21
39.855288251358161
 31
0.0
  0
LINE
  5
400D
  8
TITLE
 10
157.5366410585639
 20
39.029250222799988
 30
0.0
 11
158.3626790871221
 21
39.855288251358161
 31
0.0
  0
LINE
  5
400E
  8
TITLE
 10
157.4493561859162
 20
39.029250222799988
 30
0.0
 11
158.275394214475
 21
39.855288251358161
 31
0.0
  0
LINE
  5
400F
  8
TITLE
 10
157.3620713132695
 20
39.029250222799988
 30
0.0
 11
158.18810934182781
 21
39.855288251358161
 31
0.0
  0
LINE
  5
4010
  8
TITLE
 10
157.27478644062239
 20
39.029250222799988
 30
0.0
 11
158.10082446918071
 21
39.855288251358161
 31
0.0
  0
LINE
  5
4011
  8
TITLE
 10
160.0148037945464
 20
39.150721397331502
 30
0.0
 11
160.27879750587999
 21
39.414715108664723
 31
0.0
  0
LINE
  5
4012
  8
TITLE
 10
160.0148037945464
 20
39.238006269974903
 30
0.0
 11
160.1915126332328
 21
39.414715108664723
 31
0.0
  0
LINE
  5
4013
  8
TITLE
 10
160.0148037945464
 20
39.063436524684221
 30
0.0
 11
160.3660823785271
 21
39.414715108664723
 31
0.0
  0
LINE
  5
4014
  8
TITLE
 10
159.02048389355099
 20
39.029250222799988
 30
0.0
 11
159.3061145206147
 21
39.314880849863698
 31
0.0
  0
LINE
  5
4015
  8
TITLE
 10
158.9331990209038
 20
39.029250222799988
 30
0.0
 11
159.3061145206147
 21
39.402165722507107
 31
0.0
  0
LINE
  5
4016
  8
TITLE
 10
158.8459141482563
 20
39.029250222799988
 30
0.0
 11
159.3061145206147
 21
39.489450595154267
 31
0.0
  0
LINE
  5
4017
  8
TITLE
 10
158.75862927561681
 20
39.029250222799988
 30
0.0
 11
159.3061145206147
 21
39.576735467801662
 31
0.0
  0
LINE
  5
4018
  8
TITLE
 10
158.67134440296971
 20
39.029250222799988
 30
0.0
 11
159.3061145206147
 21
39.664020340445177
 31
0.0
  0
LINE
  5
4019
  8
TITLE
 10
158.58405953032249
 20
39.029250222799988
 30
0.0
 11
159.3061145206147
 21
39.751305213092451
 31
0.0
  0
LINE
  5
401A
  8
TITLE
 10
160.06307668533049
 20
38.762569924883337
 30
0.0
 11
160.71522186911579
 21
39.414715108664723
 31
0.0
  0
LINE
  5
401B
  8
TITLE
 10
160.0148037945464
 20
38.801581906742634
 30
0.0
 11
160.62793699646861
 21
39.414715108664723
 31
0.0
  0
LINE
  5
401C
  8
TITLE
 10
160.0148037945464
 20
38.888866779390128
 30
0.0
 11
160.54065212382099
 21
39.414715108664723
 31
0.0
  0
LINE
  5
401D
  8
TITLE
 10
160.0148037945464
 20
38.976151652037402
 30
0.0
 11
160.45336725117431
 21
39.414715108664723
 31
0.0
  0
LINE
  5
401E
  8
TITLE
 10
160.73022861085241
 20
37.771309270119673
 30
0.0
 11
162.4860067238028
 21
39.52708738306967
 31
0.0
  0
LINE
  5
401F
  8
TITLE
 10
160.761355666501
 20
38.762569924883337
 30
0.0
 11
161.43381561790011
 21
39.435029876278918
 31
0.0
  0
LINE
  5
4020
  8
TITLE
 10
160.67407079385379
 20
38.762569924883337
 30
0.0
 11
161.40586010797369
 21
39.494359239000119
 31
0.0
  0
LINE
  5
4021
  8
TITLE
 10
160.5867859212062
 20
38.762569924883337
 30
0.0
 11
161.3779045980404
 21
39.553688601713361
 31
0.0
  0
LINE
  5
4022
  8
TITLE
 10
160.49950104856629
 20
38.762569924883337
 30
0.0
 11
161.3499490881068
 21
39.613017964427058
 31
0.0
  0
LINE
  5
4023
  8
TITLE
 10
160.41221617591921
 20
38.762569924883337
 30
0.0
 11
161.3219935781803
 21
39.672347327144401
 31
0.0
  0
LINE
  5
4024
  8
TITLE
 10
160.324931303272
 20
38.762569924883337
 30
0.0
 11
161.29403806824709
 21
39.731676689861843
 31
0.0
  0
LINE
  5
4025
  8
TITLE
 10
160.23764643062481
 20
38.762569924883337
 30
0.0
 11
161.2660825583207
 21
39.79100605257554
 31
0.0
  0
LINE
  5
4026
  8
TITLE
 10
160.1503615579781
 20
38.762569924883337
 30
0.0
 11
161.23812704838741
 21
39.850335415292882
 31
0.0
  0
LINE
  5
4027
  8
TITLE
 10
156.22736796886329
 20
39.029250222799988
 30
0.0
 11
157.05340599742161
 21
39.855288251358161
 31
0.0
  0
LINE
  5
4028
  8
TITLE
 10
156.2572655143635
 20
38.53543853242423
 30
0.0
 11
157.57711523330499
 21
39.855288251358161
 31
0.0
  0
LINE
  5
4029
  8
TITLE
 10
156.2572655143635
 20
38.622723405071163
 30
0.0
 11
157.48983036065781
 21
39.855288251358161
 31
0.0
  0
LINE
  5
402A
  8
TITLE
 10
156.2572655143635
 20
38.710008277715019
 30
0.0
 11
157.40254548801059
 21
39.855288251358161
 31
0.0
  0
LINE
  5
402B
  8
TITLE
 10
156.2572655143635
 20
38.360868787129448
 30
0.0
 11
157.75168497859201
 21
39.855288251358161
 31
0.0
  0
LINE
  5
402C
  8
TITLE
 10
156.2572655143635
 20
38.448153659776608
 30
0.0
 11
157.6644001059521
 21
39.855288251358161
 31
0.0
  0
LINE
  5
402D
  8
TITLE
 10
156.2572655143635
 20
38.099014169188187
 30
0.0
 11
158.01353959653349
 21
39.855288251358161
 31
0.0
  0
LINE
  5
402E
  8
TITLE
 10
156.2572655143635
 20
38.186299041835468
 30
0.0
 11
157.9262547238863
 21
39.855288251358161
 31
0.0
  0
LINE
  5
402F
  8
TITLE
 10
156.2572655143635
 20
38.273583914482522
 30
0.0
 11
157.8389698512392
 21
39.855288251358161
 31
0.0
  0
LINE
  5
4030
  8
TITLE
 10
156.2572655143635
 20
38.797293150361838
 30
0.0
 11
157.31526061536351
 21
39.855288251358161
 31
0.0
  0
LINE
  5
4031
  8
TITLE
 10
156.2572655143635
 20
38.884578023009112
 30
0.0
 11
157.2279757427163
 21
39.855288251358161
 31
0.0
  0
LINE
  5
4032
  8
TITLE
 10
156.2572655143635
 20
38.971862895652521
 30
0.0
 11
157.14069087006919
 21
39.855288251358161
 31
0.0
  0
LINE
  5
4033
  8
TITLE
 10
160.19255660353559
 20
37.146352390155812
 30
0.0
 11
160.3218832175707
 21
37.27567900419411
 31
0.0
  0
LINE
  5
4034
  8
TITLE
 10
160.0148037945464
 20
36.008465982055213
 30
0.0
 11
160.2907560389994
 21
36.284418226511548
 31
0.0
  0
LINE
  5
4035
  8
TITLE
 10
160.2365914337756
 20
36.753962857166933
 30
0.0
 11
160.7583075808061
 21
37.27567900419411
 31
0.0
  0
LINE
  5
4036
  8
TITLE
 10
160.19255660353559
 20
36.797212899570809
 30
0.0
 11
160.67102270815889
 21
37.27567900419411
 31
0.0
  0
LINE
  5
4037
  8
TITLE
 10
160.19255660353559
 20
36.884497772214672
 30
0.0
 11
160.58373783551221
 21
37.27567900419411
 31
0.0
  0
LINE
  5
4038
  8
TITLE
 10
160.19255660353559
 20
36.971782644861833
 30
0.0
 11
160.49645296286459
 21
37.27567900419411
 31
0.0
  0
LINE
  5
4039
  8
TITLE
 10
160.19255660353559
 20
37.059067517508879
 30
0.0
 11
160.40916809021741
 21
37.27567900419411
 31
0.0
  0
LINE
  5
403A
  8
TITLE
 10
160.0148037945464
 20
34.611908019715202
 30
0.0
 11
160.38807530412569
 21
34.985179529294442
 31
0.0
  0
LINE
  5
403B
  8
TITLE
 10
160.0148037945464
 20
34.699192892358838
 30
0.0
 11
160.29421345776379
 21
34.978602555579421
 31
0.0
  0
LINE
  5
403C
  8
TITLE
 10
160.0148037945464
 20
34.350053401773948
 30
0.0
 11
160.75361888464749
 21
35.088868491874791
 31
0.0
  0
LINE
  5
403D
  8
TITLE
 10
160.0148037945464
 20
34.437338274420767
 30
0.0
 11
160.60971195709681
 21
35.03224643697127
 31
0.0
  0
LINE
  5
403E
  8
TITLE
 10
160.0148037945464
 20
34.524623147068162
 30
0.0
 11
160.49168987092889
 21
35.001509223450398
 31
0.0
  0
LINE
  5
403F
  8
TITLE
 10
160.23155013631319
 20
35.788787960585871
 30
0.0
 11
160.72718040223481
 21
36.284418226511548
 31
0.0
  0
LINE
  5
4040
  8
TITLE
 10
160.144265263666
 20
35.788787960585871
 30
0.0
 11
160.6398955295881
 21
36.284418226511548
 31
0.0
  0
LINE
  5
4041
  8
TITLE
 10
160.0569803910189
 20
35.788787960585871
 30
0.0
 11
160.55261065694049
 21
36.284418226511548
 31
0.0
  0
LINE
  5
4042
  8
TITLE
 10
160.0148037945464
 20
35.833896236761241
 30
0.0
 11
160.4653257842933
 21
36.284418226511548
 31
0.0
  0
LINE
  5
4043
  8
TITLE
 10
160.0148037945464
 20
35.92118110940806
 30
0.0
 11
160.37804091164659
 21
36.284418226511548
 31
0.0
  0
LINE
  5
4044
  8
TITLE
 10
160.19255660353559
 20
38.193770861914572
 30
0.0
 11
160.34398279805231
 21
38.345197056431289
 31
0.0
  0
LINE
  5
4045
  8
TITLE
 10
160.19255660353559
 20
38.106485989267533
 30
0.0
 11
160.43126767069219
 21
38.345197056431289
 31
0.0
  0
LINE
  5
4046
  8
TITLE
 10
160.2065193749695
 20
37.771309270119673
 30
0.0
 11
160.78040716128089
 21
38.345197056431289
 31
0.0
  0
LINE
  5
4047
  8
TITLE
 10
160.19255660353559
 20
37.84463137132628
 30
0.0
 11
160.69312228863421
 21
38.345197056431289
 31
0.0
  0
LINE
  5
4048
  8
TITLE
 10
160.19255660353559
 20
37.931916243973092
 30
0.0
 11
160.60583741598651
 21
38.345197056431289
 31
0.0
  0
LINE
  5
4049
  8
TITLE
 10
160.19255660353559
 20
38.019201116620373
 30
0.0
 11
160.51855254333981
 21
38.345197056431289
 31
0.0
  0
LINE
  5
404A
  8
TITLE
 10
160.0426995914558
 20
34.290664326043043
 30
0.0
 11
160.9916490559317
 21
35.239613790511392
 31
0.0
  0
LINE
  5
404B
  8
TITLE
 10
160.2178847076257
 20
34.291279696910813
 30
0.0
 11
162.21102323722241
 21
36.284418226511548
 31
0.0
  0
LINE
  5
404C
  8
TITLE
 10
160.12998434505289
 20
34.290664206992801
 30
0.0
 11
162.1237383645753
 21
36.284418226511548
 31
0.0
  0
LINE
  5
404D
  8
TITLE
 10
158.2970021765795
 20
34.290664364088229
 30
0.0
 11
159.14943423994231
 21
35.143096427454793
 31
0.0
  0
LINE
  5
404E
  8
TITLE
 10
158.20971730393239
 20
34.290664364088229
 30
0.0
 11
159.06214936729521
 21
35.143096427454793
 31
0.0
  0
LINE
  5
404F
  8
TITLE
 10
158.1224324312852
 20
34.290664364088229
 30
0.0
 11
158.97486449464799
 21
35.143096427454793
 31
0.0
  0
LINE
  5
4050
  8
TITLE
 10
158.0351475586381
 20
34.290664364088229
 30
0.0
 11
158.88757962200091
 21
35.143096427454793
 31
0.0
  0
LINE
  5
4051
  8
TITLE
 10
157.94786268599091
 20
34.290664364088229
 30
0.0
 11
158.80029474936049
 21
35.143096427454793
 31
0.0
  0
LINE
  5
4052
  8
TITLE
 10
157.8605778133437
 20
34.290664364088229
 30
0.0
 11
158.71300987671381
 21
35.143096427454793
 31
0.0
  0
LINE
  5
4053
  8
TITLE
 10
157.77329294069659
 20
34.290664364088229
 30
0.0
 11
158.62572500406671
 21
35.143096427454793
 31
0.0
  0
LINE
  5
4054
  8
TITLE
 10
158.4715719218739
 20
34.290664364088229
 30
0.0
 11
159.32400398523669
 21
35.143096427454793
 31
0.0
  0
LINE
  5
4055
  8
TITLE
 10
158.38428704922671
 20
34.290664364088229
 30
0.0
 11
159.23671911259001
 21
35.143096427454793
 31
0.0
  0
LINE
  5
4056
  8
TITLE
 10
157.68600806804989
 20
34.290664364088229
 30
0.0
 11
158.53844013141949
 21
35.143096427454793
 31
0.0
  0
LINE
  5
4057
  8
TITLE
 10
157.59872319540949
 20
34.290664364088229
 30
0.0
 11
158.45115525877279
 21
35.143096427454793
 31
0.0
  0
LINE
  5
4058
  8
TITLE
 10
157.51143832276281
 20
34.290664364088229
 30
0.0
 11
158.3638703861252
 21
35.143096427454793
 31
0.0
  0
LINE
  5
4059
  8
TITLE
 10
157.4241534501152
 20
34.290664364088229
 30
0.0
 11
158.27658551347849
 21
35.143096427454793
 31
0.0
  0
LINE
  5
405A
  8
TITLE
 10
157.33686857746801
 20
34.290664364088229
 30
0.0
 11
158.18930064083079
 21
35.143096427454793
 31
0.0
  0
LINE
  5
405B
  8
TITLE
 10
157.24958370482091
 20
34.290664364088229
 30
0.0
 11
158.10201576818369
 21
35.143096427454793
 31
0.0
  0
LINE
  5
405C
  8
TITLE
 10
157.16229883217369
 20
34.290664364088229
 30
0.0
 11
158.0147308955365
 21
35.143096427454793
 31
0.0
  0
LINE
  5
405D
  8
TITLE
 10
157.07501395952659
 20
34.290664364088229
 30
0.0
 11
157.9274460228898
 21
35.143096427454793
 31
0.0
  0
LINE
  5
405E
  8
TITLE
 10
156.98772908687991
 20
34.290664364088229
 30
0.0
 11
157.84016115024949
 21
35.143096427454793
 31
0.0
  0
LINE
  5
405F
  8
TITLE
 10
156.90044421423221
 20
34.290664364088229
 30
0.0
 11
157.7528762776023
 21
35.143096427454793
 31
0.0
  0
LINE
  5
4060
  8
TITLE
 10
156.81315934158511
 20
34.290664364088229
 30
0.0
 11
157.66559140495559
 21
35.143096427454793
 31
0.0
  0
LINE
  5
4061
  8
TITLE
 10
156.72587446894519
 20
34.290664364088229
 30
0.0
 11
157.57830653230801
 21
35.143096427454793
 31
0.0
  0
LINE
  5
4062
  8
TITLE
 10
160.19255660353559
 20
37.233637262802858
 30
0.0
 11
160.2345983449236
 21
37.27567900419411
 31
0.0
  0
LINE
  5
4063
  8
TITLE
 10
160.0148037945464
 20
36.270320599996808
 30
0.0
 11
160.0289014210648
 21
36.284418226511548
 31
0.0
  0
LINE
  5
4064
  8
TITLE
 10
160.0148037945464
 20
36.095750854702722
 30
0.0
 11
160.20347116635179
 21
36.284418226511548
 31
0.0
  0
LINE
  5
4065
  8
TITLE
 10
160.0148037945464
 20
36.183035727349647
 30
0.0
 11
160.11618629370511
 21
36.284418226511548
 31
0.0
  0
LINE
  5
4066
  8
TITLE
 10
160.0148037945464
 20
34.961047510296801
 30
0.0
 11
160.0338841431948
 21
34.980127858948777
 31
0.0
  0
LINE
  5
4067
  8
TITLE
 10
159.43170552098579
 20
34.290664364088229
 30
0.0
 11
159.48386732960401
 21
34.342826172707191
 31
0.0
  0
LINE
  5
4068
  8
TITLE
 10
159.3444206483382
 20
34.290664364088229
 30
0.0
 11
159.48386732960401
 21
34.430111045353897
 31
0.0
  0
LINE
  5
4069
  8
TITLE
 10
159.25713577569101
 20
34.290664364088229
 30
0.0
 11
159.48386732960401
 21
34.517395918001171
 31
0.0
  0
LINE
  5
406A
  8
TITLE
 10
159.16985090304391
 20
34.290664364088229
 30
0.0
 11
159.48386732960401
 21
34.604680790648104
 31
0.0
  0
LINE
  5
406B
  8
TITLE
 10
159.08256603039669
 20
34.290664364088229
 30
0.0
 11
159.48386732960401
 21
34.691965663295257
 31
0.0
  0
LINE
  5
406C
  8
TITLE
 10
158.99528115774999
 20
34.290664364088229
 30
0.0
 11
159.48386732960401
 21
34.779250535942431
 31
0.0
  0
LINE
  5
406D
  8
TITLE
 10
158.9079962851024
 20
34.290664364088229
 30
0.0
 11
159.48386732960401
 21
34.866535408589698
 31
0.0
  0
LINE
  5
406E
  8
TITLE
 10
160.0148037945464
 20
34.873762637653037
 30
0.0
 11
160.1211690158425
 21
34.980127858948777
 31
0.0
  0
LINE
  5
406F
  8
TITLE
 10
160.0148037945464
 20
34.786477765006111
 30
0.0
 11
160.2076590933639
 21
34.97933306382663
 31
0.0
  0
LINE
  5
4070
  8
TITLE
 10
158.82071141245521
 20
34.290664364088229
 30
0.0
 11
159.48386732960401
 21
34.953820281233341
 31
0.0
  0
LINE
  5
4071
  8
TITLE
 10
158.73342653980811
 20
34.290664364088229
 30
0.0
 11
159.48386732960401
 21
35.041105153880267
 31
0.0
  0
LINE
  5
4072
  8
TITLE
 10
158.64614166716089
 20
34.290664364088229
 30
0.0
 11
159.48386732960401
 21
35.128390026527541
 31
0.0
  0
LINE
  5
4073
  8
TITLE
 10
158.55885679452101
 20
34.290664364088229
 30
0.0
 11
159.41128885788379
 21
35.143096427454793
 31
0.0
  0
LINE
  5
4074
  8
TITLE
 10
159.2823385114925
 20
39.029250222799988
 30
0.0
 11
159.3061145206147
 21
39.053026231922793
 31
0.0
  0
LINE
  5
4075
  8
TITLE
 10
159.19505363884531
 20
39.029250222799988
 30
0.0
 11
159.3061145206147
 21
39.140311104569598
 31
0.0
  0
LINE
  5
4076
  8
TITLE
 10
159.10776876619821
 20
39.029250222799988
 30
0.0
 11
159.3061145206147
 21
39.227595977216879
 31
0.0
  0
LINE
  5
4077
  8
TITLE
 10
160.19255660353559
 20
38.281055734561839
 30
0.0
 11
160.25669792540521
 21
38.345197056431289
 31
0.0
  0
LINE
  5
4078
  8
TITLE
 10
156.2572655143635
 20
37.051595697433072
 30
0.0
 11
157.25268124470219
 21
38.047011427768098
 31
0.0
  0
LINE
  5
4079
  8
TITLE
 10
156.2572655143635
 20
36.789741079495002
 30
0.0
 11
157.25268124470219
 21
37.785156809830262
 31
0.0
  0
LINE
  5
407A
  8
TITLE
 10
156.2572655143635
 20
36.877025952138872
 30
0.0
 11
157.25268124470219
 21
37.872441682477302
 31
0.0
  0
LINE
  5
407B
  8
TITLE
 10
156.2572655143635
 20
36.964310824785677
 30
0.0
 11
157.25268124470219
 21
37.95972655512071
 31
0.0
  0
LINE
  5
407C
  8
TITLE
 10
156.2572655143635
 20
37.313450315370801
 30
0.0
 11
157.25268124470219
 21
38.308866045709472
 31
0.0
  0
LINE
  5
407D
  8
TITLE
 10
156.2572655143635
 20
37.400735188017848
 30
0.0
 11
157.25268124470219
 21
38.396150918356852
 31
0.0
  0
LINE
  5
407E
  8
TITLE
 10
156.2572655143635
 20
37.488020060665242
 30
0.0
 11
157.25268124470219
 21
38.483435791003899
 31
0.0
  0
LINE
  5
407F
  8
TITLE
 10
156.2572655143635
 20
37.138880570076481
 30
0.0
 11
157.25268124470219
 21
38.134296300415258
 31
0.0
  0
LINE
  5
4080
  8
TITLE
 10
156.2572655143635
 20
37.226165442723868
 30
0.0
 11
157.25268124470219
 21
38.221581173062077
 31
0.0
  0
LINE
  5
4081
  8
TITLE
 10
156.2572655143635
 20
37.575304933312168
 30
0.0
 11
157.25268124470219
 21
38.570720663647762
 31
0.0
  0
LINE
  5
4082
  8
TITLE
 10
156.2572655143635
 20
37.662589805959442
 30
0.0
 11
157.25268124470219
 21
38.65800553629424
 31
0.0
  0
LINE
  5
4083
  8
TITLE
 10
156.2572655143635
 20
36.004177225674312
 30
0.0
 11
157.25268124470219
 21
36.999592956009337
 31
0.0
  0
LINE
  5
4084
  8
TITLE
 10
156.2572655143635
 20
36.091462098321358
 30
0.0
 11
157.25268124470219
 21
37.086877828656732
 31
0.0
  0
LINE
  5
4085
  8
TITLE
 10
156.2572655143635
 20
36.178746970968753
 30
0.0
 11
157.25268124470219
 21
37.174162701303892
 31
0.0
  0
LINE
  5
4086
  8
TITLE
 10
156.2572655143635
 20
36.266031843612041
 30
0.0
 11
157.25268124470219
 21
37.261447573950711
 31
0.0
  0
LINE
  5
4087
  8
TITLE
 10
156.2572655143635
 20
36.353316716259769
 30
0.0
 11
157.25268124470219
 21
37.348732446597751
 31
0.0
  0
LINE
  5
4088
  8
TITLE
 10
156.2572655143635
 20
36.440601588906588
 30
0.0
 11
157.25268124470219
 21
37.436017319245032
 31
0.0
  0
LINE
  5
4089
  8
TITLE
 10
156.2572655143635
 20
36.527886461553862
 30
0.0
 11
157.25268124470219
 21
37.523302191892419
 31
0.0
  0
LINE
  5
408A
  8
TITLE
 10
156.2572655143635
 20
36.615171334200909
 30
0.0
 11
157.25268124470219
 21
37.6105870645398
 31
0.0
  0
LINE
  5
408B
  8
TITLE
 10
156.2572655143635
 20
36.702456206847728
 30
0.0
 11
157.25268124470219
 21
37.697871937182981
 31
0.0
  0
LINE
  5
408C
  8
TITLE
 10
156.638589596298
 20
34.290664364088229
 30
0.0
 11
157.49102165966079
 21
35.143096427454793
 31
0.0
  0
LINE
  5
408D
  8
TITLE
 10
156.5513047236509
 20
34.290664364088229
 30
0.0
 11
157.40373678701371
 21
35.143096427454793
 31
0.0
  0
LINE
  5
408E
  8
TITLE
 10
156.46401985100371
 20
34.290664364088229
 30
0.0
 11
157.3164519143665
 21
35.143096427454793
 31
0.0
  0
LINE
  5
408F
  8
TITLE
 10
156.37673497835701
 20
34.290664364088229
 30
0.0
 11
157.25268124470219
 21
35.166610630433411
 31
0.0
  0
LINE
  5
4090
  8
TITLE
 10
156.28945010570939
 20
34.290664364088229
 30
0.0
 11
157.25268124470219
 21
35.253895503080798
 31
0.0
  0
LINE
  5
4091
  8
TITLE
 10
156.2021652330622
 20
34.290664364088229
 30
0.0
 11
157.25268124470219
 21
35.341180375727959
 31
0.0
  0
LINE
  5
4092
  8
TITLE
 10
156.2572655143635
 20
35.655037735089202
 30
0.0
 11
157.25268124470219
 21
36.650453465427859
 31
0.0
  0
LINE
  5
4093
  8
TITLE
 10
156.2572655143635
 20
35.742322607736469
 30
0.0
 11
157.25268124470219
 21
36.73773833807536
 31
0.0
  0
LINE
  5
4094
  8
TITLE
 10
156.2572655143635
 20
35.829607480383856
 30
0.0
 11
157.25268124470219
 21
36.825023210718541
 31
0.0
  0
LINE
  5
4095
  8
TITLE
 10
156.2572655143635
 20
35.916892353030789
 30
0.0
 11
157.25268124470219
 21
36.912308083366163
 31
0.0
  0
LINE
  5
4096
  8
TITLE
 10
156.2572655143635
 20
35.218613371857153
 30
0.0
 11
157.25268124470219
 21
36.214029102192512
 31
0.0
  0
LINE
  5
4097
  8
TITLE
 10
156.2572655143635
 20
35.305898244500888
 30
0.0
 11
157.25268124470219
 21
36.301313974839218
 31
0.0
  0
LINE
  5
4098
  8
TITLE
 10
156.2572655143635
 20
35.393183117147707
 30
0.0
 11
157.25268124470219
 21
36.388598847486492
 31
0.0
  0
LINE
  5
4099
  8
TITLE
 10
156.2572655143635
 20
35.480467989795102
 30
0.0
 11
157.25268124470219
 21
36.475883720133879
 31
0.0
  0
LINE
  5
409A
  8
TITLE
 10
156.2572655143635
 20
35.567752862442148
 30
0.0
 11
157.25268124470219
 21
36.563168592780698
 31
0.0
  0
LINE
  5
409B
  8
TITLE
 10
156.2572655143635
 20
37.924444423897278
 30
0.0
 11
157.25268124470219
 21
38.919860154232417
 31
0.0
  0
LINE
  5
409C
  8
TITLE
 10
156.2572655143635
 20
38.011729296540921
 30
0.0
 11
157.25268124470219
 21
39.007145026879812
 31
0.0
  0
LINE
  5
409D
  8
TITLE
 10
156.2572655143635
 20
37.749874678606723
 30
0.0
 11
157.25268124470219
 21
38.745290408941742
 31
0.0
  0
LINE
  5
409E
  8
TITLE
 10
156.2572655143635
 20
37.837159551250238
 30
0.0
 11
157.25268124470219
 21
38.832575281585378
 31
0.0
  0
LINE
  5
409F
  8
TITLE
 10
163.6407014669926
 20
36.753962857166933
 30
0.0
 11
164.1624176140167
 21
37.27567900419411
 31
0.0
  0
LINE
  5
40A0
  8
TITLE
 10
163.8152712122874
 20
36.753962857166933
 30
0.0
 11
164.336987359311
 21
37.27567900419411
 31
0.0
  0
LINE
  5
40A1
  8
TITLE
 10
163.72798633964021
 20
36.753962857166933
 30
0.0
 11
164.24970248666381
 21
37.27567900419411
 31
0.0
  0
LINE
  5
40A2
  8
TITLE
 10
163.70606493347799
 20
35.073628870726907
 30
0.0
 11
164.35505693159621
 21
35.722620868848942
 31
0.0
  0
LINE
  5
40A3
  8
TITLE
 10
163.66372972693171
 20
35.11857853682784
 30
0.0
 11
164.33267756657139
 21
35.787526376463802
 31
0.0
  0
LINE
  5
40A4
  8
TITLE
 10
163.43206153260959
 20
35.410619578384633
 30
0.0
 11
164.3058601807397
 21
36.284418226511548
 31
0.0
  0
LINE
  5
40A5
  8
TITLE
 10
163.3972585987535
 20
35.463101517168873
 30
0.0
 11
164.21857530809251
 21
36.284418226511548
 31
0.0
  0
LINE
  5
40A6
  8
TITLE
 10
163.36358074300281
 20
35.516708534072109
 30
0.0
 11
164.13129043544541
 21
36.284418226511548
 31
0.0
  0
LINE
  5
40A7
  8
TITLE
 10
162.40239210711391
 20
34.817374516121163
 30
0.0
 11
163.8694358175039
 21
36.284418226511548
 31
0.0
  0
LINE
  5
40A8
  8
TITLE
 10
163.55341659434541
 20
36.753962857166933
 30
0.0
 11
164.07513274136949
 21
37.27567900419411
 31
0.0
  0
LINE
  5
40A9
  8
TITLE
 10
163.4661317216987
 20
36.753962857166933
 30
0.0
 11
163.98784786872241
 21
37.27567900419411
 31
0.0
  0
LINE
  5
40AA
  8
TITLE
 10
163.37884684905151
 20
36.753962857166933
 30
0.0
 11
163.90056299607519
 21
37.27567900419411
 31
0.0
  0
LINE
  5
40AB
  8
TITLE
 10
163.33104717638199
 20
35.5714598400981
 30
0.0
 11
164.04400556279819
 21
36.284418226511548
 31
0.0
  0
LINE
  5
40AC
  8
TITLE
 10
163.29967983550611
 20
35.627377371866373
 30
0.0
 11
163.95672069015109
 21
36.284418226511548
 31
0.0
  0
LINE
  5
40AD
  8
TITLE
 10
162.40239210711391
 20
36.301217351111859
 30
0.0
 11
163.37685376019951
 21
37.27567900419411
 31
0.0
  0
LINE
  5
40AE
  8
TITLE
 10
162.40239210711391
 20
36.38850222375936
 30
0.0
 11
163.29115615205859
 21
37.2772662687006
 31
0.0
  0
LINE
  5
40AF
  8
TITLE
 10
162.40239210711391
 20
36.475787096406179
 30
0.0
 11
163.29115615205859
 21
37.364551141347761
 31
0.0
  0
LINE
  5
40B0
  8
TITLE
 10
162.40239210711391
 20
36.563071969049929
 30
0.0
 11
163.29115615205859
 21
37.451836013995148
 31
0.0
  0
LINE
  5
40B1
  8
TITLE
 10
162.40239210711391
 20
36.650356841696748
 30
0.0
 11
163.29115615205859
 21
37.539120886638791
 31
0.0
  0
LINE
  5
40B2
  8
TITLE
 10
162.40239210711391
 20
36.737641714344143
 30
0.0
 11
163.29115615205859
 21
37.626405759286058
 31
0.0
  0
LINE
  5
40B3
  8
TITLE
 10
162.33142837729289
 20
36.753962857166933
 30
0.0
 11
163.29115615205859
 21
37.713690631932877
 31
0.0
  0
LINE
  5
40B4
  8
TITLE
 10
162.40239210711391
 20
37.697775313452098
 30
0.0
 11
163.0498138500929
 21
38.345197056431289
 31
0.0
  0
LINE
  5
40B5
  8
TITLE
 10
162.38864119113441
 20
37.771309270119673
 30
0.0
 11
162.96252897744529
 21
38.345197056431289
 31
0.0
  0
LINE
  5
40B6
  8
TITLE
 10
162.3013563184868
 20
37.771309270119673
 30
0.0
 11
162.87524410479821
 21
38.345197056431289
 31
0.0
  0
LINE
  5
40B7
  8
TITLE
 10
162.21407144584009
 20
37.771309270119673
 30
0.0
 11
162.78795923215151
 21
38.345197056431289
 31
0.0
  0
LINE
  5
40B8
  8
TITLE
 10
162.1267865731929
 20
37.771309270119673
 30
0.0
 11
162.70067435950381
 21
38.345197056431289
 31
0.0
  0
LINE
  5
40B9
  8
TITLE
 10
162.06957375935141
 20
36.753962857166933
 30
0.0
 11
163.66080795861529
 21
38.345197056431289
 31
0.0
  0
LINE
  5
40BA
  8
TITLE
 10
161.9822888867111
 20
36.753962857166933
 30
0.0
 11
163.57352308596819
 21
38.345197056431289
 31
0.0
  0
LINE
  5
40BB
  8
TITLE
 10
161.8950040140644
 20
36.753962857166933
 30
0.0
 11
163.486238213321
 21
38.345197056431289
 31
0.0
  0
LINE
  5
40BC
  8
TITLE
 10
162.40239210711391
 20
37.348635822870961
 30
0.0
 11
163.39895334067381
 21
38.345197056431289
 31
0.0
  0
LINE
  5
40BD
  8
TITLE
 10
162.40239210711391
 20
37.43592069551778
 30
0.0
 11
163.31166846802671
 21
38.345197056431289
 31
0.0
  0
LINE
  5
40BE
  8
TITLE
 10
162.40239210711391
 20
37.523205568161423
 30
0.0
 11
163.22438359538
 21
38.345197056431289
 31
0.0
  0
LINE
  5
40BF
  8
TITLE
 10
162.40239210711391
 20
37.610490440808583
 30
0.0
 11
163.13709872274009
 21
38.345197056431289
 31
0.0
  0
LINE
  5
40C0
  8
TITLE
 10
162.573960936254
 20
34.290664364088229
 30
0.0
 11
163.29115615205859
 21
35.007859579892738
 31
0.0
  0
LINE
  5
40C1
  8
TITLE
 10
162.48667606360729
 20
34.290664364088229
 30
0.0
 11
163.29115615205859
 21
35.095144452540133
 31
0.0
  0
LINE
  5
40C2
  8
TITLE
 10
162.40239210711391
 20
34.293665280241733
 30
0.0
 11
163.29115615205859
 21
35.182429325186952
 31
0.0
  0
LINE
  5
40C3
  8
TITLE
 10
162.40239210711391
 20
34.380950152888772
 30
0.0
 11
163.29115615205859
 21
35.269714197834332
 31
0.0
  0
LINE
  5
40C4
  8
TITLE
 10
162.40239210711391
 20
34.468235025536053
 30
0.0
 11
163.29115615205859
 21
35.356999070481152
 31
0.0
  0
LINE
  5
40C5
  8
TITLE
 10
162.40239210711391
 20
34.55551989818332
 30
0.0
 11
163.29115615205859
 21
35.444283943124901
 31
0.0
  0
LINE
  5
40C6
  8
TITLE
 10
162.40239210711391
 20
34.642804770830708
 30
0.0
 11
163.29115615205859
 21
35.531568815772182
 31
0.0
  0
LINE
  5
40C7
  8
TITLE
 10
162.40239210711391
 20
34.730089643477868
 30
0.0
 11
163.29115615205859
 21
35.618853688419222
 31
0.0
  0
LINE
  5
40C8
  8
TITLE
 10
162.40239210711391
 20
35.079229134059119
 30
0.0
 11
163.60758119956969
 21
36.284418226511548
 31
0.0
  0
LINE
  5
40C9
  8
TITLE
 10
162.40239210711391
 20
35.166514006706173
 30
0.0
 11
163.52029632692251
 21
36.284418226511548
 31
0.0
  0
LINE
  5
40CA
  8
TITLE
 10
162.40239210711391
 20
35.253798879352992
 30
0.0
 11
163.4330114542754
 21
36.284418226511548
 31
0.0
  0
LINE
  5
40CB
  8
TITLE
 10
162.40239210711391
 20
35.341083752000372
 30
0.0
 11
163.34572658162779
 21
36.284418226511548
 31
0.0
  0
LINE
  5
40CC
  8
TITLE
 10
162.40239210711391
 20
35.42836862464776
 30
0.0
 11
163.29115615205859
 21
36.317132669592873
 31
0.0
  0
LINE
  5
40CD
  8
TITLE
 10
162.40239210711391
 20
35.515653497294579
 30
0.0
 11
163.29115615205859
 21
36.404417542236281
 31
0.0
  0
LINE
  5
40CE
  8
TITLE
 10
162.40239210711391
 20
35.60293836994186
 30
0.0
 11
163.29115615205859
 21
36.491702414883548
 31
0.0
  0
LINE
  5
40CF
  8
TITLE
 10
162.40239210711391
 20
34.904659388768209
 30
0.0
 11
163.78215094485671
 21
36.284418226511548
 31
0.0
  0
LINE
  5
40D0
  8
TITLE
 10
162.40239210711391
 20
34.991944261411852
 30
0.0
 11
163.69486607220961
 21
36.284418226511548
 31
0.0
  0
LINE
  5
40D1
  8
TITLE
 10
161.25724562885301
 20
34.545076764320918
 30
0.0
 11
163.29115615205859
 21
36.578987287530822
 31
0.0
  0
LINE
  5
40D2
  8
TITLE
 10
161.10075752885271
 20
34.47587353697179
 30
0.0
 11
163.29115615205859
 21
36.666272160174572
 31
0.0
  0
LINE
  5
40D3
  8
TITLE
 10
160.96226088844691
 20
34.424661769209592
 30
0.0
 11
163.29115615205859
 21
36.753557032821497
 31
0.0
  0
LINE
  5
40D4
  8
TITLE
 10
160.83596690959439
 20
34.38565266300418
 30
0.0
 11
163.7259932507809
 21
37.27567900419411
 31
0.0
  0
LINE
  5
40D5
  8
TITLE
 10
161.80771914141721
 20
36.753962857166933
 30
0.0
 11
162.32943528844089
 21
37.27567900419411
 31
0.0
  0
LINE
  5
40D6
  8
TITLE
 10
161.72043426876959
 20
36.753962857166933
 30
0.0
 11
162.2421504157933
 21
37.27567900419411
 31
0.0
  0
LINE
  5
40D7
  8
TITLE
 10
161.63314939612289
 20
36.753962857166933
 30
0.0
 11
162.1548655431466
 21
37.27567900419411
 31
0.0
  0
LINE
  5
40D8
  8
TITLE
 10
161.5458645234757
 20
36.753962857166933
 30
0.0
 11
162.06758067049941
 21
37.27567900419411
 31
0.0
  0
LINE
  5
40D9
  8
TITLE
 10
161.4585796508286
 20
36.753962857166933
 30
0.0
 11
161.98029579785219
 21
37.27567900419411
 31
0.0
  0
LINE
  5
40DA
  8
TITLE
 10
161.37129477818141
 20
36.753962857166933
 30
0.0
 11
161.89301092520509
 21
37.27567900419411
 31
0.0
  0
LINE
  5
40DB
  8
TITLE
 10
161.28400990553379
 20
36.753962857166933
 30
0.0
 11
161.80572605256469
 21
37.27567900419411
 31
0.0
  0
LINE
  5
40DC
  8
TITLE
 10
161.1967250328866
 20
36.753962857166933
 30
0.0
 11
161.71844117991799
 21
37.27567900419411
 31
0.0
  0
LINE
  5
40DD
  8
TITLE
 10
161.10944016024681
 20
36.753962857166933
 30
0.0
 11
161.6311563072704
 21
37.27567900419411
 31
0.0
  0
LINE
  5
40DE
  8
TITLE
 10
161.02215528759999
 20
36.753962857166933
 30
0.0
 11
161.5438714346237
 21
37.27567900419411
 31
0.0
  0
LINE
  5
40DF
  8
TITLE
 10
160.9348704149524
 20
36.753962857166933
 30
0.0
 11
161.45658656197651
 21
37.27567900419411
 31
0.0
  0
LINE
  5
40E0
  8
TITLE
 10
160.8475855423053
 20
36.753962857166933
 30
0.0
 11
161.36930168932889
 21
37.27567900419411
 31
0.0
  0
LINE
  5
40E1
  8
TITLE
 10
161.71786840926279
 20
34.831129799436781
 30
0.0
 11
162.16510750857509
 21
35.27836889874937
 31
0.0
  0
LINE
  5
40E2
  8
TITLE
 10
161.44498062361481
 20
34.645526886440052
 30
0.0
 11
162.35071042157551
 21
35.55125668439689
 31
0.0
  0
LINE
  5
40E3
  8
TITLE
 10
161.1516103502131
 20
35.3995750847929
 30
0.0
 11
162.03645349192811
 21
36.284418226511548
 31
0.0
  0
LINE
  5
40E4
  8
TITLE
 10
161.3023556488497
 20
35.637605256076881
 30
0.0
 11
161.9491686192809
 21
36.284418226511548
 31
0.0
  0
LINE
  5
40E5
  8
TITLE
 10
161.3589777037532
 20
35.781512183627569
 30
0.0
 11
161.86188374664101
 21
36.284418226511548
 31
0.0
  0
LINE
  5
40E6
  8
TITLE
 10
161.27896860806499
 20
35.788787960585871
 30
0.0
 11
161.77459887399391
 21
36.284418226511548
 31
0.0
  0
LINE
  5
40E7
  8
TITLE
 10
161.1916837354174
 20
35.788787960585871
 30
0.0
 11
161.68731400134629
 21
36.284418226511548
 31
0.0
  0
LINE
  5
40E8
  8
TITLE
 10
161.10439886277749
 20
35.788787960585871
 30
0.0
 11
161.60002912869959
 21
36.284418226511548
 31
0.0
  0
LINE
  5
40E9
  8
TITLE
 10
161.01711399013041
 20
35.788787960585871
 30
0.0
 11
161.5127442560524
 21
36.284418226511548
 31
0.0
  0
LINE
  5
40EA
  8
TITLE
 10
160.92982911748319
 20
35.788787960585871
 30
0.0
 11
161.42545938340481
 21
36.284418226511548
 31
0.0
  0
LINE
  5
40EB
  8
TITLE
 10
160.84254424483601
 20
35.788787960585871
 30
0.0
 11
161.33817451075811
 21
36.284418226511548
 31
0.0
  0
LINE
  5
40EC
  8
TITLE
 10
162.03950170054571
 20
37.771309270119673
 30
0.0
 11
162.6133894868567
 21
38.345197056431289
 31
0.0
  0
LINE
  5
40ED
  8
TITLE
 10
161.9522168278981
 20
37.771309270119673
 30
0.0
 11
162.52610461420949
 21
38.345197056431289
 31
0.0
  0
LINE
  5
40EE
  8
TITLE
 10
161.86493195525139
 20
37.771309270119673
 30
0.0
 11
162.43881974156281
 21
38.345197056431289
 31
0.0
  0
LINE
  5
40EF
  8
TITLE
 10
161.77764708260381
 20
37.771309270119673
 30
0.0
 11
162.3515348689148
 21
38.345197056431289
 31
0.0
  0
LINE
  5
40F0
  8
TITLE
 10
161.6903622099571
 20
37.771309270119673
 30
0.0
 11
162.26424999627531
 21
38.345197056431289
 31
0.0
  0
LINE
  5
40F1
  8
TITLE
 10
161.60307733731679
 20
37.771309270119673
 30
0.0
 11
162.17696512362821
 21
38.345197056431289
 31
0.0
  0
LINE
  5
40F2
  8
TITLE
 10
161.5157924646696
 20
37.771309270119673
 30
0.0
 11
162.08968025098139
 21
38.345197056431289
 31
0.0
  0
LINE
  5
40F3
  8
TITLE
 10
161.42850759202241
 20
37.771309270119673
 30
0.0
 11
162.02135305428601
 21
38.364154732383099
 31
0.0
  0
LINE
  5
40F4
  8
TITLE
 10
161.34122271937531
 20
37.771309270119673
 30
0.0
 11
162.00679003893629
 21
38.436876589676672
 31
0.0
  0
LINE
  5
40F5
  8
TITLE
 10
161.25393784672809
 20
37.771309270119673
 30
0.0
 11
161.99222702357881
 21
38.50959844696672
 31
0.0
  0
LINE
  5
40F6
  8
TITLE
 10
161.16665297408099
 20
37.771309270119673
 30
0.0
 11
161.97766400822181
 21
38.582320304256882
 31
0.0
  0
LINE
  5
40F7
  8
TITLE
 10
161.0793681014338
 20
37.771309270119673
 30
0.0
 11
161.96310099286481
 21
38.655042161550568
 31
0.0
  0
LINE
  5
40F8
  8
TITLE
 10
160.9920832287871
 20
37.771309270119673
 30
0.0
 11
161.94853797750781
 21
38.727764018840162
 31
0.0
  0
LINE
  5
40F9
  8
TITLE
 10
163.29156197640441
 20
36.753962857166933
 30
0.0
 11
163.81327812342801
 21
37.27567900419411
 31
0.0
  0
LINE
  5
40FA
  8
TITLE
 10
163.27223991742451
 20
34.290664364088229
 30
0.0
 11
163.29115615205859
 21
34.309580598722732
 31
0.0
  0
LINE
  5
40FB
  8
TITLE
 10
163.1849550447773
 20
34.290664364088229
 30
0.0
 11
163.29115615205859
 21
34.396865471369779
 31
0.0
  0
LINE
  5
40FC
  8
TITLE
 10
163.09767017213741
 20
34.290664364088229
 30
0.0
 11
163.29115615205859
 21
34.484150344016832
 31
0.0
  0
LINE
  5
40FD
  8
TITLE
 10
163.0103852994898
 20
34.290664364088229
 30
0.0
 11
163.29115615205859
 21
34.571435216660461
 31
0.0
  0
LINE
  5
40FE
  8
TITLE
 10
162.92310042684261
 20
34.290664364088229
 30
0.0
 11
163.29115615205859
 21
34.65872008930797
 31
0.0
  0
LINE
  5
40FF
  8
TITLE
 10
162.8358155541959
 20
34.290664364088229
 30
0.0
 11
163.29115615205859
 21
34.746004961954782
 31
0.0
  0
LINE
  5
4100
  8
TITLE
 10
162.7485306815488
 20
34.290664364088229
 30
0.0
 11
163.29115615205859
 21
34.833289834598759
 31
0.0
  0
LINE
  5
4101
  8
TITLE
 10
162.66124580890161
 20
34.290664364088229
 30
0.0
 11
163.29115615205859
 21
34.920574707245457
 31
0.0
  0
LINE
  5
4102
  8
TITLE
 10
160.7187216291272
 20
34.35569225518384
 30
0.0
 11
163.63870837814099
 21
37.27567900419411
 31
0.0
  0
LINE
  5
4103
  8
TITLE
 10
160.6085784827246
 20
34.332833981428507
 30
0.0
 11
163.5514235054934
 21
37.27567900419411
 31
0.0
  0
LINE
  5
4104
  8
TITLE
 10
160.50423453726211
 20
34.31577490860969
 30
0.0
 11
163.4641386328467
 21
37.27567900419411
 31
0.0
  0
LINE
  5
4105
  8
TITLE
 10
160.76030066965811
 20
36.753962857166933
 30
0.0
 11
161.28201681668219
 21
37.27567900419411
 31
0.0
  0
LINE
  5
4106
  8
TITLE
 10
160.673015797011
 20
36.753962857166933
 30
0.0
 11
161.19473194403511
 21
37.27567900419411
 31
0.0
  0
LINE
  5
4107
  8
TITLE
 10
160.58573092436379
 20
36.753962857166933
 30
0.0
 11
161.10744707138741
 21
37.27567900419411
 31
0.0
  0
LINE
  5
4108
  8
TITLE
 10
160.49844605171711
 20
36.753962857166933
 30
0.0
 11
161.02016219874071
 21
37.27567900419411
 31
0.0
  0
LINE
  5
4109
  8
TITLE
 10
160.41116117906989
 20
36.753962857166933
 30
0.0
 11
160.93287732610091
 21
37.27567900419411
 31
0.0
  0
LINE
  5
410A
  8
TITLE
 10
160.32387630642279
 20
36.753962857166933
 30
0.0
 11
160.84559245345369
 21
37.27567900419411
 31
0.0
  0
LINE
  5
410B
  8
TITLE
 10
160.7552593721889
 20
35.788787960585871
 30
0.0
 11
161.25088963811089
 21
36.284418226511548
 31
0.0
  0
LINE
  5
410C
  8
TITLE
 10
160.66797449954171
 20
35.788787960585871
 30
0.0
 11
161.16360476546379
 21
36.284418226511548
 31
0.0
  0
LINE
  5
410D
  8
TITLE
 10
160.58068962689461
 20
35.788787960585871
 30
0.0
 11
161.07631989281711
 21
36.284418226511548
 31
0.0
  0
LINE
  5
410E
  8
TITLE
 10
160.49340475424739
 20
35.788787960585871
 30
0.0
 11
160.9890350201695
 21
36.284418226511548
 31
0.0
  0
LINE
  5
410F
  8
TITLE
 10
160.4061198816002
 20
35.788787960585871
 30
0.0
 11
160.90175014752961
 21
36.284418226511548
 31
0.0
  0
LINE
  5
4110
  8
TITLE
 10
160.3188350089531
 20
35.788787960585871
 30
0.0
 11
160.81446527488191
 21
36.284418226511548
 31
0.0
  0
LINE
  5
4111
  8
TITLE
 10
160.40476624130361
 20
34.303591485298632
 30
0.0
 11
162.3855929825167
 21
36.284418226511548
 31
0.0
  0
LINE
  5
4112
  8
TITLE
 10
160.30949041180199
 20
34.295600528440097
 30
0.0
 11
162.29830810986959
 21
36.284418226511548
 31
0.0
  0
LINE
  5
4113
  8
TITLE
 10
160.6429437382057
 20
37.771309270119673
 30
0.0
 11
161.21683152451669
 21
38.345197056431289
 31
0.0
  0
LINE
  5
4114
  8
TITLE
 10
160.55565886555809
 20
37.771309270119673
 30
0.0
 11
161.1295466518695
 21
38.345197056431289
 31
0.0
  0
LINE
  5
4115
  8
TITLE
 10
160.46837399291101
 20
37.771309270119673
 30
0.0
 11
161.0422617792228
 21
38.345197056431289
 31
0.0
  0
LINE
  5
4116
  8
TITLE
 10
160.38108912026379
 20
37.771309270119673
 30
0.0
 11
160.95497690657521
 21
38.345197056431289
 31
0.0
  0
LINE
  5
4117
  8
TITLE
 10
160.29380424761661
 20
37.771309270119673
 30
0.0
 11
160.86769203392851
 21
38.345197056431289
 31
0.0
  0
LINE
  5
4118
  8
TITLE
 10
160.0148037945464
 20
39.325291142622177
 30
0.0
 11
160.1042277605857
 21
39.414715108664723
 31
0.0
  0
LINE
  5
4119
  8
TITLE
 10
160.0148037945464
 20
39.412576015269451
 30
0.0
 11
160.01694288793851
 21
39.414715108664723
 31
0.0
  0
LINE
  5
411A
  8
TITLE
 10
161.81601004633561
 20
39.729939432067113
 30
0.0
 11
161.9413588656266
 21
39.855288251358161
 31
0.0
  0
LINE
  5
411B
  8
TITLE
 10
161.81601004633561
 20
39.817224304714159
 30
0.0
 11
161.85407399297989
 21
39.855288251358161
 31
0.0
  0
LINE
  5
411C
  8
TITLE
 10
161.81601004633561
 20
39.468084814125632
 30
0.0
 11
162.20321348356811
 21
39.855288251358161
 31
0.0
  0
LINE
  5
411D
  8
TITLE
 10
161.81601004633561
 20
39.555369686772792
 30
0.0
 11
162.11592861092089
 21
39.855288251358161
 31
0.0
  0
LINE
  5
411E
  8
TITLE
 10
161.81601004633561
 20
39.642654559420073
 30
0.0
 11
162.02864373827379
 21
39.855288251358161
 31
0.0
  0
LINE
  5
411F
  8
TITLE
 10
163.20754153537649
 20
39.724912958765003
 30
0.0
 11
163.33791682796661
 21
39.855288251358161
 31
0.0
  0
LINE
  5
4120
  8
TITLE
 10
163.20754153537649
 20
39.812197831411822
 30
0.0
 11
163.25063195531939
 21
39.855288251358161
 31
0.0
  0
LINE
  5
4121
  8
TITLE
 10
163.20754153537649
 20
39.463058340826713
 30
0.0
 11
163.5997714459086
 21
39.855288251358161
 31
0.0
  0
LINE
  5
4122
  8
TITLE
 10
163.20754153537649
 20
39.5503432134741
 30
0.0
 11
163.5124865732609
 21
39.855288251358161
 31
0.0
  0
LINE
  5
4123
  8
TITLE
 10
163.20754153537649
 20
39.63762808612114
 30
0.0
 11
163.4252017006138
 21
39.855288251358161
 31
0.0
  0
LINE
  5
4124
  8
TITLE
 10
160.58819436819519
 20
39.724111970980182
 30
0.0
 11
160.7193706485736
 21
39.855288251358161
 31
0.0
  0
LINE
  5
4125
  8
TITLE
 10
160.5602388582692
 20
39.783441333693759
 30
0.0
 11
160.6320857759265
 21
39.855288251358161
 31
0.0
  0
LINE
  5
4126
  8
TITLE
 10
160.5322833483356
 20
39.842770696411208
 30
0.0
 11
160.54480090327979
 21
39.855288251358161
 31
0.0
  0
LINE
  5
4127
  8
TITLE
 10
160.72797191784861
 20
39.427465157397137
 30
0.0
 11
161.1557950118094
 21
39.855288251358161
 31
0.0
  0
LINE
  5
4128
  8
TITLE
 10
160.700016407915
 20
39.486794520118004
 30
0.0
 11
161.0685101391623
 21
39.855288251358161
 31
0.0
  0
LINE
  5
4129
  8
TITLE
 10
160.6720608979885
 20
39.546123882831921
 30
0.0
 11
160.98122526651511
 21
39.855288251358161
 31
0.0
  0
LINE
  5
412A
  8
TITLE
 10
160.64410538805529
 20
39.605453245545853
 30
0.0
 11
160.89394039386801
 21
39.855288251358161
 31
0.0
  0
LINE
  5
412B
  8
TITLE
 10
160.61614987812891
 20
39.664782608266712
 30
0.0
 11
160.8066555212213
 21
39.855288251358161
 31
0.0
  0
LINE
  5
412D
  8
TITLE
 10
154.875
 20
67.5
 30
0.0
 11
154.875
 21
52.5
 31
0.0
  0
LINE
  5
412E
  8
TITLE
 10
169.875
 20
52.5
 30
0.0
 11
169.875
 21
42.5
 31
0.0
  0
LINE
  5
4130
  8
TITLE
 10
178.7072920514297
 20
34.538148657607167
 30
0.0
 11
181.15739697628479
 21
36.988253582461773
 31
0.0
  0
LINE
  5
4131
  8
TITLE
 10
178.7072920514297
 20
34.625433530250923
 30
0.0
 11
181.07011210363771
 21
36.988253582461773
 31
0.0
  0
LINE
  5
4132
  8
TITLE
 10
178.7072920514297
 20
34.712718402897728
 30
0.0
 11
180.9828272309901
 21
36.988253582461773
 31
0.0
  0
LINE
  5
4133
  8
TITLE
 10
178.7072920514297
 20
34.800003275544903
 30
0.0
 11
180.89554235834291
 21
36.988253582461773
 31
0.0
  0
LINE
  5
4134
  8
TITLE
 10
178.96976362207991
 20
37.942875643533398
 30
0.0
 11
180.88217622990851
 21
39.855288251358161
 31
0.0
  0
LINE
  5
4135
  8
TITLE
 10
178.85011463170619
 20
37.91051152580701
 30
0.0
 11
180.79489135726129
 21
39.855288251358161
 31
0.0
  0
LINE
  5
4136
  8
TITLE
 10
180.4658582403012
 20
37.431418190884422
 30
0.0
 11
181.2479135039448
 21
38.213473454524433
 31
0.0
  0
LINE
  5
4137
  8
TITLE
 10
180.3785733676541
 20
37.431418190884422
 30
0.0
 11
181.16062863129761
 21
38.213473454524433
 31
0.0
  0
LINE
  5
4138
  8
TITLE
 10
180.29128849500691
 20
37.431418190884422
 30
0.0
 11
181.0733437586504
 21
38.213473454524433
 31
0.0
  0
LINE
  5
4139
  8
TITLE
 10
180.204003622367
 20
37.431418190884422
 30
0.0
 11
180.98605888600281
 21
38.213473454524433
 31
0.0
  0
LINE
  5
413A
  8
TITLE
 10
180.11671874971941
 20
37.431418190884422
 30
0.0
 11
180.8987740133561
 21
38.213473454524433
 31
0.0
  0
LINE
  5
413B
  8
TITLE
 10
180.02943387707231
 20
37.431418190884422
 30
0.0
 11
180.811489140709
 21
38.213473454524433
 31
0.0
  0
LINE
  5
413C
  8
TITLE
 10
180.54083211165829
 20
36.284403845184897
 30
0.0
 11
181.24468184893161
 21
36.988253582461773
 31
0.0
  0
LINE
  5
413D
  8
TITLE
 10
180.55464470142491
 20
34.290664364088229
 30
0.0
 11
181.27102733386161
 21
35.007046996521808
 31
0.0
  0
LINE
  5
413E
  8
TITLE
 10
180.46735982878451
 20
34.290664364088229
 30
0.0
 11
181.18374246121451
 21
35.007046996521808
 31
0.0
  0
LINE
  5
413F
  8
TITLE
 10
180.3800749561378
 20
34.290664364088229
 30
0.0
 11
181.09645758856729
 21
35.007046996521808
 31
0.0
  0
LINE
  5
4140
  8
TITLE
 10
180.29279008349019
 20
34.290664364088229
 30
0.0
 11
181.0091727159201
 21
35.007046996521808
 31
0.0
  0
LINE
  5
4141
  8
TITLE
 10
180.205505210843
 20
34.290664364088229
 30
0.0
 11
180.921887843273
 21
35.007046996521808
 31
0.0
  0
LINE
  5
4142
  8
TITLE
 10
180.1182203381959
 20
34.290664364088229
 30
0.0
 11
180.83460297062581
 21
35.007046996521808
 31
0.0
  0
LINE
  5
4143
  8
TITLE
 10
179.42597096264529
 20
35.605967059410773
 30
0.0
 11
180.8082574856958
 21
36.988253582461773
 31
0.0
  0
LINE
  5
4144
  8
TITLE
 10
179.30763632220351
 20
37.931608853071907
 30
0.0
 11
181.2313157204899
 21
39.855288251358161
 31
0.0
  0
LINE
  5
4145
  8
TITLE
 10
179.30763632220351
 20
38.018893725715202
 30
0.0
 11
181.14403084784951
 21
39.855288251358161
 31
0.0
  0
LINE
  5
4146
  8
TITLE
 10
179.22271149789859
 20
38.021253774057868
 30
0.0
 11
181.0567459752028
 21
39.855288251358161
 31
0.0
  0
LINE
  5
4147
  8
TITLE
 10
179.0937551089996
 20
37.979582257802463
 30
0.0
 11
180.96946110255561
 21
39.855288251358161
 31
0.0
  0
LINE
  5
4148
  8
TITLE
 10
180.72771285824231
 20
37.431418190884422
 30
0.0
 11
181.50976812187849
 21
38.213473454524433
 31
0.0
  0
LINE
  5
4149
  8
TITLE
 10
180.64042798559601
 20
37.431418190884422
 30
0.0
 11
181.42248324923179
 21
38.213473454524433
 31
0.0
  0
LINE
  5
414A
  8
TITLE
 10
180.55314311294839
 20
37.431418190884422
 30
0.0
 11
181.33519837659151
 21
38.213473454524433
 31
0.0
  0
LINE
  5
414B
  8
TITLE
 10
180.71540185694539
 20
36.284403845184897
 30
0.0
 11
181.4192515942259
 21
36.988253582461773
 31
0.0
  0
LINE
  5
414C
  8
TITLE
 10
180.62811698430551
 20
36.284403845184897
 30
0.0
 11
181.33196672157919
 21
36.988253582461773
 31
0.0
  0
LINE
  5
414D
  8
TITLE
 10
180.7292144467192
 20
34.290664364088229
 30
0.0
 11
181.44559707914911
 21
35.007046996521808
 31
0.0
  0
LINE
  5
414E
  8
TITLE
 10
180.64192957407201
 20
34.290664364088229
 30
0.0
 11
181.3583122065088
 21
35.007046996521808
 31
0.0
  0
LINE
  5
414F
  8
TITLE
 10
180.39642081793039
 20
38.583968985559643
 30
0.0
 11
181.6677400837257
 21
39.855288251354871
 31
0.0
  0
LINE
  5
4150
  8
TITLE
 10
179.80890453483059
 20
38.258307320404469
 30
0.0
 11
181.40588546578419
 21
39.855288251358161
 31
0.0
  0
LINE
  5
4151
  8
TITLE
 10
180.174956612263
 20
38.449789652542677
 30
0.0
 11
181.58045521107849
 21
39.855288251358161
 31
0.0
  0
LINE
  5
4152
  8
TITLE
 10
179.9825343084444
 20
38.344652221363852
 30
0.0
 11
181.4931703384313
 21
39.855288251358161
 31
0.0
  0
LINE
  5
4153
  8
TITLE
 10
179.30763632220351
 20
37.84432398042452
 30
0.0
 11
181.31860059313701
 21
39.855288251358161
 31
0.0
  0
LINE
  5
4154
  8
TITLE
 10
180.673038484198
 20
38.773301779179747
 30
0.0
 11
181.7324988401233
 21
39.832762135112489
 31
0.0
  0
LINE
  5
4155
  8
TITLE
 10
172.4514693816254
 20
37.098098125093657
 30
0.0
 11
173.07250876444459
 21
37.719137507916351
 31
0.0
  0
LINE
  5
4156
  8
TITLE
 10
172.4514693816254
 20
37.185382997741158
 30
0.0
 11
172.9852238917974
 21
37.719137507916351
 31
0.0
  0
LINE
  5
4157
  8
TITLE
 10
172.4514693816254
 20
37.272667870387863
 30
0.0
 11
172.89793901914979
 21
37.719137507916351
 31
0.0
  0
LINE
  5
4158
  8
TITLE
 10
172.4514693816254
 20
37.359952743031499
 30
0.0
 11
172.8106541465026
 21
37.719137507916351
 31
0.0
  0
LINE
  5
4159
  8
TITLE
 10
172.4514693816254
 20
37.44723761567878
 30
0.0
 11
172.72336927385589
 21
37.719137507916351
 31
0.0
  0
LINE
  5
415A
  8
TITLE
 10
172.4514693816254
 20
37.534522488326047
 30
0.0
 11
172.63608440120879
 21
37.719137507916351
 31
0.0
  0
LINE
  5
415B
  8
TITLE
 10
172.29475386004381
 20
34.846545659997787
 30
0.0
 11
172.59534313633139
 21
35.147134936285852
 31
0.0
  0
LINE
  5
415C
  8
TITLE
 10
172.29475386004381
 20
34.410121296769262
 30
0.0
 11
173.06149979207521
 21
35.176867228793867
 31
0.0
  0
LINE
  5
415D
  8
TITLE
 10
172.29475386004381
 20
34.497406169416543
 30
0.0
 11
172.9669704731636
 21
35.169622782536749
 31
0.0
  0
LINE
  5
415E
  8
TITLE
 10
172.29475386004381
 20
34.584691042060058
 30
0.0
 11
172.8731044927485
 21
35.16304167476153
 31
0.0
  0
LINE
  5
415F
  8
TITLE
 10
172.29475386004381
 20
34.671975914707218
 30
0.0
 11
172.77988720518081
 21
35.157109259844113
 31
0.0
  0
LINE
  5
4160
  8
TITLE
 10
172.29475386004381
 20
34.759260787354151
 30
0.0
 11
172.68730457385709
 21
35.151811501164282
 31
0.0
  0
LINE
  5
4161
  8
TITLE
 10
172.29475386004381
 20
38.687080056444302
 30
0.0
 11
172.735444834731
 21
39.127771031131147
 31
0.0
  0
LINE
  5
4162
  8
TITLE
 10
172.29475386004381
 20
38.512510311149747
 30
0.0
 11
172.91001458002481
 21
39.127771031131147
 31
0.0
  0
LINE
  5
4163
  8
TITLE
 10
172.29475386004381
 20
38.5997951837968
 30
0.0
 11
172.8227297073781
 21
39.127771031131147
 31
0.0
  0
LINE
  5
4164
  8
TITLE
 10
172.38026762516981
 20
38.42345433098194
 30
0.0
 11
173.08458432531961
 21
39.127771031131147
 31
0.0
  0
LINE
  5
4165
  8
TITLE
 10
172.29475386004381
 20
38.425225438502707
 30
0.0
 11
172.99729945267239
 21
39.127771031131147
 31
0.0
  0
LINE
  5
4166
  8
TITLE
 10
172.29475386004381
 20
38.774364929091348
 30
0.0
 11
172.64815996208381
 21
39.127771031131147
 31
0.0
  0
LINE
  5
4167
  8
TITLE
 10
172.4905901703014
 20
36.962649168479061
 30
0.0
 11
173.2470785097384
 21
37.719137507916351
 31
0.0
  0
LINE
  5
4168
  8
TITLE
 10
172.4514693816254
 20
37.010813252449907
 30
0.0
 11
173.1597936370917
 21
37.719137507916351
 31
0.0
  0
LINE
  5
4169
  8
TITLE
 10
172.5302638594367
 20
34.29649180557783
 30
0.0
 11
173.44656687467611
 21
35.212794820813201
 31
0.0
  0
LINE
  5
416A
  8
TITLE
 10
172.4401466895483
 20
34.293659508329029
 30
0.0
 11
173.34922418261789
 21
35.202737001402397
 31
0.0
  0
LINE
  5
416B
  8
TITLE
 10
172.35079091551691
 20
34.291588606948039
 30
0.0
 11
173.25261030160979
 21
35.19340799303427
 31
0.0
  0
LINE
  5
416C
  8
TITLE
 10
172.29475386004381
 20
34.322836424122222
 30
0.0
 11
173.1567077417057
 21
35.184790305784759
 31
0.0
  0
LINE
  5
416D
  8
TITLE
 10
172.5548373704641
 20
38.42345433098194
 30
0.0
 11
173.2591540706139
 21
39.127771031131147
 31
0.0
  0
LINE
  5
416E
  8
TITLE
 10
172.467552497817
 20
38.42345433098194
 30
0.0
 11
173.17186919796671
 21
39.127771031131147
 31
0.0
  0
LINE
  5
416F
  8
TITLE
 10
166.880246378229
 20
39.295228787233562
 30
0.0
 11
167.44030584235401
 21
39.855288251358161
 31
0.0
  0
LINE
  5
4170
  8
TITLE
 10
169.7533630284633
 20
39.200659767485718
 30
0.0
 11
170.40799151233611
 21
39.855288251358161
 31
0.0
  0
LINE
  5
4171
  8
TITLE
 10
169.7533630284633
 20
39.287944640132991
 30
0.0
 11
170.32070663968901
 21
39.855288251358161
 31
0.0
  0
LINE
  5
4172
  8
TITLE
 10
169.71758086015279
 20
38.553883490655153
 30
0.0
 11
170.56305938401781
 21
39.399362014516903
 31
0.0
  0
LINE
  5
4173
  8
TITLE
 10
169.63029598750521
 20
38.553883490655153
 30
0.0
 11
170.56305938401781
 21
39.48664688716417
 31
0.0
  0
LINE
  5
4174
  8
TITLE
 10
169.54301111486529
 20
38.553883490655153
 30
0.0
 11
170.56305938401781
 21
39.57393175980792
 31
0.0
  0
LINE
  5
4175
  8
TITLE
 10
169.45572624221811
 20
38.553883490655153
 30
0.0
 11
170.56305938401781
 21
39.661216632454739
 31
0.0
  0
LINE
  5
4176
  8
TITLE
 10
169.368441369571
 20
38.553883490655153
 30
0.0
 11
170.56305938401781
 21
39.748501505102013
 31
0.0
  0
LINE
  5
4177
  8
TITLE
 10
169.28115649692381
 20
38.553883490655153
 30
0.0
 11
170.56305938401781
 21
39.835786377745883
 31
0.0
  0
LINE
  5
4178
  8
TITLE
 10
169.1938716242766
 20
38.553883490655153
 30
0.0
 11
170.49527638497599
 21
39.855288251358161
 31
0.0
  0
LINE
  5
4179
  8
TITLE
 10
169.7533630284633
 20
38.502380786315257
 30
0.0
 11
170.56305938401781
 21
39.31207714186985
 31
0.0
  0
LINE
  5
417A
  8
TITLE
 10
166.55926370629729
 20
38.188682261487429
 30
0.0
 11
167.7160621819707
 21
39.345480737157573
 31
0.0
  0
LINE
  5
417B
  8
TITLE
 10
166.471978833657
 20
38.188682261487429
 30
0.0
 11
167.7160621819707
 21
39.432765609804392
 31
0.0
  0
LINE
  5
417C
  8
TITLE
 10
166.38469396100979
 20
38.188682261487429
 30
0.0
 11
167.7160621819707
 21
39.520050482451673
 31
0.0
  0
LINE
  5
417D
  8
TITLE
 10
166.2974090883626
 20
38.188682261491067
 30
0.0
 11
167.7160621819707
 21
39.607335355098833
 31
0.0
  0
LINE
  5
417E
  8
TITLE
 10
166.21012421571589
 20
38.188682261491067
 30
0.0
 11
167.7160621819707
 21
39.694620227746213
 31
0.0
  0
LINE
  5
417F
  8
TITLE
 10
165.12559929882261
 20
38.762569924883337
 30
0.0
 11
165.6787444646329
 21
39.315715090686012
 31
0.0
  0
LINE
  5
4180
  8
TITLE
 10
165.03831442618269
 20
38.762569924883337
 30
0.0
 11
165.6787444646329
 21
39.402999963329762
 31
0.0
  0
LINE
  5
4181
  8
TITLE
 10
164.95102955353511
 20
38.762569924883337
 30
0.0
 11
165.60317473731311
 21
39.414715108664723
 31
0.0
  0
LINE
  5
4182
  8
TITLE
 10
166.880246378229
 20
39.207943914586053
 30
0.0
 11
167.52759071500159
 21
39.855288251358161
 31
0.0
  0
LINE
  5
4183
  8
TITLE
 10
166.880246378229
 20
39.03337416929196
 30
0.0
 11
167.7021604602887
 21
39.855288251358161
 31
0.0
  0
LINE
  5
4184
  8
TITLE
 10
166.880246378229
 20
39.120659041938779
 30
0.0
 11
167.61487558764881
 21
39.855288251358161
 31
0.0
  0
LINE
  5
4185
  8
TITLE
 10
166.880246378229
 20
38.946089296648211
 30
0.0
 11
167.7160621819707
 21
39.781905100389743
 31
0.0
  0
LINE
  5
4186
  8
TITLE
 10
168.7082057942402
 20
39.290205877672179
 30
0.0
 11
169.27328816792979
 21
39.855288251358161
 31
0.0
  0
LINE
  5
4187
  8
TITLE
 10
168.654293248187
 20
39.149008458971359
 30
0.0
 11
169.36057304057749
 21
39.855288251358161
 31
0.0
  0
LINE
  5
4188
  8
TITLE
 10
168.42128167881489
 20
38.566857399007183
 30
0.0
 11
169.4399319852991
 21
39.585507705499033
 31
0.0
  0
LINE
  5
4189
  8
TITLE
 10
168.42128167881489
 20
38.654142271654223
 30
0.0
 11
169.4399319852991
 21
39.672792578145732
 31
0.0
  0
LINE
  5
418A
  8
TITLE
 10
168.42128167881489
 20
38.305002781072751
 30
0.0
 11
169.43609377269601
 21
39.319814874953749
 31
0.0
  0
LINE
  5
418B
  8
TITLE
 10
168.42128167881489
 20
38.39228765371638
 30
0.0
 11
169.43989151933329
 21
39.410897494238377
 31
0.0
  0
LINE
  5
418C
  8
TITLE
 10
168.42128167881489
 20
38.479572526363199
 30
0.0
 11
169.4399319852991
 21
39.498222832851638
 31
0.0
  0
LINE
  5
418D
  8
TITLE
 10
168.42128167881489
 20
38.741427144301497
 30
0.0
 11
169.4399319852991
 21
39.760077450793119
 31
0.0
  0
LINE
  5
418E
  8
TITLE
 10
168.42128167881489
 20
38.828712016948771
 30
0.0
 11
169.4399319852991
 21
39.847362323440279
 31
0.0
  0
LINE
  5
418F
  8
TITLE
 10
164.863744680888
 20
38.762569924883337
 30
0.0
 11
165.51588986466589
 21
39.414715108664723
 31
0.0
  0
LINE
  5
4190
  8
TITLE
 10
164.77645980824079
 20
38.762569924883337
 30
0.0
 11
165.42860499201879
 21
39.414715108664723
 31
0.0
  0
LINE
  5
4191
  8
TITLE
 10
164.68917493559411
 20
38.762569924883337
 30
0.0
 11
165.34132011937891
 21
39.414715108664723
 31
0.0
  0
LINE
  5
4192
  8
TITLE
 10
164.60189006294689
 20
38.762569924883337
 30
0.0
 11
165.25403524673169
 21
39.414715108664723
 31
0.0
  0
LINE
  5
4193
  8
TITLE
 10
168.42128167881489
 20
37.606723799899548
 30
0.0
 11
168.5858671490318
 21
37.771309270119673
 31
0.0
  0
LINE
  5
4194
  8
TITLE
 10
168.42128167881489
 20
37.694008672542743
 30
0.0
 11
168.4985822763847
 21
37.771309270119673
 31
0.0
  0
LINE
  5
4195
  8
TITLE
 10
168.42128167881489
 20
37.519438927252061
 30
0.0
 11
168.67315202167899
 21
37.771309270119673
 31
0.0
  0
LINE
  5
4196
  8
TITLE
 10
168.42128167881489
 20
37.257584309314211
 30
0.0
 11
168.9350066396205
 21
37.771309270119673
 31
0.0
  0
LINE
  5
4197
  8
TITLE
 10
168.42128167881489
 20
37.344869181961258
 30
0.0
 11
168.84772176697331
 21
37.771309270119673
 31
0.0
  0
LINE
  5
4198
  8
TITLE
 10
168.42128167881489
 20
37.43215405460478
 30
0.0
 11
168.7604368943262
 21
37.771309270119673
 31
0.0
  0
LINE
  5
4199
  8
TITLE
 10
168.42128167881489
 20
35.25003223844385
 30
0.0
 11
170.9425587104833
 21
37.771309270119673
 31
0.0
  0
LINE
  5
419A
  8
TITLE
 10
168.42128167881489
 20
35.337317111091238
 30
0.0
 11
170.85527383783619
 21
37.771309270119673
 31
0.0
  0
LINE
  5
419B
  8
TITLE
 10
168.42128167881489
 20
35.075462493149757
 30
0.0
 11
171.11712845577759
 21
37.771309270119673
 31
0.0
  0
LINE
  5
419C
  8
TITLE
 10
168.42128167881489
 20
35.162747365796918
 30
0.0
 11
171.02984358313051
 21
37.771309270119673
 31
0.0
  0
LINE
  5
419D
  8
TITLE
 10
168.42128167881489
 20
34.900892747859082
 30
0.0
 11
171.29169820107239
 21
37.771309270119673
 31
0.0
  0
LINE
  5
419E
  8
TITLE
 10
168.42128167881489
 20
34.639038129921239
 30
0.0
 11
171.5535528190135
 21
37.771309270119673
 31
0.0
  0
LINE
  5
419F
  8
TITLE
 10
168.42128167881489
 20
34.726323002564762
 30
0.0
 11
171.46626794636629
 21
37.771309270119673
 31
0.0
  0
LINE
  5
41A0
  8
TITLE
 10
168.42128167881489
 20
34.813607875211801
 30
0.0
 11
171.3789830737191
 21
37.771309270119673
 31
0.0
  0
LINE
  5
41A1
  8
TITLE
 10
168.42128167881489
 20
34.98817762050237
 30
0.0
 11
171.20441332842481
 21
37.771309270119673
 31
0.0
  0
LINE
  5
41A2
  8
TITLE
 10
168.42231796777011
 20
37.171335725622271
 30
0.0
 11
169.02229151226081
 21
37.771309270119673
 31
0.0
  0
LINE
  5
41A3
  8
TITLE
 10
168.42128167881489
 20
35.424601983738171
 30
0.0
 11
170.76798896519631
 21
37.771309270119673
 31
0.0
  0
LINE
  5
41A4
  8
TITLE
 10
168.42128167881489
 20
34.551753257273958
 30
0.0
 11
169.7182866230055
 21
35.848758201464079
 31
0.0
  0
LINE
  5
41A5
  8
TITLE
 10
168.42128167881489
 20
38.130433035778417
 30
0.0
 11
169.4186199199994
 21
39.127771276966662
 31
0.0
  0
LINE
  5
41A6
  8
TITLE
 10
168.42128167881489
 20
38.217717908425932
 30
0.0
 11
169.42584509583909
 21
39.222281325453203
 31
0.0
  0
LINE
  5
41A7
  8
TITLE
 10
168.42128167881489
 20
38.04314816313115
 30
0.0
 11
169.50590479264699
 21
39.127771276966662
 31
0.0
  0
LINE
  5
41A8
  8
TITLE
 10
166.76888234873871
 20
37.350882432170813
 30
0.0
 11
168.18620851319969
 21
38.768208596628263
 31
0.0
  0
LINE
  5
41A9
  8
TITLE
 10
166.8317516961751
 20
37.501036652250377
 30
0.0
 11
168.18620851319969
 21
38.855493469275302
 31
0.0
  0
LINE
  5
41AA
  8
TITLE
 10
166.87125114582969
 20
37.627820974555902
 30
0.0
 11
168.11034337473251
 21
38.866913203454828
 31
0.0
  0
LINE
  5
41AB
  8
TITLE
 10
166.148907666708
 20
36.032628768965772
 30
0.0
 11
167.84594176974579
 21
37.729662872007907
 31
0.0
  0
LINE
  5
41AC
  8
TITLE
 10
166.148907666708
 20
36.119913641612811
 30
0.0
 11
167.8081289049378
 21
37.779134879839148
 31
0.0
  0
LINE
  5
41AD
  8
TITLE
 10
166.148907666708
 20
36.207198514259858
 30
0.0
 11
167.77395436095179
 21
37.832245208504219
 31
0.0
  0
LINE
  5
41AE
  8
TITLE
 10
166.148907666708
 20
36.294483386907018
 30
0.0
 11
167.74361771013309
 21
37.889193430325577
 31
0.0
  0
LINE
  5
41AF
  8
TITLE
 10
166.148907666708
 20
36.381768259553951
 30
0.0
 11
167.717425092892
 21
37.950285685731501
 31
0.0
  0
LINE
  5
41B0
  8
TITLE
 10
166.148907666708
 20
36.469053132201232
 30
0.0
 11
167.7160621819707
 21
38.036207647460849
 31
0.0
  0
LINE
  5
41B1
  8
TITLE
 10
166.148907666708
 20
36.556338004845088
 30
0.0
 11
167.7160621819707
 21
38.123492520108243
 31
0.0
  0
LINE
  5
41B2
  8
TITLE
 10
166.64848984491979
 20
37.143205055700271
 30
0.0
 11
168.18620851319969
 21
38.680923723981209
 31
0.0
  0
LINE
  5
41B3
  8
TITLE
 10
166.148907666708
 20
35.858059023671217
 30
0.0
 11
167.93208994968239
 21
37.641241306653463
 31
0.0
  0
LINE
  5
41B4
  8
TITLE
 10
166.148907666708
 20
35.945343896318377
 30
0.0
 11
167.8872769633922
 21
37.6837131930032
 31
0.0
  0
LINE
  5
41B5
  8
TITLE
 10
166.55378948934501
 20
35.913801355720238
 30
0.0
 11
168.1476744427795
 21
37.507686309158323
 31
0.0
  0
LINE
  5
41B6
  8
TITLE
 10
166.31078574890671
 20
35.758082487936242
 30
0.0
 11
168.08797630903379
 21
37.535273048055728
 31
0.0
  0
LINE
  5
41B7
  8
TITLE
 10
166.148907666708
 20
35.683489278380762
 30
0.0
 11
168.03230855200209
 21
37.566890163671253
 31
0.0
  0
LINE
  5
41B8
  8
TITLE
 10
166.148907666708
 20
35.770774151027581
 30
0.0
 11
167.98040322839461
 21
37.602269712715163
 31
0.0
  0
LINE
  5
41B9
  8
TITLE
 10
166.148907666708
 20
36.643622877492021
 30
0.0
 11
166.24534904758769
 21
36.740064258368761
 31
0.0
  0
LINE
  5
41BA
  8
TITLE
 10
165.47368379256881
 20
36.753962857166933
 30
0.0
 11
165.5009916556441
 21
36.781270720241878
 31
0.0
  0
LINE
  5
41BB
  8
TITLE
 10
165.3863989199217
 20
36.753962857166933
 30
0.0
 11
165.5009916556441
 21
36.868555592888811
 31
0.0
  0
LINE
  5
41BC
  8
TITLE
 10
165.29911404727449
 20
36.753962857166933
 30
0.0
 11
165.5009916556441
 21
36.955840465536092
 31
0.0
  0
LINE
  5
41BD
  8
TITLE
 10
165.21182917462781
 20
36.753962857166933
 30
0.0
 11
165.5009916556441
 21
37.043125338183238
 31
0.0
  0
LINE
  5
41BE
  8
TITLE
 10
165.12454430198019
 20
36.753962857166933
 30
0.0
 11
165.5009916556441
 21
37.130410210830178
 31
0.0
  0
LINE
  5
41BF
  8
TITLE
 10
165.03725942933301
 20
36.753962857166933
 30
0.0
 11
165.5009916556441
 21
37.217695083474162
 31
0.0
  0
LINE
  5
41C0
  8
TITLE
 10
164.9499745566859
 20
36.753962857166933
 30
0.0
 11
165.4716907037168
 21
37.27567900419411
 31
0.0
  0
LINE
  5
41C1
  8
TITLE
 10
165.64321224039389
 20
35.788787960585871
 30
0.0
 11
165.6787444646329
 21
35.824320184824963
 31
0.0
  0
LINE
  5
41C2
  8
TITLE
 10
165.55592736774679
 20
35.788787960585871
 30
0.0
 11
165.6787444646329
 21
35.911605057472229
 31
0.0
  0
LINE
  5
41C3
  8
TITLE
 10
165.6289314788832
 20
34.290664364088229
 30
0.0
 11
165.6787444646329
 21
34.340477349837784
 31
0.0
  0
LINE
  5
41C4
  8
TITLE
 10
165.5416466062361
 20
34.290664364088229
 30
0.0
 11
165.6787444646329
 21
34.427762222485292
 31
0.0
  0
LINE
  5
41C5
  8
TITLE
 10
165.45564129791771
 20
34.291943928416799
 30
0.0
 11
165.6787444646329
 21
34.515047095132218
 31
0.0
  0
LINE
  5
41C6
  8
TITLE
 10
165.372773100496
 20
34.296360603642711
 30
0.0
 11
165.6787444646329
 21
34.602331967779151
 31
0.0
  0
LINE
  5
41C7
  8
TITLE
 10
165.2923550009595
 20
34.303227376756702
 30
0.0
 11
165.6787444646329
 21
34.689616840422673
 31
0.0
  0
LINE
  5
41C8
  8
TITLE
 10
165.2141990969007
 20
34.312356345341747
 30
0.0
 11
165.6787444646329
 21
34.77690171307006
 31
0.0
  0
LINE
  5
41C9
  8
TITLE
 10
165.13814615752329
 20
34.323588278610828
 30
0.0
 11
165.6787444646329
 21
34.864186585713242
 31
0.0
  0
LINE
  5
41CA
  8
TITLE
 10
165.06405999876139
 20
34.336786992492421
 30
0.0
 11
165.6787444646329
 21
34.951471458360629
 31
0.0
  0
LINE
  5
41CB
  8
TITLE
 10
164.99182322103519
 20
34.351835087417498
 30
0.0
 11
165.62011599256991
 21
34.980127858948777
 31
0.0
  0
LINE
  5
41CC
  8
TITLE
 10
164.92133392699091
 20
34.368630666013253
 30
0.0
 11
165.5328311199228
 21
34.980127858948777
 31
0.0
  0
LINE
  5
41CD
  8
TITLE
 10
165.4686424950992
 20
35.788787960585871
 30
0.0
 11
165.6787444646329
 21
35.998889930119162
 31
0.0
  0
LINE
  5
41CE
  8
TITLE
 10
165.38135762245199
 20
35.788787960585871
 30
0.0
 11
165.6787444646329
 21
36.08617480276655
 31
0.0
  0
LINE
  5
41CF
  8
TITLE
 10
165.2940727498048
 20
35.788787960585871
 30
0.0
 11
165.6787444646329
 21
36.173459675413817
 31
0.0
  0
LINE
  5
41D0
  8
TITLE
 10
165.20678787715769
 20
35.788787960585871
 30
0.0
 11
165.6787444646329
 21
36.260744548060757
 31
0.0
  0
LINE
  5
41D1
  8
TITLE
 10
165.11950300451099
 20
35.788787960585871
 30
0.0
 11
165.61513327043249
 21
36.284418226511548
 31
0.0
  0
LINE
  5
41D2
  8
TITLE
 10
165.0322181318638
 20
35.788787960585871
 30
0.0
 11
165.52784839778539
 21
36.284418226511548
 31
0.0
  0
LINE
  5
41D3
  8
TITLE
 10
164.94493325921621
 20
35.788787960585871
 30
0.0
 11
165.44056352514599
 21
36.284418226511548
 31
0.0
  0
LINE
  5
41D4
  8
TITLE
 10
168.16894043453561
 20
36.568818701806208
 30
0.0
 11
168.18620851319969
 21
36.586086780467333
 31
0.0
  0
LINE
  5
41D5
  8
TITLE
 10
168.11329340231941
 20
36.600456542236891
 30
0.0
 11
168.18620851319969
 21
36.673371653110848
 31
0.0
  0
LINE
  5
41D6
  8
TITLE
 10
168.05868760605111
 20
36.633135618608662
 30
0.0
 11
168.18620851319969
 21
36.760656525758243
 31
0.0
  0
LINE
  5
41D7
  8
TITLE
 10
168.00510572374469
 20
36.666838608949767
 30
0.0
 11
168.18620851319969
 21
36.847941398405169
 31
0.0
  0
LINE
  5
41D8
  8
TITLE
 10
167.95253238190659
 20
36.701550139762837
 30
0.0
 11
168.18620851319969
 21
36.935226271052329
 31
0.0
  0
LINE
  5
41D9
  8
TITLE
 10
167.90095402853549
 20
36.737256659035097
 30
0.0
 11
168.18620851319969
 21
37.022511143699717
 31
0.0
  0
LINE
  5
41DA
  8
TITLE
 10
166.880246378229
 20
36.065688499317389
 30
0.0
 11
168.18620851319969
 21
37.371650634284492
 31
0.0
  0
LINE
  5
41DB
  8
TITLE
 10
166.880246378229
 20
36.152973371960911
 30
0.0
 11
168.18620851319969
 21
37.45893550693188
 31
0.0
  0
LINE
  5
41DC
  8
TITLE
 10
167.85035882454761
 20
36.77394632769392
 30
0.0
 11
168.18620851319969
 21
37.109796016346877
 31
0.0
  0
LINE
  5
41DD
  8
TITLE
 10
167.80073655151409
 20
36.811608927311227
 30
0.0
 11
168.18620851319969
 21
37.19708088899381
 31
0.0
  0
LINE
  5
41DE
  8
TITLE
 10
167.75207853396111
 20
36.850235782398499
 30
0.0
 11
168.18620851319969
 21
37.28436576164097
 31
0.0
  0
LINE
  5
41DF
  8
TITLE
 10
166.880246378229
 20
34.930985154911809
 30
0.0
 11
167.7160621819707
 21
35.766800958652659
 31
0.0
  0
LINE
  5
41E0
  8
TITLE
 10
166.880246378229
 20
35.018270027558628
 30
0.0
 11
167.7160621819707
 21
35.854085831299933
 31
0.0
  0
LINE
  5
41E1
  8
TITLE
 10
166.880246378229
 20
35.105554900205789
 30
0.0
 11
167.7160621819707
 21
35.9413707039472
 31
0.0
  0
LINE
  5
41E2
  8
TITLE
 10
167.63648354975339
 20
34.290664364088229
 30
0.0
 11
167.7160621819707
 21
34.370242996309457
 31
0.0
  0
LINE
  5
41E3
  8
TITLE
 10
167.5491986771062
 20
34.290664364088229
 30
0.0
 11
167.7160621819707
 21
34.457527868956163
 31
0.0
  0
LINE
  5
41E4
  8
TITLE
 10
167.46191380445899
 20
34.290664364088229
 30
0.0
 11
167.7160621819707
 21
34.544812741599912
 31
0.0
  0
LINE
  5
41E5
  8
TITLE
 10
167.37462893181191
 20
34.290664364088229
 30
0.0
 11
167.7160621819707
 21
34.632097614246852
 31
0.0
  0
LINE
  5
41E6
  8
TITLE
 10
167.2873440591647
 20
34.290664364088229
 30
0.0
 11
167.7160621819707
 21
34.719382486894013
 31
0.0
  0
LINE
  5
41E7
  8
TITLE
 10
167.20005918651759
 20
34.290664364088229
 30
0.0
 11
167.7160621819707
 21
34.806667359541507
 31
0.0
  0
LINE
  5
41E8
  8
TITLE
 10
167.1127743138704
 20
34.290664364088229
 30
0.0
 11
167.7160621819707
 21
34.893952232188333
 31
0.0
  0
LINE
  5
41E9
  8
TITLE
 10
167.0254894412233
 20
34.290664364088229
 30
0.0
 11
167.7160621819707
 21
34.9812371048356
 31
0.0
  0
LINE
  5
41EA
  8
TITLE
 10
166.93820456857611
 20
34.290664364088229
 30
0.0
 11
167.7160621819707
 21
35.068521977482867
 31
0.0
  0
LINE
  5
41EB
  8
TITLE
 10
166.880246378229
 20
34.319991046384871
 30
0.0
 11
167.7160621819707
 21
35.155806850130261
 31
0.0
  0
LINE
  5
41EC
  8
TITLE
 10
166.880246378229
 20
34.407275919032152
 30
0.0
 11
167.7160621819707
 21
35.243091722773791
 31
0.0
  0
LINE
  5
41ED
  8
TITLE
 10
166.880246378229
 20
34.494560791675667
 30
0.0
 11
167.7160621819707
 21
35.33037659542083
 31
0.0
  0
LINE
  5
41EE
  8
TITLE
 10
166.880246378229
 20
34.581845664322827
 30
0.0
 11
167.7160621819707
 21
35.417661468067649
 31
0.0
  0
LINE
  5
41EF
  8
TITLE
 10
166.880246378229
 20
34.669130536970101
 30
0.0
 11
167.7160621819707
 21
35.504946340711172
 31
0.0
  0
LINE
  5
41F0
  8
TITLE
 10
166.880246378229
 20
34.756415409617027
 30
0.0
 11
167.7160621819707
 21
35.592231213358332
 31
0.0
  0
LINE
  5
41F1
  8
TITLE
 10
166.880246378229
 20
34.843700282264201
 30
0.0
 11
167.7160621819707
 21
35.67951608600584
 31
0.0
  0
LINE
  5
41F2
  8
TITLE
 10
166.880246378229
 20
35.803833881376143
 30
0.0
 11
167.7160621819707
 21
36.639649685117092
 31
0.0
  0
LINE
  5
41F3
  8
TITLE
 10
166.880246378229
 20
35.891118754023189
 30
0.0
 11
167.7160621819707
 21
36.726934557764253
 31
0.0
  0
LINE
  5
41F4
  8
TITLE
 10
166.880246378229
 20
35.978403626670229
 30
0.0
 11
167.7160621819707
 21
36.814219430411192
 31
0.0
  0
LINE
  5
41F5
  8
TITLE
 10
166.880246378229
 20
35.192839772849311
 30
0.0
 11
167.7160621819707
 21
36.028655576594247
 31
0.0
  0
LINE
  5
41F6
  8
TITLE
 10
166.880246378229
 20
35.280124645496471
 30
0.0
 11
167.7160621819707
 21
36.115940449241748
 31
0.0
  0
LINE
  5
41F7
  8
TITLE
 10
166.880246378229
 20
35.367409518143859
 30
0.0
 11
167.7160621819707
 21
36.203225321884808
 31
0.0
  0
LINE
  5
41F8
  8
TITLE
 10
166.880246378229
 20
35.454694390787267
 30
0.0
 11
167.7160621819707
 21
36.290510194532203
 31
0.0
  0
LINE
  5
41F9
  8
TITLE
 10
166.880246378229
 20
35.541979263434662
 30
0.0
 11
167.7160621819707
 21
36.377795067175612
 31
0.0
  0
LINE
  5
41FA
  8
TITLE
 10
166.880246378229
 20
35.629264136081481
 30
0.0
 11
167.7160621819707
 21
36.465079939822772
 31
0.0
  0
LINE
  5
41FB
  8
TITLE
 10
166.880246378229
 20
35.716549008728748
 30
0.0
 11
167.7160621819707
 21
36.552364812469818
 31
0.0
  0
LINE
  5
41FC
  8
TITLE
 10
166.148907666708
 20
38.214750585130112
 30
0.0
 11
166.80107028503241
 21
38.866913203454828
 31
0.0
  0
LINE
  5
41FD
  8
TITLE
 10
166.73383345159161
 20
38.188682261487429
 30
0.0
 11
167.7160621819707
 21
39.170910991863252
 31
0.0
  0
LINE
  5
41FE
  8
TITLE
 10
166.64654857894439
 20
38.188682261487429
 30
0.0
 11
167.7160621819707
 21
39.258195864510192
 31
0.0
  0
LINE
  5
41FF
  8
TITLE
 10
166.148907666708
 20
38.651174948358523
 30
0.0
 11
166.3646459218034
 21
38.866913203454828
 31
0.0
  0
LINE
  5
4200
  8
TITLE
 10
166.148907666708
 20
38.56389007571147
 30
0.0
 11
166.4519307944511
 21
38.866913203454828
 31
0.0
  0
LINE
  5
4201
  8
TITLE
 10
166.148907666708
 20
38.302035457777272
 30
0.0
 11
166.71378541238531
 21
38.866913203454828
 31
0.0
  0
LINE
  5
4202
  8
TITLE
 10
166.148907666708
 20
38.389320330420787
 30
0.0
 11
166.62650053973809
 21
38.866913203454828
 31
0.0
  0
LINE
  5
4203
  8
TITLE
 10
166.148907666708
 20
38.476605203068061
 30
0.0
 11
166.5392156670982
 21
38.866913203454828
 31
0.0
  0
LINE
  5
4204
  8
TITLE
 10
165.44361173375589
 20
37.771309270119673
 30
0.0
 11
165.5009916556441
 21
37.828689192000532
 31
0.0
  0
LINE
  5
4205
  8
TITLE
 10
165.3563268611087
 20
37.771309270119673
 30
0.0
 11
165.5009916556441
 21
37.915974064647799
 31
0.0
  0
LINE
  5
4206
  8
TITLE
 10
165.2690419884689
 20
37.771309270119673
 30
0.0
 11
165.5009916556441
 21
38.003258937294618
 31
0.0
  0
LINE
  5
4207
  8
TITLE
 10
165.1817571158212
 20
37.771309270119673
 30
0.0
 11
165.5009916556441
 21
38.090543809941892
 31
0.0
  0
LINE
  5
4208
  8
TITLE
 10
164.9199024978802
 20
37.771309270119673
 30
0.0
 11
165.49379028419159
 21
38.345197056431289
 31
0.0
  0
LINE
  5
4209
  8
TITLE
 10
165.09447224317449
 20
37.771309270119673
 30
0.0
 11
165.5009916556441
 21
38.177828682585748
 31
0.0
  0
LINE
  5
420A
  8
TITLE
 10
165.00718737052691
 20
37.771309270119673
 30
0.0
 11
165.5009916556441
 21
38.265113555233143
 31
0.0
  0
LINE
  5
420B
  8
TITLE
 10
165.47473878941119
 20
38.762569924883337
 30
0.0
 11
165.6787444646329
 21
38.966575600101123
 31
0.0
  0
LINE
  5
420C
  8
TITLE
 10
166.148907666708
 20
38.738459821005897
 30
0.0
 11
166.2773610491567
 21
38.866913203454828
 31
0.0
  0
LINE
  5
420D
  8
TITLE
 10
166.148907666708
 20
38.825744693652837
 30
0.0
 11
166.19007617650959
 21
38.866913203454828
 31
0.0
  0
LINE
  5
420E
  8
TITLE
 10
165.6493085347056
 20
38.762569924883337
 30
0.0
 11
165.6787444646329
 21
38.792005854806924
 31
0.0
  0
LINE
  5
420F
  8
TITLE
 10
165.56202366205801
 20
38.762569924883337
 30
0.0
 11
165.6787444646329
 21
38.879290727453849
 31
0.0
  0
LINE
  5
4210
  8
TITLE
 10
165.38745391676409
 20
38.762569924883337
 30
0.0
 11
165.6787444646329
 21
39.053860472748291
 31
0.0
  0
LINE
  5
4211
  8
TITLE
 10
165.3001690441169
 20
38.762569924883337
 30
0.0
 11
165.6787444646329
 21
39.14114534539533
 31
0.0
  0
LINE
  5
4212
  8
TITLE
 10
165.2128841714698
 20
38.762569924883337
 30
0.0
 11
165.6787444646329
 21
39.228430218039193
 31
0.0
  0
LINE
  5
4213
  8
TITLE
 10
166.880246378229
 20
38.160525442827179
 30
0.0
 11
167.7160621819707
 21
38.996341246572797
 31
0.0
  0
LINE
  5
4214
  8
TITLE
 10
166.880246378229
 20
38.073240570183771
 30
0.0
 11
167.7160621819707
 21
38.909056373925303
 31
0.0
  0
LINE
  5
4215
  8
TITLE
 10
166.880246378229
 20
37.898670824889791
 30
0.0
 11
167.848488756791
 21
38.866913203454828
 31
0.0
  0
LINE
  5
4216
  8
TITLE
 10
166.880246378229
 20
37.985955697536951
 30
0.0
 11
167.7612038841439
 21
38.866913203454828
 31
0.0
  0
LINE
  5
4217
  8
TITLE
 10
166.880246378229
 20
37.724101079599109
 30
0.0
 11
168.0230585020858
 21
38.866913203454828
 31
0.0
  0
LINE
  5
4218
  8
TITLE
 10
166.880246378229
 20
37.811385952246269
 30
0.0
 11
167.93577362943819
 21
38.866913203454828
 31
0.0
  0
LINE
  5
4219
  8
TITLE
 10
168.04310654129179
 20
38.188682261487429
 30
0.0
 11
168.18620851319969
 21
38.331784233395751
 31
0.0
  0
LINE
  5
421A
  8
TITLE
 10
168.1303914139389
 20
38.188682261491067
 30
0.0
 11
168.18620851319969
 21
38.244499360749273
 31
0.0
  0
LINE
  5
421B
  8
TITLE
 10
167.9558216686446
 20
38.188682261487429
 30
0.0
 11
168.18620851319969
 21
38.419069106043032
 31
0.0
  0
LINE
  5
421C
  8
TITLE
 10
167.86853679599739
 20
38.188682261487429
 30
0.0
 11
168.18620851319969
 21
38.506353978686427
 31
0.0
  0
LINE
  5
421D
  8
TITLE
 10
167.7812519233498
 20
38.188682261487429
 30
0.0
 11
168.18620851319969
 21
38.593638851333708
 31
0.0
  0
LINE
  5
421E
  8
TITLE
 10
166.8211183242388
 20
38.188682261491067
 30
0.0
 11
167.7160621819707
 21
39.083626119219623
 31
0.0
  0
LINE
  5
421F
  8
TITLE
 10
164.86268968403871
 20
36.753962857166933
 30
0.0
 11
165.3844058310697
 21
37.27567900419411
 31
0.0
  0
LINE
  5
4220
  8
TITLE
 10
164.7754048113988
 20
36.753962857166933
 30
0.0
 11
165.29712095842251
 21
37.27567900419411
 31
0.0
  0
LINE
  5
4221
  8
TITLE
 10
164.6881199387517
 20
36.753962857166933
 30
0.0
 11
165.20983608577529
 21
37.27567900419411
 31
0.0
  0
LINE
  5
4222
  8
TITLE
 10
164.60083506610451
 20
36.753962857166933
 30
0.0
 11
165.12255121312819
 21
37.27567900419411
 31
0.0
  0
LINE
  5
4223
  8
TITLE
 10
164.51355019345729
 20
36.753962857166933
 30
0.0
 11
165.035266340481
 21
37.27567900419411
 31
0.0
  0
LINE
  5
4224
  8
TITLE
 10
164.4262653208097
 20
36.753962857166933
 30
0.0
 11
164.94798146783381
 21
37.27567900419411
 31
0.0
  0
LINE
  5
4225
  8
TITLE
 10
164.85250315731309
 20
34.387084768982511
 30
0.0
 11
165.4435820726035
 21
34.978163684272772
 31
0.0
  0
LINE
  5
4226
  8
TITLE
 10
164.78525286217331
 20
34.407119346489822
 30
0.0
 11
165.3586420420306
 21
34.980508526347187
 31
0.0
  0
LINE
  5
4227
  8
TITLE
 10
164.7195142780524
 20
34.428665635016159
 30
0.0
 11
165.27925029849979
 21
34.988401655463797
 31
0.0
  0
LINE
  5
4228
  8
TITLE
 10
164.65522661596879
 20
34.451662845584003
 30
0.0
 11
165.2045299025653
 21
35.000966132176359
 31
0.0
  0
LINE
  5
4229
  8
TITLE
 10
164.5923359918288
 20
34.47605709408311
 30
0.0
 11
165.1338636951977
 21
35.017584797455243
 31
0.0
  0
LINE
  5
422A
  8
TITLE
 10
164.5307945472309
 20
34.501800522135909
 30
0.0
 11
165.06680093899061
 21
35.037806913895793
 31
0.0
  0
LINE
  5
422B
  8
TITLE
 10
164.4705597219554
 20
34.528850569508002
 30
0.0
 11
165.00300379344611
 21
35.06129464099422
 31
0.0
  0
LINE
  5
422C
  8
TITLE
 10
164.4115936481698
 20
34.557169368366317
 30
0.0
 11
164.9422146894899
 21
35.087790409689212
 31
0.0
  0
LINE
  5
422D
  8
TITLE
 10
164.857648386569
 20
35.788787960585871
 30
0.0
 11
165.3532786524988
 21
36.284418226511548
 31
0.0
  0
LINE
  5
422E
  8
TITLE
 10
164.7703635139292
 20
35.788787960585871
 30
0.0
 11
165.2659937798507
 21
36.284418226511548
 31
0.0
  0
LINE
  5
422F
  8
TITLE
 10
164.68307864128201
 20
35.788787960585871
 30
0.0
 11
165.178708907204
 21
36.284418226511548
 31
0.0
  0
LINE
  5
4230
  8
TITLE
 10
164.59579376863479
 20
35.788787960585871
 30
0.0
 11
165.09142403455689
 21
36.284418226511548
 31
0.0
  0
LINE
  5
4231
  8
TITLE
 10
164.50850889598769
 20
35.788787960585871
 30
0.0
 11
165.00413916190971
 21
36.284418226511548
 31
0.0
  0
LINE
  5
4232
  8
TITLE
 10
164.4212240233405
 20
35.788787960585871
 30
0.0
 11
164.916854289263
 21
36.284418226511548
 31
0.0
  0
LINE
  5
4233
  8
TITLE
 10
164.83261762523259
 20
37.771309270119673
 30
0.0
 11
165.406505411544
 21
38.345197056431289
 31
0.0
  0
LINE
  5
4234
  8
TITLE
 10
164.74533275258591
 20
37.771309270119673
 30
0.0
 11
165.31922053889679
 21
38.345197056431289
 31
0.0
  0
LINE
  5
4235
  8
TITLE
 10
164.65804787993829
 20
37.771309270119673
 30
0.0
 11
165.23193566625011
 21
38.345197056431289
 31
0.0
  0
LINE
  5
4236
  8
TITLE
 10
164.57076300729159
 20
37.771309270119673
 30
0.0
 11
165.14465079360301
 21
38.345197056431289
 31
0.0
  0
LINE
  5
4237
  8
TITLE
 10
164.4834781346444
 20
37.771309270119673
 30
0.0
 11
165.05736592095579
 21
38.345197056431289
 31
0.0
  0
LINE
  5
4238
  8
TITLE
 10
164.39619326200409
 20
37.771309270119673
 30
0.0
 11
164.97008104831539
 21
38.345197056431289
 31
0.0
  0
LINE
  5
4239
  8
TITLE
 10
170.62579789924709
 20
35.796135878594441
 30
0.0
 11
171.255869626144
 21
36.426207605491641
 31
0.0
  0
LINE
  5
423A
  8
TITLE
 10
170.5957635415439
 20
35.853386393538472
 30
0.0
 11
171.22987672092631
 21
36.487499572921251
 31
0.0
  0
LINE
  5
423B
  8
TITLE
 10
170.5667279672075
 20
35.911635691849597
 30
0.0
 11
171.20494737851641
 21
36.549855103162031
 31
0.0
  0
LINE
  5
423C
  8
TITLE
 10
169.7533630284633
 20
35.185555625748641
 30
0.0
 11
171.1811105354904
 21
36.613303132779834
 31
0.0
  0
LINE
  5
423D
  8
TITLE
 10
170.82602771841081
 20
35.472656461883162
 30
0.0
 11
171.43283867123131
 21
36.079467414699252
 31
0.0
  0
LINE
  5
423E
  8
TITLE
 10
170.79034302516399
 20
35.524256641282697
 30
0.0
 11
171.4009427056771
 21
36.134856321796178
 31
0.0
  0
LINE
  5
423F
  8
TITLE
 10
170.75556718291679
 20
35.57676567168312
 30
0.0
 11
171.36998352719269
 21
36.191182015958702
 31
0.0
  0
LINE
  5
4240
  8
TITLE
 10
170.72171140923999
 20
35.630194770646199
 30
0.0
 11
171.3399775892899
 21
36.248460950695751
 31
0.0
  0
LINE
  5
4241
  8
TITLE
 10
170.6887883011895
 20
35.684556535249961
 30
0.0
 11
171.31094301496429
 21
36.30671124901756
 31
0.0
  0
LINE
  5
4242
  8
TITLE
 10
170.65681192175859
 20
35.73986502845878
 30
0.0
 11
171.28289973173511
 21
36.365952838435653
 31
0.0
  0
LINE
  5
4243
  8
TITLE
 10
169.7533630284633
 20
35.272840498395787
 30
0.0
 11
171.15839797335909
 21
36.677875443295193
 31
0.0
  0
LINE
  5
4244
  8
TITLE
 10
169.7533630284633
 20
35.360125371039203
 30
0.0
 11
171.13684463262871
 21
36.743606975211719
 31
0.0
  0
LINE
  5
4245
  8
TITLE
 10
169.7533630284633
 20
35.447410243686477
 30
0.0
 11
171.1164889783667
 21
36.810536193593407
 31
0.0
  0
LINE
  5
4246
  8
TITLE
 10
169.7533630284633
 20
35.534695116333523
 30
0.0
 11
171.09737342765899
 21
36.878705515537042
 31
0.0
  0
LINE
  5
4247
  8
TITLE
 10
169.7533630284633
 20
35.621979988980797
 30
0.0
 11
171.0795448520434
 21
36.948161812560897
 31
0.0
  0
LINE
  5
4248
  8
TITLE
 10
169.7533630284633
 20
35.709264861627958
 30
0.0
 11
171.06305517110101
 21
37.018957004265758
 31
0.0
  0
LINE
  5
4249
  8
TITLE
 10
169.7533630284633
 20
35.796549734275118
 30
0.0
 11
171.04796205820909
 21
37.09114876402078
 31
0.0
  0
LINE
  5
424A
  8
TITLE
 10
169.7533630284633
 20
35.883834606922278
 30
0.0
 11
171.03432978502079
 21
37.164801363480251
 31
0.0
  0
LINE
  5
424B
  8
TITLE
 10
170.6777144592638
 20
38.553883490655153
 30
0.0
 11
171.2516022455757
 21
39.127771276966662
 31
0.0
  0
LINE
  5
424C
  8
TITLE
 10
170.59042958661709
 20
38.553883490655153
 30
0.0
 11
171.164317372928
 21
39.127771276966662
 31
0.0
  0
LINE
  5
424D
  8
TITLE
 10
170.76499933191141
 20
38.553883490655153
 30
0.0
 11
171.3388871182228
 21
39.127771276966662
 31
0.0
  0
LINE
  5
424E
  8
TITLE
 10
169.7533630284633
 20
37.804101805145251
 30
0.0
 11
171.07703250028089
 21
39.127771276966662
 31
0.0
  0
LINE
  5
424F
  8
TITLE
 10
169.7533630284633
 20
37.891386677788773
 30
0.0
 11
170.98974762764101
 21
39.127771276966662
 31
0.0
  0
LINE
  5
4250
  8
TITLE
 10
169.7533630284633
 20
37.978671550435941
 30
0.0
 11
170.90246275499379
 21
39.127771276966662
 31
0.0
  0
LINE
  5
4251
  8
TITLE
 10
169.12059694894009
 20
37.171335725622271
 30
0.0
 11
169.72057049343761
 21
37.771309270119673
 31
0.0
  0
LINE
  5
4252
  8
TITLE
 10
169.03331207629341
 20
37.171335725622271
 30
0.0
 11
169.6332856207905
 21
37.771309270119673
 31
0.0
  0
LINE
  5
4253
  8
TITLE
 10
169.05013835564199
 20
36.402598151153938
 30
0.0
 11
170.56305938401781
 21
37.915519179526541
 31
0.0
  0
LINE
  5
4254
  8
TITLE
 10
169.11233770584971
 20
36.552082374001657
 30
0.0
 11
170.56305938401781
 21
38.002804052169843
 31
0.0
  0
LINE
  5
4255
  8
TITLE
 10
169.1616872806448
 20
36.688716821451067
 30
0.0
 11
170.56305938401781
 21
38.090088924816882
 31
0.0
  0
LINE
  5
4256
  8
TITLE
 10
169.25978908588871
 20
37.048673244629761
 30
0.0
 11
170.56305938401781
 21
38.351943542758249
 31
0.0
  0
LINE
  5
4257
  8
TITLE
 10
169.28071145862711
 20
37.156880490022218
 30
0.0
 11
170.56305938401781
 21
38.439228415405523
 31
0.0
  0
LINE
  5
4258
  8
TITLE
 10
169.20145970692511
 20
36.815774120378251
 30
0.0
 11
170.56305938401781
 21
38.177373797464163
 31
0.0
  0
LINE
  5
4259
  8
TITLE
 10
169.23370010085091
 20
36.935299386951101
 30
0.0
 11
170.56305938401781
 21
38.264658670111089
 31
0.0
  0
LINE
  5
425A
  8
TITLE
 10
169.2078818215877
 20
37.171335725622271
 30
0.0
 11
170.56305938401781
 21
38.526513288052691
 31
0.0
  0
LINE
  5
425B
  8
TITLE
 10
169.7533630284633
 20
35.010985880458058
 30
0.0
 11
170.56305938401781
 21
35.82068223601221
 31
0.0
  0
LINE
  5
425C
  8
TITLE
 10
169.7533630284633
 20
35.098270753101467
 30
0.0
 11
170.56305938401781
 21
35.907967108659818
 31
0.0
  0
LINE
  5
425D
  8
TITLE
 10
170.51688434708061
 20
34.290664364088229
 30
0.0
 11
170.56305938401781
 21
34.336839401017869
 31
0.0
  0
LINE
  5
425E
  8
TITLE
 10
170.42959947444069
 20
34.290664364088229
 30
0.0
 11
170.56305938401781
 21
34.424124273664923
 31
0.0
  0
LINE
  5
425F
  8
TITLE
 10
170.34231460179399
 20
34.290664364088229
 30
0.0
 11
170.56305938401781
 21
34.511409146311848
 31
0.0
  0
LINE
  5
4260
  8
TITLE
 10
170.2550297291468
 20
34.290664364088229
 30
0.0
 11
170.56305938401781
 21
34.598694018959691
 31
0.0
  0
LINE
  5
4261
  8
TITLE
 10
170.16774485649921
 20
34.290664364088229
 30
0.0
 11
170.56305938401781
 21
34.685978891606972
 31
0.0
  0
LINE
  5
4262
  8
TITLE
 10
170.08045998385199
 20
34.290664364088229
 30
0.0
 11
170.56305938401781
 21
34.773263764253791
 31
0.0
  0
LINE
  5
4263
  8
TITLE
 10
169.99317511120489
 20
34.290664364088229
 30
0.0
 11
170.56305938401781
 21
34.860548636901171
 31
0.0
  0
LINE
  5
4264
  8
TITLE
 10
169.7533630284633
 20
34.923701007811019
 30
0.0
 11
170.56305938401781
 21
35.733397363365157
 31
0.0
  0
LINE
  5
4265
  8
TITLE
 10
169.9058902385577
 20
34.290664364088229
 30
0.0
 11
170.56305938401781
 21
34.947833509548097
 31
0.0
  0
LINE
  5
4266
  8
TITLE
 10
169.818605365911
 20
34.290664364088229
 30
0.0
 11
170.56305938401781
 21
35.035118382191513
 31
0.0
  0
LINE
  5
4267
  8
TITLE
 10
169.7533630284633
 20
34.312706899284308
 30
0.0
 11
170.56305938401781
 21
35.122403254838787
 31
0.0
  0
LINE
  5
4268
  8
TITLE
 10
169.7533630284633
 20
34.399991771931703
 30
0.0
 11
170.56305938401781
 21
35.209688127485613
 31
0.0
  0
LINE
  5
4269
  8
TITLE
 10
169.7533630284633
 20
34.48727664457499
 30
0.0
 11
170.56305938401781
 21
35.296973000129242
 31
0.0
  0
LINE
  5
426A
  8
TITLE
 10
169.7533630284633
 20
34.574561517222151
 30
0.0
 11
170.56305938401781
 21
35.384257872776523
 31
0.0
  0
LINE
  5
426B
  8
TITLE
 10
169.7533630284633
 20
34.661846389869197
 30
0.0
 11
170.56305938401781
 21
35.471542745423683
 31
0.0
  0
LINE
  5
426C
  8
TITLE
 10
169.7533630284633
 20
34.749131262516471
 30
0.0
 11
170.56305938401781
 21
35.558827618070843
 31
0.0
  0
LINE
  5
426D
  8
TITLE
 10
169.7533630284633
 20
34.836416135163752
 30
0.0
 11
170.56305938401781
 21
35.64611249071811
 31
0.0
  0
LINE
  5
426E
  8
TITLE
 10
169.7533630284633
 20
38.153241295726957
 30
0.0
 11
170.72789300970001
 21
39.127771276966662
 31
0.0
  0
LINE
  5
426F
  8
TITLE
 10
169.7533630284633
 20
38.240526168374117
 30
0.0
 11
170.64060813705279
 21
39.127771276966662
 31
0.0
  0
LINE
  5
4270
  8
TITLE
 10
169.7533630284633
 20
38.327811041021278
 30
0.0
 11
170.56305938401781
 21
39.137507396575757
 31
0.0
  0
LINE
  5
4271
  8
TITLE
 10
169.7533630284633
 20
38.41509591366821
 30
0.0
 11
170.56305938401781
 21
39.224792269222689
 31
0.0
  0
LINE
  5
4272
  8
TITLE
 10
169.7533630284633
 20
38.065956423079342
 30
0.0
 11
170.81517788234669
 21
39.127771276966662
 31
0.0
  0
LINE
  5
4273
  8
TITLE
 10
171.12814901981031
 20
37.171335725622271
 30
0.0
 11
171.7281225643078
 21
37.771309270119673
 31
0.0
  0
LINE
  5
4274
  8
TITLE
 10
171.04086414716349
 20
37.171335725622271
 30
0.0
 11
171.64083769166061
 21
37.771309270119673
 31
0.0
  0
LINE
  5
4275
  8
TITLE
 10
171.21543389245741
 20
37.171335725622271
 30
0.0
 11
171.81540743694759
 21
37.771309270119673
 31
0.0
  0
LINE
  5
4276
  8
TITLE
 10
172.4514693816254
 20
37.621807360973207
 30
0.0
 11
172.54879952856891
 21
37.719137507916351
 31
0.0
  0
LINE
  5
4277
  8
TITLE
 10
172.4514693816254
 20
37.709092233620247
 30
0.0
 11
172.46151465592129
 21
37.719137507916351
 31
0.0
  0
LINE
  5
4278
  8
TITLE
 10
171.73914312833361
 20
37.171335725622271
 30
0.0
 11
171.84290230430361
 21
37.275094901592873
 31
0.0
  0
LINE
  5
4279
  8
TITLE
 10
171.82642800098071
 20
37.171335725622271
 30
0.0
 11
171.84290230430361
 21
37.187810028949343
 31
0.0
  0
LINE
  5
427A
  8
TITLE
 10
171.65185825568639
 20
37.171335725622271
 30
0.0
 11
171.84290230430361
 21
37.362379774240139
 31
0.0
  0
LINE
  5
427B
  8
TITLE
 10
171.5645733830392
 20
37.171335725622271
 30
0.0
 11
171.84290230430361
 21
37.449664646886959
 31
0.0
  0
LINE
  5
427C
  8
TITLE
 10
171.4772885103921
 20
37.171335725622271
 30
0.0
 11
171.84290230430361
 21
37.536949519534232
 31
0.0
  0
LINE
  5
427D
  8
TITLE
 10
171.39000363774491
 20
37.171335725622271
 30
0.0
 11
171.84290230430361
 21
37.62423439218162
 31
0.0
  0
LINE
  5
427E
  8
TITLE
 10
171.302718765105
 20
37.171335725622271
 30
0.0
 11
171.84290230430361
 21
37.711519264828439
 31
0.0
  0
LINE
  5
427F
  8
TITLE
 10
172.29475386004381
 20
34.933830532644947
 30
0.0
 11
172.5039899720459
 21
35.143066644650851
 31
0.0
  0
LINE
  5
4280
  8
TITLE
 10
172.29475386004381
 20
35.021115405292221
 30
0.0
 11
172.413232672352
 21
35.139594217600582
 31
0.0
  0
LINE
  5
4281
  8
TITLE
 10
172.29475386004381
 20
35.108400277939268
 30
0.0
 11
172.3230593126132
 21
35.136705730509341
 31
0.0
  0
LINE
  5
4282
  8
TITLE
 10
171.61790663494361
 20
34.693407670773929
 30
0.0
 11
171.84290230430361
 21
34.91840334014114
 31
0.0
  0
LINE
  5
4283
  8
TITLE
 10
171.77765847314859
 20
34.591304891044501
 30
0.0
 11
171.84290230430361
 21
34.656548722199553
 31
0.0
  0
LINE
  5
4284
  8
TITLE
 10
171.83277887695061
 20
34.55914042219581
 30
0.0
 11
171.84290230430361
 21
34.569263849552378
 31
0.0
  0
LINE
  5
4285
  8
TITLE
 10
171.7234819009968
 20
34.624413191532987
 30
0.0
 11
171.84290230430361
 21
34.743833594846819
 31
0.0
  0
LINE
  5
4286
  8
TITLE
 10
171.6702353943478
 20
34.658451557534477
 30
0.0
 11
171.84290230430361
 21
34.831118467494093
 31
0.0
  0
LINE
  5
4287
  8
TITLE
 10
171.56648466835389
 20
34.729270576834438
 30
0.0
 11
171.84290230430361
 21
35.0056882127883
 31
0.0
  0
LINE
  5
4288
  8
TITLE
 10
171.51595983130889
 20
34.766030612433269
 30
0.0
 11
171.84290230430361
 21
35.092973085435347
 31
0.0
  0
LINE
  5
4289
  8
TITLE
 10
171.46632368907191
 20
34.803679342843679
 30
0.0
 11
171.84290230430361
 21
35.180257958082741
 31
0.0
  0
LINE
  5
428A
  8
TITLE
 10
171.1868400837534
 20
35.047904973407753
 30
0.0
 11
171.76004008932929
 21
35.621104978976859
 31
0.0
  0
LINE
  5
428B
  8
TITLE
 10
171.14328257862141
 20
35.091632340923752
 30
0.0
 11
171.72022614195561
 21
35.668575904249913
 31
0.0
  0
LINE
  5
428C
  8
TITLE
 10
171.1005857086447
 20
35.136220343586849
 30
0.0
 11
171.6812607238839
 21
35.716895358825809
 31
0.0
  0
LINE
  5
428D
  8
TITLE
 10
171.05875057807589
 20
35.181670085664678
 30
0.0
 11
171.6431491125222
 21
35.766068620114652
 31
0.0
  0
LINE
  5
428E
  8
TITLE
 10
171.01777930280281
 20
35.22798368304246
 30
0.0
 11
171.6058976053564
 21
35.816101985592468
 31
0.0
  0
LINE
  5
428F
  8
TITLE
 10
171.36968958048729
 20
34.881614979553433
 30
0.0
 11
171.84290230430361
 21
35.354827703373189
 31
0.0
  0
LINE
  5
4290
  8
TITLE
 10
171.3226804473683
 20
34.921890719081148
 30
0.0
 11
171.84290230430361
 21
35.44211257602047
 31
0.0
  0
LINE
  5
4291
  8
TITLE
 10
171.41756898201169
 20
34.842209508430763
 30
0.0
 11
171.84290230430361
 21
35.267542830726029
 31
0.0
  0
LINE
  5
4292
  8
TITLE
 10
171.27653760769451
 20
34.96303275205446
 30
0.0
 11
171.8421973870104
 21
35.528692531370211
 31
0.0
  0
LINE
  5
4293
  8
TITLE
 10
171.23125812494979
 20
35.005038141950081
 30
0.0
 11
171.80069827838591
 21
35.574478295389213
 31
0.0
  0
LINE
  5
4294
  8
TITLE
 10
170.97767502278239
 20
35.275164275665929
 30
0.0
 11
171.56951355658151
 21
35.867002809471728
 31
0.0
  0
LINE
  5
4295
  8
TITLE
 10
170.9384419205808
 20
35.32321604611127
 30
0.0
 11
171.53400542069991
 21
35.918779546230212
 31
0.0
  0
LINE
  5
4296
  8
TITLE
 10
170.90008524639589
 20
35.372144244569768
 30
0.0
 11
171.49938280357259
 21
35.971441801750068
 31
0.0
  0
LINE
  5
4297
  8
TITLE
 10
170.8626113497412
 20
35.421955220565913
 30
0.0
 11
171.4656565218047
 21
36.025000392629067
 31
0.0
  0
LINE
  5
4298
  8
TITLE
 10
172.29475386004381
 20
39.036219547033063
 30
0.0
 11
172.3863053441496
 21
39.127771031131147
 31
0.0
  0
LINE
  5
4299
  8
TITLE
 10
172.29475386004381
 20
39.123504419676458
 30
0.0
 11
172.29902047150239
 21
39.127771031131147
 31
0.0
  0
LINE
  5
429A
  8
TITLE
 10
171.46327831308099
 20
38.553883490655153
 30
0.0
 11
171.84290230430361
 21
38.93350748187811
 31
0.0
  0
LINE
  5
429B
  8
TITLE
 10
171.37599344044111
 20
38.553883490655153
 30
0.0
 11
171.84290230430361
 21
39.020792354525383
 31
0.0
  0
LINE
  5
429C
  8
TITLE
 10
171.63784805837531
 20
38.553883490655153
 30
0.0
 11
171.84290230430361
 21
38.758937736586972
 31
0.0
  0
LINE
  5
429D
  8
TITLE
 10
171.55056318572809
 20
38.553883490655153
 30
0.0
 11
171.84290230430361
 21
38.846222609234253
 31
0.0
  0
LINE
  5
429E
  8
TITLE
 10
171.8124178036696
 20
38.553883490655153
 30
0.0
 11
171.84290230430361
 21
38.584367991292879
 31
0.0
  0
LINE
  5
429F
  8
TITLE
 10
171.72513293102239
 20
38.553883490655153
 30
0.0
 11
171.84290230430361
 21
38.67165286394016
 31
0.0
  0
LINE
  5
42A0
  8
TITLE
 10
171.20142369514679
 20
38.553883490655153
 30
0.0
 11
171.77531148145809
 21
39.127771276966662
 31
0.0
  0
LINE
  5
42A1
  8
TITLE
 10
171.1141388224996
 20
38.553883490655153
 30
0.0
 11
171.68802660881099
 21
39.127771276966662
 31
0.0
  0
LINE
  5
42A2
  8
TITLE
 10
171.02685394985241
 20
38.553883490655153
 30
0.0
 11
171.6007417361638
 21
39.127771276966662
 31
0.0
  0
LINE
  5
42A3
  8
TITLE
 10
171.28870856779389
 20
38.553883490655153
 30
0.0
 11
171.84290230430361
 21
39.108077227168913
 31
0.0
  0
LINE
  5
42A4
  8
TITLE
 10
170.8522842045586
 20
38.553883490655153
 30
0.0
 11
171.42617199086951
 21
39.127771276966662
 31
0.0
  0
LINE
  5
42A5
  8
TITLE
 10
170.9395690772057
 20
38.553883490655153
 30
0.0
 11
171.51345686351669
 21
39.127771276966662
 31
0.0
  0
LINE
  5
42A6
  8
TITLE
 10
172.29475386004381
 20
38.861649801738281
 30
0.0
 11
172.56087508943659
 21
39.127771031131147
 31
0.0
  0
LINE
  5
42A7
  8
TITLE
 10
172.29475386004381
 20
38.948934674385441
 30
0.0
 11
172.47359021679671
 21
39.127771031131147
 31
0.0
  0
LINE
  5
42A8
  8
TITLE
 10
168.9460272036458
 20
37.171335725622271
 30
0.0
 11
169.54600074814331
 21
37.771309270119673
 31
0.0
  0
LINE
  5
42A9
  8
TITLE
 10
168.85874233099861
 20
37.171335725622271
 30
0.0
 11
169.45871587549621
 21
37.771309270119673
 31
0.0
  0
LINE
  5
42AA
  8
TITLE
 10
168.77145745835151
 20
37.171335725622271
 30
0.0
 11
169.37143100284899
 21
37.771309270119673
 31
0.0
  0
LINE
  5
42AB
  8
TITLE
 10
168.68417258570429
 20
37.171335725622271
 30
0.0
 11
169.2841461302018
 21
37.771309270119673
 31
0.0
  0
LINE
  5
42AC
  8
TITLE
 10
168.5968877130644
 20
37.171335725622271
 30
0.0
 11
169.1968612575547
 21
37.771309270119673
 31
0.0
  0
LINE
  5
42AD
  8
TITLE
 10
168.5096028404173
 20
37.171335725622271
 30
0.0
 11
169.10957638490751
 21
37.771309270119673
 31
0.0
  0
LINE
  5
42AE
  8
TITLE
 10
168.85657310276881
 20
36.034463152986291
 30
0.0
 11
170.59341921990199
 21
37.771309270119673
 31
0.0
  0
LINE
  5
42AF
  8
TITLE
 10
168.9692027499145
 20
36.23437767277926
 30
0.0
 11
170.56305938401781
 21
37.82823430687904
 31
0.0
  0
LINE
  5
42B0
  8
TITLE
 10
168.66624012647119
 20
35.756845304045441
 30
0.0
 11
170.68070409254909
 21
37.771309270119673
 31
0.0
  0
LINE
  5
42B1
  8
TITLE
 10
168.8399613945266
 20
34.795863227694902
 30
0.0
 11
169.4166506594824
 21
35.37255249264706
 31
0.0
  0
LINE
  5
42B2
  8
TITLE
 10
168.56234162742749
 20
34.605528333243342
 30
0.0
 11
169.60698555393441
 21
35.650172259746228
 31
0.0
  0
LINE
  5
42B3
  8
TITLE
 10
168.66841769994741
 20
38.115714438969583
 30
0.0
 11
169.68047453794091
 21
39.127771276966662
 31
0.0
  0
LINE
  5
42B4
  8
TITLE
 10
168.5011941101375
 20
38.035775721813707
 30
0.0
 11
169.59318966529409
 21
39.127771276966662
 31
0.0
  0
LINE
  5
42B5
  8
TITLE
 10
166.880246378229
 20
39.731653150465718
 30
0.0
 11
167.00388147911869
 21
39.855288251358161
 31
0.0
  0
LINE
  5
42B6
  8
TITLE
 10
166.880246378229
 20
39.818938023112757
 30
0.0
 11
166.9165966064715
 21
39.855288251358161
 31
0.0
  0
LINE
  5
42B7
  8
TITLE
 10
166.880246378229
 20
39.644368277821847
 30
0.0
 11
167.09116635176591
 21
39.855288251358161
 31
0.0
  0
LINE
  5
42B8
  8
TITLE
 10
166.880246378229
 20
39.38251365988026
 30
0.0
 11
167.3530209697073
 21
39.855288251358161
 31
0.0
  0
LINE
  5
42B9
  8
TITLE
 10
166.880246378229
 20
39.469798532527541
 30
0.0
 11
167.2657360970602
 21
39.855288251358161
 31
0.0
  0
LINE
  5
42BA
  8
TITLE
 10
166.880246378229
 20
39.557083405174701
 30
0.0
 11
167.17845122441301
 21
39.855288251358161
 31
0.0
  0
LINE
  5
42BB
  8
TITLE
 10
164.44450936371501
 20
39.827177442700652
 30
0.0
 11
164.4726201723729
 21
39.855288251358161
 31
0.0
  0
LINE
  5
42BC
  8
TITLE
 10
164.366734627516
 20
39.662117833854722
 30
0.0
 11
164.5599050450196
 21
39.855288251358161
 31
0.0
  0
LINE
  5
42BD
  8
TITLE
 10
169.7533630284633
 20
39.724369003365162
 30
0.0
 11
169.88428227645321
 21
39.855288251358161
 31
0.0
  0
LINE
  5
42BE
  8
TITLE
 10
169.7533630284633
 20
39.811653876011981
 30
0.0
 11
169.79699740380599
 21
39.855288251358161
 31
0.0
  0
LINE
  5
42BF
  8
TITLE
 10
169.7533630284633
 20
39.375229512779811
 30
0.0
 11
170.23342176704131
 21
39.855288251358161
 31
0.0
  0
LINE
  5
42C0
  8
TITLE
 10
169.7533630284633
 20
39.462514385426971
 30
0.0
 11
170.1461368943946
 21
39.855288251358161
 31
0.0
  0
LINE
  5
42C1
  8
TITLE
 10
169.7533630284633
 20
39.549799258074017
 30
0.0
 11
170.0588520217475
 21
39.855288251358161
 31
0.0
  0
LINE
  5
42C2
  8
TITLE
 10
169.7533630284633
 20
39.637084130721291
 30
0.0
 11
169.97156714910031
 21
39.855288251358161
 31
0.0
  0
LINE
  5
42C3
  8
TITLE
 10
168.73471248846221
 20
39.753136935122832
 30
0.0
 11
168.8368638046945
 21
39.855288251358161
 31
0.0
  0
LINE
  5
42C4
  8
TITLE
 10
168.73471248846221
 20
39.840421807769651
 30
0.0
 11
168.7495789320474
 21
39.855288251358161
 31
0.0
  0
LINE
  5
42C5
  8
TITLE
 10
168.73471248846221
 20
39.665852062478848
 30
0.0
 11
168.92414867734169
 21
39.855288251358161
 31
0.0
  0
LINE
  5
42C6
  8
TITLE
 10
168.730410541114
 20
39.3996954971891
 30
0.0
 11
169.18600329528309
 21
39.855288251358161
 31
0.0
  0
LINE
  5
42C7
  8
TITLE
 10
168.73471248846221
 20
39.491282317184748
 30
0.0
 11
169.09871842263601
 21
39.855288251358161
 31
0.0
  0
LINE
  5
42C8
  8
TITLE
 10
168.73471248846221
 20
39.578567189831688
 30
0.0
 11
169.01143354998879
 21
39.855288251358161
 31
0.0
  0
LINE
  5
42C9
  8
TITLE
 10
175.71637448553969
 20
39.228299884605583
 30
0.0
 11
176.3433628522925
 21
39.855288251358161
 31
0.0
  0
LINE
  5
42CA
  8
TITLE
 10
175.71637448553969
 20
39.141015011958189
 30
0.0
 11
176.43064772493969
 21
39.855288251358161
 31
0.0
  0
LINE
  5
42CB
  8
TITLE
 10
175.60980791308609
 20
38.42345433098194
 30
0.0
 11
176.55219005577189
 21
39.365836473667507
 31
0.0
  0
LINE
  5
42CC
  8
TITLE
 10
175.5225230404385
 20
38.42345433098194
 30
0.0
 11
176.55219005577189
 21
39.453121346314788
 31
0.0
  0
LINE
  5
42CD
  8
TITLE
 10
175.43523816779179
 20
38.42345433098194
 30
0.0
 11
176.55219005577189
 21
39.540406218961948
 31
0.0
  0
LINE
  5
42CE
  8
TITLE
 10
175.3479532951514
 20
38.42345433098194
 30
0.0
 11
176.55219005577189
 21
39.627691091609108
 31
0.0
  0
LINE
  5
42CF
  8
TITLE
 10
175.2606684225043
 20
38.42345433098194
 30
0.0
 11
176.55219005577189
 21
39.714975964252858
 31
0.0
  0
LINE
  5
42D0
  8
TITLE
 10
175.17338354985711
 20
38.42345433098194
 30
0.0
 11
176.55219005577189
 21
39.802260836899677
 31
0.0
  0
LINE
  5
42D1
  8
TITLE
 10
175.08609867721
 20
38.42345433098194
 30
0.0
 11
176.51793259758691
 21
39.855288251358161
 31
0.0
  0
LINE
  5
42D2
  8
TITLE
 10
178.7343118213098
 20
37.881993588050143
 30
0.0
 11
180.70760648461419
 21
39.855288251358161
 31
0.0
  0
LINE
  5
42D3
  8
TITLE
 10
178.6219517500717
 20
37.856918389459338
 30
0.0
 11
180.17143789622651
 21
39.406404535614122
 31
0.0
  0
LINE
  5
42D4
  8
TITLE
 10
175.71748810799539
 20
37.658285799423197
 30
0.0
 11
177.1869733396997
 21
39.127771031131147
 31
0.0
  0
LINE
  5
42D5
  8
TITLE
 10
175.71637448553969
 20
37.919026794908859
 30
0.0
 11
176.9251187217655
 21
39.127771031131147
 31
0.0
  0
LINE
  5
42D6
  8
TITLE
 10
175.71637448553969
 20
38.006311667556133
 30
0.0
 11
176.8378338491184
 21
39.127771031131147
 31
0.0
  0
LINE
  5
42D7
  8
TITLE
 10
175.71637448553969
 20
38.093596540199663
 30
0.0
 11
176.7505489764707
 21
39.127771031131147
 31
0.0
  0
LINE
  5
42D8
  8
TITLE
 10
175.71637448553969
 20
37.744457049618291
 30
0.0
 11
177.0996884670526
 21
39.127771031131147
 31
0.0
  0
LINE
  5
42D9
  8
TITLE
 10
175.71637448553969
 20
37.831741922261926
 30
0.0
 11
177.01240359441309
 21
39.127771031131147
 31
0.0
  0
LINE
  5
42DA
  8
TITLE
 10
176.08597463990191
 20
36.106505133110197
 30
0.0
 11
176.68075310505631
 21
36.70128359826515
 31
0.0
  0
LINE
  5
42DB
  8
TITLE
 10
176.14351344561689
 20
35.989474193531237
 30
0.0
 11
176.72774101430329
 21
36.573701762217638
 31
0.0
  0
LINE
  5
42DC
  8
TITLE
 10
176.11433472331549
 20
36.047580343876923
 30
0.0
 11
176.70354724378279
 21
36.63679286434467
 31
0.0
  0
LINE
  5
42DD
  8
TITLE
 10
176.4049910402054
 20
35.552672806949893
 30
0.0
 11
176.96686127123709
 21
36.114543037981207
 31
0.0
  0
LINE
  5
42DE
  8
TITLE
 10
176.36967146210731
 20
35.604638101494857
 30
0.0
 11
176.93282867236209
 21
36.16779531175348
 31
0.0
  0
LINE
  5
42DF
  8
TITLE
 10
176.33508783528711
 20
35.65733934732566
 30
0.0
 11
176.89993015214259
 21
36.222181664181221
 31
0.0
  0
LINE
  5
42E0
  8
TITLE
 10
176.301247645019
 20
35.710784029703973
 30
0.0
 11
176.8681866166535
 21
36.277723001335858
 31
0.0
  0
LINE
  5
42E1
  8
TITLE
 10
176.26815910569849
 20
35.76498036302803
 30
0.0
 11
176.83762182390129
 21
36.334443081230688
 31
0.0
  0
LINE
  5
42E2
  8
TITLE
 10
176.23583119751541
 20
35.819937327488333
 30
0.0
 11
176.80826264368349
 21
36.392368773656237
 31
0.0
  0
LINE
  5
42E3
  8
TITLE
 10
176.20427370751031
 20
35.875664710130309
 30
0.0
 11
176.78013936494509
 21
36.451530367565169
 31
0.0
  0
LINE
  5
42E4
  8
TITLE
 10
176.1734972755398
 20
35.932173150807103
 30
0.0
 11
176.75328605962659
 21
36.511961934897158
 31
0.0
  0
LINE
  5
42E5
  8
TITLE
 10
176.63202868031701
 20
35.256001211177818
 30
0.0
 11
177.1940125419714
 21
35.817985072836002
 31
0.0
  0
LINE
  5
42E6
  8
TITLE
 10
176.59241343422809
 20
35.30367083774388
 30
0.0
 11
177.15347845267749
 21
35.864735856185582
 31
0.0
  0
LINE
  5
42E7
  8
TITLE
 10
176.5535029498246
 20
35.352045225980191
 30
0.0
 11
177.11400278758671
 21
35.9125450637423
 31
0.0
  0
LINE
  5
42E8
  8
TITLE
 10
176.5153009055802
 20
35.401128054383321
 30
0.0
 11
177.07559288524411
 21
35.961420034046803
 31
0.0
  0
LINE
  5
42E9
  8
TITLE
 10
176.47781156242991
 20
35.450923583876033
 30
0.0
 11
177.03825805769699
 21
36.011370079147241
 31
0.0
  0
LINE
  5
42EA
  8
TITLE
 10
176.4410397807705
 20
35.501436674867357
 30
0.0
 11
177.00200967509181
 21
36.062406569188738
 31
0.0
  0
LINE
  5
42EB
  8
TITLE
 10
176.65722638484431
 20
38.42345433098194
 30
0.0
 11
177.361543084994
 21
39.127771031131147
 31
0.0
  0
LINE
  5
42EC
  8
TITLE
 10
176.56994151219709
 20
38.42345433098194
 30
0.0
 11
177.27425821234689
 21
39.127771031131147
 31
0.0
  0
LINE
  5
42ED
  8
TITLE
 10
175.77229451706489
 20
37.102098099970021
 30
0.0
 11
176.55219005577189
 21
37.881993638676818
 31
0.0
  0
LINE
  5
42EE
  8
TITLE
 10
175.7601328934274
 20
37.177221348979863
 30
0.0
 11
176.55219005577189
 21
37.969278511323751
 31
0.0
  0
LINE
  5
42EF
  8
TITLE
 10
175.74930129885661
 20
37.253674627056171
 30
0.0
 11
176.55219005577189
 21
38.056563383970797
 31
0.0
  0
LINE
  5
42F0
  8
TITLE
 10
175.78573085827881
 20
37.028249568540787
 30
0.0
 11
176.55219005577189
 21
37.794708766033303
 31
0.0
  0
LINE
  5
42F1
  8
TITLE
 10
175.72543203368059
 20
37.49165997981811
 30
0.0
 11
176.55219005577189
 21
38.318418001909102
 31
0.0
  0
LINE
  5
42F2
  8
TITLE
 10
175.7206034077517
 20
37.574116226535921
 30
0.0
 11
176.55219005577189
 21
38.405702874556141
 31
0.0
  0
LINE
  5
42F3
  8
TITLE
 10
175.73986084330861
 20
37.331519044151612
 30
0.0
 11
176.55219005577189
 21
38.143848256614767
 31
0.0
  0
LINE
  5
42F4
  8
TITLE
 10
175.7318792822939
 20
37.410822355783921
 30
0.0
 11
176.55219005577189
 21
38.231133129262048
 31
0.0
  0
LINE
  5
42F5
  8
TITLE
 10
175.9117655004747
 20
36.543290102213291
 30
0.0
 11
176.565995004592
 21
37.197519606330729
 31
0.0
  0
LINE
  5
42F6
  8
TITLE
 10
175.89059298556359
 20
36.609402459942316
 30
0.0
 11
176.55711787864311
 21
37.275927353022212
 31
0.0
  0
LINE
  5
42F7
  8
TITLE
 10
175.87042235499661
 20
36.676516702022468
 30
0.0
 11
176.5505149286941
 21
37.356609275716551
 31
0.0
  0
LINE
  5
42F8
  8
TITLE
 10
175.85128325036791
 20
36.74466247004068
 30
0.0
 11
176.5463763816901
 21
37.439755601363117
 31
0.0
  0
LINE
  5
42F9
  8
TITLE
 10
175.83320787739009
 20
36.813871969706611
 30
0.0
 11
176.544929300891
 21
37.525593393203849
 31
0.0
  0
LINE
  5
42FA
  8
TITLE
 10
175.8162312859786
 20
36.884180250945292
 30
0.0
 11
176.54644819940989
 21
37.61439716437701
 31
0.0
  0
LINE
  5
42FB
  8
TITLE
 10
175.8003916933408
 20
36.95562553094851
 30
0.0
 11
176.55127000115499
 21
37.706503838769322
 31
0.0
  0
LINE
  5
42FC
  8
TITLE
 10
175.71637448553969
 20
38.180881412846823
 30
0.0
 11
176.66326410382399
 21
39.127771031131147
 31
0.0
  0
LINE
  5
42FD
  8
TITLE
 10
175.71637448553969
 20
38.268166285493862
 30
0.0
 11
176.57597923117689
 21
39.127771031131147
 31
0.0
  0
LINE
  5
42FE
  8
TITLE
 10
175.71637448553969
 20
38.355451158140909
 30
0.0
 11
176.55219005577189
 21
39.191266728373201
 31
0.0
  0
LINE
  5
42FF
  8
TITLE
 10
175.6970927857333
 20
38.42345433098194
 30
0.0
 11
176.55219005577189
 21
39.278551601020808
 31
0.0
  0
LINE
  5
4300
  8
TITLE
 10
174.9345666044
 20
36.962649168479061
 30
0.0
 11
175.42906265706051
 21
37.45714522113542
 31
0.0
  0
LINE
  5
4301
  8
TITLE
 10
174.8472817317529
 20
36.962649168479061
 30
0.0
 11
175.42906265706051
 21
37.544430093782921
 31
0.0
  0
LINE
  5
4302
  8
TITLE
 10
174.75999685910571
 20
36.962649168479061
 30
0.0
 11
175.42906265706051
 21
37.63171496642974
 31
0.0
  0
LINE
  5
4303
  8
TITLE
 10
174.6727119864654
 20
36.962649168479061
 30
0.0
 11
175.42906265706051
 21
37.718999839073149
 31
0.0
  0
LINE
  5
4304
  8
TITLE
 10
174.5854271138187
 20
36.962649168479061
 30
0.0
 11
175.3419154532489
 21
37.719137507916351
 31
0.0
  0
LINE
  5
4305
  8
TITLE
 10
174.49814224117151
 20
36.962649168479061
 30
0.0
 11
175.25463058060899
 21
37.719137507916351
 31
0.0
  0
LINE
  5
4306
  8
TITLE
 10
174.8807808417514
 20
34.639456717018561
 30
0.0
 11
175.71637448553969
 21
35.475050360806563
 31
0.0
  0
LINE
  5
4307
  8
TITLE
 10
174.76378841308079
 20
34.609749160994973
 30
0.0
 11
175.71637448553969
 21
35.562335233453837
 31
0.0
  0
LINE
  5
4308
  8
TITLE
 10
174.64859703605489
 20
34.581842656620097
 30
0.0
 11
175.70227281682989
 21
35.635518437391397
 31
0.0
  0
LINE
  5
4309
  8
TITLE
 10
174.5351127341973
 20
34.55564322740554
 30
0.0
 11
175.5833598996669
 21
35.603890392875087
 31
0.0
  0
LINE
  5
430A
  8
TITLE
 10
174.42324997823971
 20
34.531065344095282
 30
0.0
 11
175.4658824663729
 21
35.573697832228049
 31
0.0
  0
LINE
  5
430B
  8
TITLE
 10
174.31293065595901
 20
34.508030894457988
 30
0.0
 11
175.34978103284081
 21
35.544881271343677
 31
0.0
  0
LINE
  5
430C
  8
TITLE
 10
173.60071599501401
 20
36.32707754026319
 30
0.0
 11
174.99277596266751
 21
37.719137507916351
 31
0.0
  0
LINE
  5
430D
  8
TITLE
 10
173.60071599501401
 20
36.239792667615923
 30
0.0
 11
175.08006083531421
 21
37.719137507916351
 31
0.0
  0
LINE
  5
430E
  8
TITLE
 10
174.41085736852429
 20
36.962649168479061
 30
0.0
 11
175.1673457079614
 21
37.719137507916351
 31
0.0
  0
LINE
  5
430F
  8
TITLE
 10
173.9905459528982
 20
34.4475008093425
 30
0.0
 11
175.009199373716
 21
35.466154230157137
 31
0.0
  0
LINE
  5
4310
  8
TITLE
 10
174.2040831984545
 20
34.486468309601271
 30
0.0
 11
175.2350003774468
 21
35.517385488596346
 31
0.0
  0
LINE
  5
4311
  8
TITLE
 10
174.0966418348348
 20
34.466311818631539
 30
0.0
 11
175.12148912362221
 21
35.491159107419321
 31
0.0
  0
LINE
  5
4312
  8
TITLE
 10
173.60071599501401
 20
36.065222922321482
 30
0.0
 11
174.3581739212141
 21
36.822680848520918
 31
0.0
  0
LINE
  5
4313
  8
TITLE
 10
173.60071599501401
 20
36.152507794968763
 30
0.0
 11
174.3581739212141
 21
36.909965721168192
 31
0.0
  0
LINE
  5
4314
  8
TITLE
 10
173.60071599501401
 20
36.414362412909888
 30
0.0
 11
174.9054910900204
 21
37.719137507916351
 31
0.0
  0
LINE
  5
4315
  8
TITLE
 10
173.60071599501401
 20
36.501647285557169
 30
0.0
 11
174.81820621737279
 21
37.719137507916351
 31
0.0
  0
LINE
  5
4316
  8
TITLE
 10
173.60071599501401
 20
36.58893215820445
 30
0.0
 11
174.73092134472611
 21
37.719137507916351
 31
0.0
  0
LINE
  5
4317
  8
TITLE
 10
173.1888691514709
 20
36.962649168479061
 30
0.0
 11
173.94535749090841
 21
37.719137507916351
 31
0.0
  0
LINE
  5
4318
  8
TITLE
 10
173.60071599501401
 20
36.676217030848314
 30
0.0
 11
174.6436364720789
 21
37.719137507916351
 31
0.0
  0
LINE
  5
4319
  8
TITLE
 10
173.60071599501401
 20
36.763501903495239
 30
0.0
 11
174.55635159943171
 21
37.719137507916351
 31
0.0
  0
LINE
  5
431A
  8
TITLE
 10
173.60071599501401
 20
36.8507867761424
 30
0.0
 11
174.4690667267846
 21
37.719137507916351
 31
0.0
  0
LINE
  5
431B
  8
TITLE
 10
173.60071599501401
 20
36.938071648785922
 30
0.0
 11
174.38178185414421
 21
37.719137507916351
 31
0.0
  0
LINE
  5
431C
  8
TITLE
 10
173.53800864205999
 20
36.962649168479061
 30
0.0
 11
174.2944969814975
 21
37.719137507916351
 31
0.0
  0
LINE
  5
431D
  8
TITLE
 10
173.45072376941289
 20
36.962649168479061
 30
0.0
 11
174.20721210884989
 21
37.719137507916351
 31
0.0
  0
LINE
  5
431E
  8
TITLE
 10
173.3634388967657
 20
36.962649168479061
 30
0.0
 11
174.11992723620321
 21
37.719137507916351
 31
0.0
  0
LINE
  5
431F
  8
TITLE
 10
173.2761540241186
 20
36.962649168479061
 30
0.0
 11
174.03264236355611
 21
37.719137507916351
 31
0.0
  0
LINE
  5
4320
  8
TITLE
 10
173.18426838901681
 20
34.339502226623722
 30
0.0
 11
174.3581739212141
 21
35.513407758824428
 31
0.0
  0
LINE
  5
4321
  8
TITLE
 10
173.8857395479281
 20
34.42997927701208
 30
0.0
 11
174.8980863865936
 21
35.442326115677929
 31
0.0
  0
LINE
  5
4322
  8
TITLE
 10
173.78217074520529
 20
34.413695346936947
 30
0.0
 11
174.7881082927469
 21
35.419632894478468
 31
0.0
  0
LINE
  5
4323
  8
TITLE
 10
173.6797913845275
 20
34.398600858906207
 30
0.0
 11
174.6792258417463
 21
35.39803531612506
 31
0.0
  0
LINE
  5
4324
  8
TITLE
 10
173.5785566571258
 20
34.384651004147827
 30
0.0
 11
174.5714021776102
 21
35.377496524635831
 31
0.0
  0
LINE
  5
4325
  8
TITLE
 10
173.47842478709251
 20
34.371804006765501
 30
0.0
 11
174.4646026384066
 21
35.35798185807915
 31
0.0
  0
LINE
  5
4326
  8
TITLE
 10
173.37935675094781
 20
34.3600208432606
 30
0.0
 11
174.35879457702589
 21
35.3394586693463
 31
0.0
  0
LINE
  5
4327
  8
TITLE
 10
173.2813160296777
 20
34.349264994645068
 30
0.0
 11
174.3581739212141
 21
35.426122886180913
 31
0.0
  0
LINE
  5
4328
  8
TITLE
 10
173.60071599501401
 20
35.890653177030799
 30
0.0
 11
174.3581739212141
 21
36.648111103226491
 31
0.0
  0
LINE
  5
4329
  8
TITLE
 10
173.60071599501401
 20
35.977938049677618
 30
0.0
 11
174.3581739212141
 21
36.735395975873757
 31
0.0
  0
LINE
  5
432A
  8
TITLE
 10
173.60071599501401
 20
35.279659068504202
 30
0.0
 11
174.3581739212141
 21
36.03711699470341
 31
0.0
  0
LINE
  5
432B
  8
TITLE
 10
173.60071599501401
 20
35.366943941151483
 30
0.0
 11
174.3581739212141
 21
36.124401867350691
 31
0.0
  0
LINE
  5
432C
  8
TITLE
 10
173.60071599501401
 20
35.454228813798522
 30
0.0
 11
174.3581739212141
 21
36.211686739998193
 31
0.0
  0
LINE
  5
432D
  8
TITLE
 10
173.60071599501401
 20
35.54151368644591
 30
0.0
 11
174.3581739212141
 21
36.298971612645232
 31
0.0
  0
LINE
  5
432E
  8
TITLE
 10
173.60071599501401
 20
35.628798559092843
 30
0.0
 11
174.3581739212141
 21
36.386256485288762
 31
0.0
  0
LINE
  5
432F
  8
TITLE
 10
173.60071599501401
 20
35.716083431740117
 30
0.0
 11
174.3581739212141
 21
36.473541357935687
 31
0.0
  0
LINE
  5
4330
  8
TITLE
 10
173.60071599501401
 20
35.803368304383639
 30
0.0
 11
174.3581739212141
 21
36.560826230582961
 31
0.0
  0
LINE
  5
4331
  8
TITLE
 10
175.196421222342
 20
36.962649168479061
 30
0.0
 11
175.42906265706051
 21
37.195290603197812
 31
0.0
  0
LINE
  5
4332
  8
TITLE
 10
175.10913634969441
 20
36.962649168479061
 30
0.0
 11
175.42906265706051
 21
37.282575475844737
 31
0.0
  0
LINE
  5
4333
  8
TITLE
 10
175.02185147704719
 20
36.962649168479061
 30
0.0
 11
175.42906265706051
 21
37.369860348492132
 31
0.0
  0
LINE
  5
4334
  8
TITLE
 10
175.12059456887249
 20
34.704700698852889
 30
0.0
 11
175.71637448553969
 21
35.300480615512242
 31
0.0
  0
LINE
  5
4335
  8
TITLE
 10
174.99967796823049
 20
34.671068970850463
 30
0.0
 11
175.71637448553969
 21
35.387765488159523
 31
0.0
  0
LINE
  5
4336
  8
TITLE
 10
175.37099096763581
 20
36.962649168479061
 30
0.0
 11
175.42906265706051
 21
37.020720857903257
 31
0.0
  0
LINE
  5
4337
  8
TITLE
 10
175.2837060949887
 20
36.962649168479061
 30
0.0
 11
175.42906265706051
 21
37.108005730550651
 31
0.0
  0
LINE
  5
4338
  8
TITLE
 10
175.6272506006689
 20
34.862217240053042
 30
0.0
 11
175.71637448553969
 21
34.951341124930757
 31
0.0
  0
LINE
  5
4339
  8
TITLE
 10
175.49681557712751
 20
34.819067089162672
 30
0.0
 11
175.71637448553969
 21
35.03862599757781
 31
0.0
  0
LINE
  5
433A
  8
TITLE
 10
175.3690118717368
 20
34.778548256414979
 30
0.0
 11
175.71637448553969
 21
35.125910870221453
 31
0.0
  0
LINE
  5
433B
  8
TITLE
 10
175.24365830818121
 20
34.740479565507151
 30
0.0
 11
175.71637448553969
 21
35.213195742868827
 31
0.0
  0
LINE
  5
433C
  8
TITLE
 10
174.9115289319156
 20
38.42345433098194
 30
0.0
 11
175.61584563206591
 21
39.127771031131147
 31
0.0
  0
LINE
  5
433D
  8
TITLE
 10
174.82424405926849
 20
38.42345433098194
 30
0.0
 11
175.52856075941821
 21
39.127771031131147
 31
0.0
  0
LINE
  5
433E
  8
TITLE
 10
174.73695918662131
 20
38.42345433098194
 30
0.0
 11
175.44127588677111
 21
39.127771031131147
 31
0.0
  0
LINE
  5
433F
  8
TITLE
 10
174.6496743139742
 20
38.42345433098194
 30
0.0
 11
175.35399101412389
 21
39.127771031131147
 31
0.0
  0
LINE
  5
4340
  8
TITLE
 10
174.56238944132701
 20
38.42345433098194
 30
0.0
 11
175.26670614148401
 21
39.127771031131147
 31
0.0
  0
LINE
  5
4341
  8
TITLE
 10
174.4751045686798
 20
38.42345433098194
 30
0.0
 11
175.1794212688369
 21
39.127771031131147
 31
0.0
  0
LINE
  5
4342
  8
TITLE
 10
174.38781969604
 20
38.42345433098194
 30
0.0
 11
175.09213639618969
 21
39.127771031131147
 31
0.0
  0
LINE
  5
4343
  8
TITLE
 10
174.30053482339281
 20
38.42345433098194
 30
0.0
 11
175.00485152354261
 21
39.127771031131147
 31
0.0
  0
LINE
  5
4344
  8
TITLE
 10
174.21324995074559
 20
38.42345433098194
 30
0.0
 11
174.9175666508954
 21
39.127771031131147
 31
0.0
  0
LINE
  5
4345
  8
TITLE
 10
173.25311635163411
 20
38.42345433098194
 30
0.0
 11
173.95743305178391
 21
39.127771031131147
 31
0.0
  0
LINE
  5
4346
  8
TITLE
 10
173.165831478987
 20
38.42345433098194
 30
0.0
 11
173.87014817913669
 21
39.127771031131147
 31
0.0
  0
LINE
  5
4347
  8
TITLE
 10
173.42768609692851
 20
38.42345433098194
 30
0.0
 11
174.1320027970782
 21
39.127771031131147
 31
0.0
  0
LINE
  5
4348
  8
TITLE
 10
173.34040122428129
 20
38.42345433098194
 30
0.0
 11
174.0447179244311
 21
39.127771031131147
 31
0.0
  0
LINE
  5
4349
  8
TITLE
 10
174.12596507809849
 20
38.42345433098194
 30
0.0
 11
174.83028177824821
 21
39.127771031131147
 31
0.0
  0
LINE
  5
434A
  8
TITLE
 10
174.0386802054513
 20
38.42345433098194
 30
0.0
 11
174.7429969056011
 21
39.127771031131147
 31
0.0
  0
LINE
  5
434B
  8
TITLE
 10
173.95139533280411
 20
38.42345433098194
 30
0.0
 11
174.65571203295389
 21
39.127771031131147
 31
0.0
  0
LINE
  5
434C
  8
TITLE
 10
173.86411046015701
 20
38.42345433098194
 30
0.0
 11
174.56842716030681
 21
39.127771031131147
 31
0.0
  0
LINE
  5
434D
  8
TITLE
 10
173.77682558750979
 20
38.42345433098194
 30
0.0
 11
174.48114228765999
 21
39.127771031131147
 31
0.0
  0
LINE
  5
434E
  8
TITLE
 10
173.68954071486269
 20
38.42345433098194
 30
0.0
 11
174.39385741501241
 21
39.127771031131147
 31
0.0
  0
LINE
  5
434F
  8
TITLE
 10
173.6022558422155
 20
38.42345433098194
 30
0.0
 11
174.30657254237261
 21
39.127771031131147
 31
0.0
  0
LINE
  5
4350
  8
TITLE
 10
173.51497096957559
 20
38.42345433098194
 30
0.0
 11
174.21928766972491
 21
39.127771031131147
 31
0.0
  0
LINE
  5
4351
  8
TITLE
 10
174.99881380456321
 20
38.42345433098194
 30
0.0
 11
175.70313050471259
 21
39.127771031131147
 31
0.0
  0
LINE
  5
4352
  8
TITLE
 10
173.10158427882419
 20
36.962649168479061
 30
0.0
 11
173.8580726182617
 21
37.719137507916351
 31
0.0
  0
LINE
  5
4353
  8
TITLE
 10
173.01429940617709
 20
36.962649168479061
 30
0.0
 11
173.7707877456146
 21
37.719137507916351
 31
0.0
  0
LINE
  5
4354
  8
TITLE
 10
172.9270145335299
 20
36.962649168479061
 30
0.0
 11
173.68350287296741
 21
37.719137507916351
 31
0.0
  0
LINE
  5
4355
  8
TITLE
 10
172.83972966088999
 20
36.962649168479061
 30
0.0
 11
173.59621800031979
 21
37.719137507916351
 31
0.0
  0
LINE
  5
4356
  8
TITLE
 10
172.7524447882428
 20
36.962649168479061
 30
0.0
 11
173.50893312767309
 21
37.719137507916351
 31
0.0
  0
LINE
  5
4357
  8
TITLE
 10
172.66515991559569
 20
36.962649168479061
 30
0.0
 11
173.42164825503281
 21
37.719137507916351
 31
0.0
  0
LINE
  5
4358
  8
TITLE
 10
172.57787504294851
 20
36.962649168479061
 30
0.0
 11
173.33436338238559
 21
37.719137507916351
 31
0.0
  0
LINE
  5
4359
  8
TITLE
 10
173.0881816838928
 20
34.330700394146682
 30
0.0
 11
174.3581739212141
 21
35.600692631471247
 31
0.0
  0
LINE
  5
435A
  8
TITLE
 10
172.99302568404929
 20
34.322829266958138
 30
0.0
 11
174.3581739212141
 21
35.687977504115111
 31
0.0
  0
LINE
  5
435B
  8
TITLE
 10
172.8987719179963
 20
34.315860373552027
 30
0.0
 11
174.3581739212141
 21
35.775262376762051
 31
0.0
  0
LINE
  5
435C
  8
TITLE
 10
172.80539353300171
 20
34.309766861197552
 30
0.0
 11
174.3581739212141
 21
35.862547249409317
 31
0.0
  0
LINE
  5
435D
  8
TITLE
 10
172.71286516917101
 20
34.304523370017371
 30
0.0
 11
174.3581739212141
 21
35.949832122056712
 31
0.0
  0
LINE
  5
435E
  8
TITLE
 10
172.6211628459441
 20
34.300105919434259
 30
0.0
 11
173.54465669864339
 21
35.223599772133753
 31
0.0
  0
LINE
  5
435F
  8
TITLE
 10
173.07854660633981
 20
38.42345433098194
 30
0.0
 11
173.78286330648959
 21
39.127771031131147
 31
0.0
  0
LINE
  5
4360
  8
TITLE
 10
172.99126173369271
 20
38.42345433098194
 30
0.0
 11
173.6955784338424
 21
39.127771031131147
 31
0.0
  0
LINE
  5
4361
  8
TITLE
 10
172.90397686104549
 20
38.42345433098194
 30
0.0
 11
173.6082935611953
 21
39.127771031131147
 31
0.0
  0
LINE
  5
4362
  8
TITLE
 10
172.8166919883983
 20
38.42345433098194
 30
0.0
 11
173.52100868854811
 21
39.127771031131147
 31
0.0
  0
LINE
  5
4363
  8
TITLE
 10
172.7294071157512
 20
38.42345433098194
 30
0.0
 11
173.4337238159078
 21
39.127771031131147
 31
0.0
  0
LINE
  5
4364
  8
TITLE
 10
172.64212224311129
 20
38.42345433098194
 30
0.0
 11
173.34643894326061
 21
39.127771031131147
 31
0.0
  0
LINE
  5
4365
  8
TITLE
 10
176.05844782411069
 20
36.16626318996282
 30
0.0
 11
176.65941303471709
 21
36.767228400569017
 31
0.0
  0
LINE
  5
4366
  8
TITLE
 10
176.0317700824771
 20
36.226870320979863
 30
0.0
 11
176.6395884403218
 21
36.834688678824932
 31
0.0
  0
LINE
  5
4367
  8
TITLE
 10
176.0059584894293
 20
36.288343600572148
 30
0.0
 11
176.62134878534971
 21
36.90373389649244
 31
0.0
  0
LINE
  5
4368
  8
TITLE
 10
175.98103148839209
 20
36.35070147218574
 30
0.0
 11
176.60477292025959
 21
36.974442904049397
 31
0.0
  0
LINE
  5
4369
  8
TITLE
 10
175.9570090056263
 20
36.413963862063497
 30
0.0
 11
176.5899507304789
 21
37.046905586915621
 31
0.0
  0
LINE
  5
436A
  8
TITLE
 10
175.93391257849041
 20
36.478152307574987
 30
0.0
 11
176.57698519728771
 21
37.121224926371838
 31
0.0
  0
LINE
  5
436B
  8
TITLE
 10
178.42017100028261
 20
38.0042771302559
 30
0.0
 11
179.3710363945861
 21
38.955142524558937
 31
0.0
  0
LINE
  5
436C
  8
TITLE
 10
178.42017100028261
 20
38.09156200290284
 30
0.0
 11
179.22597544339439
 21
38.897366446014871
 31
0.0
  0
LINE
  5
436D
  8
TITLE
 10
178.42017100028261
 20
38.178846875549652
 30
0.0
 11
179.09053220582379
 21
38.849208081094389
 31
0.0
  0
LINE
  5
436E
  8
TITLE
 10
178.70784978608251
 20
36.284403845184897
 30
0.0
 11
179.41169952335571
 21
36.988253582461773
 31
0.0
  0
LINE
  5
436F
  8
TITLE
 10
178.6205649134354
 20
36.284403845184897
 30
0.0
 11
179.3244146507086
 21
36.988253582461773
 31
0.0
  0
LINE
  5
4370
  8
TITLE
 10
178.53328004078821
 20
36.284403845184897
 30
0.0
 11
179.2371297780619
 21
36.988253582461773
 31
0.0
  0
LINE
  5
4371
  8
TITLE
 10
178.445995168141
 20
36.284403845184897
 30
0.0
 11
179.14984490541431
 21
36.988253582461773
 31
0.0
  0
LINE
  5
4372
  8
TITLE
 10
178.42017100028261
 20
36.345864549973953
 30
0.0
 11
179.0625600327671
 21
36.988253582461773
 31
0.0
  0
LINE
  5
4373
  8
TITLE
 10
178.79513465872969
 20
36.284403845184897
 30
0.0
 11
179.4989843960029
 21
36.988253582461773
 31
0.0
  0
LINE
  5
4374
  8
TITLE
 10
178.96970440401719
 20
36.284403845184897
 30
0.0
 11
179.67355414129719
 21
36.988253582461773
 31
0.0
  0
LINE
  5
4375
  8
TITLE
 10
178.88241953136961
 20
36.284403845184897
 30
0.0
 11
179.58626926865011
 21
36.988253582461773
 31
0.0
  0
LINE
  5
4376
  8
TITLE
 10
178.98351699379009
 20
34.290664364088229
 30
0.0
 11
180.350135110059
 21
35.657282480356677
 31
0.0
  0
LINE
  5
4377
  8
TITLE
 10
178.8962321211429
 20
34.290664364088229
 30
0.0
 11
180.39392155695711
 21
35.788353799902438
 31
0.0
  0
LINE
  5
4378
  8
TITLE
 10
178.80894724849571
 20
34.290664364088229
 30
0.0
 11
180.42631676081049
 21
35.908033876402783
 31
0.0
  0
LINE
  5
4379
  8
TITLE
 10
178.72166237584861
 20
34.290664364088229
 30
0.0
 11
180.45021234783189
 21
36.019214336071741
 31
0.0
  0
LINE
  5
437A
  8
TITLE
 10
178.7072920514297
 20
34.363578912316491
 30
0.0
 11
180.4674022030253
 21
36.123689063912032
 31
0.0
  0
LINE
  5
437B
  8
TITLE
 10
178.7072920514297
 20
34.450863784960241
 30
0.0
 11
180.47909126485229
 21
36.222662998378837
 31
0.0
  0
LINE
  5
437C
  8
TITLE
 10
178.5127011256327
 20
37.834952637663832
 30
0.0
 11
179.9086611793791
 21
39.230912691410254
 31
0.0
  0
LINE
  5
437D
  8
TITLE
 10
178.42017100028261
 20
37.829707384960791
 30
0.0
 11
179.70443841008861
 21
39.113974794770122
 31
0.0
  0
LINE
  5
437E
  8
TITLE
 10
178.42017100028261
 20
37.916992257608058
 30
0.0
 11
179.52877310758771
 21
39.02559436491709
 31
0.0
  0
LINE
  5
437F
  8
TITLE
 10
178.42017100028261
 20
36.782288913206123
 30
0.0
 11
178.6261356695386
 21
36.988253582461773
 31
0.0
  0
LINE
  5
4380
  8
TITLE
 10
178.42017100028261
 20
36.869573785849532
 30
0.0
 11
178.5388507968909
 21
36.988253582461773
 31
0.0
  0
LINE
  5
4381
  8
TITLE
 10
178.42017100028261
 20
36.956858658496799
 30
0.0
 11
178.45156592424419
 21
36.988253582461773
 31
0.0
  0
LINE
  5
4382
  8
TITLE
 10
178.42017100028261
 20
36.520434295268053
 30
0.0
 11
178.8879902874728
 21
36.988253582461773
 31
0.0
  0
LINE
  5
4383
  8
TITLE
 10
178.42017100028261
 20
36.607719167915093
 30
0.0
 11
178.80070541483289
 21
36.988253582461773
 31
0.0
  0
LINE
  5
4384
  8
TITLE
 10
178.42017100028261
 20
36.69500404055907
 30
0.0
 11
178.7134205421857
 21
36.988253582461773
 31
0.0
  0
LINE
  5
4385
  8
TITLE
 10
178.42017100028261
 20
36.433149422620772
 30
0.0
 11
178.97527516012039
 21
36.988253582461773
 31
0.0
  0
LINE
  5
4386
  8
TITLE
 10
178.7072920514297
 20
34.974573020839223
 30
0.0
 11
178.75860099086049
 21
35.02588196027375
 31
0.0
  0
LINE
  5
4387
  8
TITLE
 10
177.62603916207991
 20
34.417029367365217
 30
0.0
 11
177.8581519572331
 21
34.649142162521798
 31
0.0
  0
LINE
  5
4388
  8
TITLE
 10
177.5715038817593
 20
34.449778959692033
 30
0.0
 11
177.8581519572331
 21
34.736427035165548
 31
0.0
  0
LINE
  5
4389
  8
TITLE
 10
177.51772417073701
 20
34.483284121316728
 30
0.0
 11
177.8581519572331
 21
34.823711907812822
 31
0.0
  0
LINE
  5
438A
  8
TITLE
 10
177.4646914769919
 20
34.517536300218687
 30
0.0
 11
177.8581519572331
 21
34.910996780459868
 31
0.0
  0
LINE
  5
438B
  8
TITLE
 10
177.85193538549311
 20
34.293786100193302
 30
0.0
 11
177.8581519572331
 21
34.300002671937023
 31
0.0
  0
LINE
  5
438C
  8
TITLE
 10
177.79427595704729
 20
34.323411544398141
 30
0.0
 11
177.8581519572331
 21
34.38728754458441
 31
0.0
  0
LINE
  5
438D
  8
TITLE
 10
177.7374145998119
 20
34.353835059810081
 30
0.0
 11
177.8581519572331
 21
34.474572417227712
 31
0.0
  0
LINE
  5
438E
  8
TITLE
 10
177.6813393473048
 20
34.385044679946759
 30
0.0
 11
177.8581519572331
 21
34.561857289874979
 31
0.0
  0
LINE
  5
438F
  8
TITLE
 10
178.7072920514297
 20
34.887288148192063
 30
0.0
 11
178.92447534009759
 21
35.104471436859633
 31
0.0
  0
LINE
  5
4390
  8
TITLE
 10
177.41239799349569
 20
34.552527689373171
 30
0.0
 11
177.8581519572331
 21
34.998281653107142
 31
0.0
  0
LINE
  5
4391
  8
TITLE
 10
177.36083662384041
 20
34.588251192358371
 30
0.0
 11
177.8581519572331
 21
35.085566525753848
 31
0.0
  0
LINE
  5
4392
  8
TITLE
 10
177.31000095156281
 20
34.624700392730801
 30
0.0
 11
177.8581519572331
 21
35.172851398401349
 31
0.0
  0
LINE
  5
4393
  8
TITLE
 10
177.2598852130873
 20
34.661869526898727
 30
0.0
 11
177.8581519572331
 21
35.260136271048736
 31
0.0
  0
LINE
  5
4394
  8
TITLE
 10
177.35550536601471
 20
38.42345433098194
 30
0.0
 11
177.8581519572331
 21
38.926100922200362
 31
0.0
  0
LINE
  5
4395
  8
TITLE
 10
177.26822049336761
 20
38.42345433098194
 30
0.0
 11
177.8581519572331
 21
39.013385794843771
 31
0.0
  0
LINE
  5
4396
  8
TITLE
 10
178.42017100028261
 20
38.266131748196813
 30
0.0
 11
178.96273860190189
 21
38.8086993498165
 31
0.0
  0
LINE
  5
4397
  8
TITLE
 10
177.53007511130861
 20
38.42345433098194
 30
0.0
 11
177.8581519572331
 21
38.751531176906148
 31
0.0
  0
LINE
  5
4398
  8
TITLE
 10
177.44279023866139
 20
38.42345433098194
 30
0.0
 11
177.8581519572331
 21
38.838816049552968
 31
0.0
  0
LINE
  5
4399
  8
TITLE
 10
178.42017100028261
 20
38.353416620844087
 30
0.0
 11
178.8412384816192
 21
38.774484102180743
 31
0.0
  0
LINE
  5
439A
  8
TITLE
 10
178.42017100028261
 20
38.440701493491588
 30
0.0
 11
178.7250497232871
 21
38.745580216496251
 31
0.0
  0
LINE
  5
439B
  8
TITLE
 10
178.42017100028261
 20
38.527986366134883
 30
0.0
 11
178.6134336205873
 21
38.721248986442902
 31
0.0
  0
LINE
  5
439C
  8
TITLE
 10
178.42017100028261
 20
38.615271238781929
 30
0.0
 11
178.5058177253531
 21
38.700917963855773
 31
0.0
  0
LINE
  5
439D
  8
TITLE
 10
177.79192972925011
 20
38.42345433098194
 30
0.0
 11
177.8581519572331
 21
38.489676558964788
 31
0.0
  0
LINE
  5
439E
  8
TITLE
 10
177.7046448566029
 20
38.42345433098194
 30
0.0
 11
177.8581519572331
 21
38.576961431611842
 31
0.0
  0
LINE
  5
439F
  8
TITLE
 10
177.61735998395579
 20
38.42345433098194
 30
0.0
 11
177.8581519572331
 21
38.664246304259223
 31
0.0
  0
LINE
  5
43A0
  8
TITLE
 10
179.9421490044256
 20
37.431418190884422
 30
0.0
 11
180.72420426806181
 21
38.213473454524433
 31
0.0
  0
LINE
  5
43A1
  8
TITLE
 10
179.8548641317779
 20
37.431418190884422
 30
0.0
 11
180.6369193954142
 21
38.213473454524433
 31
0.0
  0
LINE
  5
43A2
  8
TITLE
 10
179.7675792591312
 20
37.431418190884422
 30
0.0
 11
180.54963452276701
 21
38.213473454524433
 31
0.0
  0
LINE
  5
43A3
  8
TITLE
 10
179.68029438648409
 20
37.431418190884422
 30
0.0
 11
180.46234965012761
 21
38.213473454524433
 31
0.0
  0
LINE
  5
43A4
  8
TITLE
 10
179.5930095138369
 20
37.431418190884422
 30
0.0
 11
180.37506477747999
 21
38.213473454524433
 31
0.0
  0
LINE
  5
43A5
  8
TITLE
 10
179.50572464118969
 20
37.431418190884422
 30
0.0
 11
180.2877799048328
 21
38.213473454524433
 31
0.0
  0
LINE
  5
43A6
  8
TITLE
 10
179.41843976854261
 20
37.431418190884422
 30
0.0
 11
180.2004950321861
 21
38.213473454524433
 31
0.0
  0
LINE
  5
43A7
  8
TITLE
 10
179.33115489589539
 20
37.431418190884422
 30
0.0
 11
180.11321015953851
 21
38.213473454524433
 31
0.0
  0
LINE
  5
43A8
  8
TITLE
 10
179.30763632220351
 20
37.495184489835879
 30
0.0
 11
180.02592528689181
 21
38.213473454524433
 31
0.0
  0
LINE
  5
43A9
  8
TITLE
 10
179.30763632220351
 20
37.582469362483153
 30
0.0
 11
179.93864041424459
 21
38.213473454524433
 31
0.0
  0
LINE
  5
43AA
  8
TITLE
 10
179.30763632220351
 20
37.669754235130199
 30
0.0
 11
179.851355541597
 21
38.213473454524433
 31
0.0
  0
LINE
  5
43AB
  8
TITLE
 10
179.57360172820739
 20
36.015452442911169
 30
0.0
 11
180.54640286776149
 21
36.988253582461773
 31
0.0
  0
LINE
  5
43AC
  8
TITLE
 10
179.58800011549101
 20
36.117135702838709
 30
0.0
 11
180.45911799511441
 21
36.988253582461773
 31
0.0
  0
LINE
  5
43AD
  8
TITLE
 10
179.5941752098592
 20
36.210595669849909
 30
0.0
 11
180.37183312246719
 21
36.988253582461773
 31
0.0
  0
LINE
  5
43AE
  8
TITLE
 10
179.5806985125468
 20
36.284403845184897
 30
0.0
 11
180.28454824982009
 21
36.988253582461773
 31
0.0
  0
LINE
  5
43AF
  8
TITLE
 10
180.03093546554871
 20
34.290664364088229
 30
0.0
 11
180.74731809797871
 21
35.007046996521808
 31
0.0
  0
LINE
  5
43B0
  8
TITLE
 10
179.943650592902
 20
34.290664364088229
 30
0.0
 11
180.66003322533149
 21
35.007046996521808
 31
0.0
  0
LINE
  5
43B1
  8
TITLE
 10
179.85636572025439
 20
34.290664364088229
 30
0.0
 11
180.5727483526843
 21
35.007046996521808
 31
0.0
  0
LINE
  5
43B2
  8
TITLE
 10
179.7690808476072
 20
34.290664364088229
 30
0.0
 11
180.4854634800445
 21
35.007046996521808
 31
0.0
  0
LINE
  5
43B3
  8
TITLE
 10
179.6817959749601
 20
34.290664364088229
 30
0.0
 11
180.39817860739731
 21
35.007046996521808
 31
0.0
  0
LINE
  5
43B4
  8
TITLE
 10
179.59451110231291
 20
34.290664364088229
 30
0.0
 11
180.3108937347501
 21
35.007046996521808
 31
0.0
  0
LINE
  5
43B5
  8
TITLE
 10
179.4934136398997
 20
36.284403845184897
 30
0.0
 11
180.1972633771729
 21
36.988253582461773
 31
0.0
  0
LINE
  5
43B6
  8
TITLE
 10
179.40612876725251
 20
36.284403845184897
 30
0.0
 11
180.10997850452571
 21
36.988253582461773
 31
0.0
  0
LINE
  5
43B7
  8
TITLE
 10
179.31884389460529
 20
36.284403845184897
 30
0.0
 11
180.02269363187861
 21
36.988253582461773
 31
0.0
  0
LINE
  5
43B8
  8
TITLE
 10
179.23155902195819
 20
36.284403845184897
 30
0.0
 11
179.93540875923139
 21
36.988253582461773
 31
0.0
  0
LINE
  5
43B9
  8
TITLE
 10
179.144274149311
 20
36.284403845184897
 30
0.0
 11
179.84812388658469
 21
36.988253582461773
 31
0.0
  0
LINE
  5
43BA
  8
TITLE
 10
179.0569892766639
 20
36.284403845184897
 30
0.0
 11
179.7608390139371
 21
36.988253582461773
 31
0.0
  0
LINE
  5
43BB
  8
TITLE
 10
179.5072262296726
 20
34.290664364088229
 30
0.0
 11
180.22360886210339
 21
35.007046996521808
 31
0.0
  0
LINE
  5
43BC
  8
TITLE
 10
179.41994135702589
 20
34.290664364088229
 30
0.0
 11
180.1363239894558
 21
35.007046996521808
 31
0.0
  0
LINE
  5
43BD
  8
TITLE
 10
179.3326564843787
 20
34.290664364088229
 30
0.0
 11
180.0490391168087
 21
35.007046996521808
 31
0.0
  0
LINE
  5
43BE
  8
TITLE
 10
179.24537161173151
 20
34.290664364088229
 30
0.0
 11
180.03758041283521
 21
35.082873165192382
 31
0.0
  0
LINE
  5
43BF
  8
TITLE
 10
179.15808673908481
 20
34.290664364088229
 30
0.0
 11
180.20073237026321
 21
35.333309995270497
 31
0.0
  0
LINE
  5
43C0
  8
TITLE
 10
179.07080186643719
 20
34.290664364088229
 30
0.0
 11
180.2896936921579
 21
35.509556189809132
 31
0.0
  0
LINE
  5
43C1
  8
TITLE
 10
179.50456043923481
 20
35.771841408644271
 30
0.0
 11
180.72097261304859
 21
36.988253582461773
 31
0.0
  0
LINE
  5
43C2
  8
TITLE
 10
179.54787736159591
 20
35.90244320365241
 30
0.0
 11
180.6336877404087
 21
36.988253582461773
 31
0.0
  0
LINE
  5
43C3
  8
TITLE
 10
179.30763632220351
 20
37.757039107777359
 30
0.0
 11
179.7640706689503
 21
38.213473454524433
 31
0.0
  0
LINE
  5
43C4
  8
TITLE
 10
177.0199467281613
 20
34.858355405212251
 30
0.0
 11
177.60615918254689
 21
35.444567859590848
 31
0.0
  0
LINE
  5
43C5
  8
TITLE
 10
176.97406345847361
 20
34.899757008168422
 30
0.0
 11
177.5561229683731
 21
35.481816518064193
 31
0.0
  0
LINE
  5
43C6
  8
TITLE
 10
177.21048427373989
 20
34.69975346020226
 30
0.0
 11
177.817327260268
 21
35.306596446726651
 31
0.0
  0
LINE
  5
43C7
  8
TITLE
 10
177.16179360682139
 20
34.73834766593086
 30
0.0
 11
177.76284963274611
 21
35.339403691852233
 31
0.0
  0
LINE
  5
43C8
  8
TITLE
 10
177.11380927535259
 20
34.777648207110019
 30
0.0
 11
177.70950765132829
 21
35.373346583081798
 31
0.0
  0
LINE
  5
43C9
  8
TITLE
 10
177.06652791645999
 20
34.817651720860681
 30
0.0
 11
177.65728283968971
 21
35.408406644090178
 31
0.0
  0
LINE
  5
43CA
  8
TITLE
 10
176.9288763967206
 20
34.941854819059252
 30
0.0
 11
177.5071626586969
 21
35.520141081034922
 31
0.0
  0
LINE
  5
43CB
  8
TITLE
 10
176.88438436696379
 20
34.984647661949573
 30
0.0
 11
177.45926878076119
 21
35.559532075746922
 31
0.0
  0
LINE
  5
43CC
  8
TITLE
 10
176.84058672354061
 20
35.028134891173181
 30
0.0
 11
177.4124338413398
 21
35.599982008968823
 31
0.0
  0
LINE
  5
43CD
  8
TITLE
 10
176.79748334857911
 20
35.072316388858781
 30
0.0
 11
177.3666522597118
 21
35.6414852999917
 31
0.0
  0
LINE
  5
43CE
  8
TITLE
 10
176.75507465156619
 20
35.117192564493507
 30
0.0
 11
177.32192031843991
 21
35.684038231366799
 31
0.0
  0
LINE
  5
43CF
  8
TITLE
 10
176.713361570909
 20
35.162764356482967
 30
0.0
 11
177.27823613090459
 21
35.727638916471392
 31
0.0
  0
LINE
  5
43D0
  8
TITLE
 10
176.67234557749401
 20
35.209033235707473
 30
0.0
 11
177.2355996248811
 21
35.772287283102173
 31
0.0
  0
LINE
  5
43D1
  8
TITLE
 10
177.18093562072721
 20
38.42345433098194
 30
0.0
 11
177.8581519572331
 21
39.100670667491393
 31
0.0
  0
LINE
  5
43D2
  8
TITLE
 10
177.09365074808051
 20
38.42345433098194
 30
0.0
 11
177.79796744822991
 21
39.127771031131147
 31
0.0
  0
LINE
  5
43D3
  8
TITLE
 10
177.00636587543289
 20
38.42345433098194
 30
0.0
 11
177.71068257558269
 21
39.127771031131147
 31
0.0
  0
LINE
  5
43D4
  8
TITLE
 10
176.91908100278579
 20
38.42345433098194
 30
0.0
 11
177.62339770293551
 21
39.127771031131147
 31
0.0
  0
LINE
  5
43D5
  8
TITLE
 10
176.83179613013911
 20
38.42345433098194
 30
0.0
 11
177.5361128302884
 21
39.127771031131147
 31
0.0
  0
LINE
  5
43D6
  8
TITLE
 10
176.74451125749189
 20
38.42345433098194
 30
0.0
 11
177.44882795764121
 21
39.127771031131147
 31
0.0
  0
LINE
  5
43D7
  8
TITLE
 10
175.71637448553969
 20
39.490154502546829
 30
0.0
 11
176.08150823435099
 21
39.855288251358161
 31
0.0
  0
LINE
  5
43D8
  8
TITLE
 10
175.71637448553969
 20
39.577439375193762
 30
0.0
 11
175.99422336170389
 21
39.855288251358161
 31
0.0
  0
LINE
  5
43D9
  8
TITLE
 10
175.71637448553969
 20
39.315584757252388
 30
0.0
 11
176.2560779796454
 21
39.855288251358161
 31
0.0
  0
LINE
  5
43DA
  8
TITLE
 10
175.71637448553969
 20
39.402869629899669
 30
0.0
 11
176.1687931069977
 21
39.855288251358161
 31
0.0
  0
LINE
  5
43DB
  8
TITLE
 10
175.71637448553969
 20
39.752009120484779
 30
0.0
 11
175.81965361641679
 21
39.855288251358161
 31
0.0
  0
LINE
  5
43DC
  8
TITLE
 10
175.71637448553969
 20
39.839293993131953
 30
0.0
 11
175.7323687437692
 21
39.855288251358161
 31
0.0
  0
LINE
  5
43DD
  8
TITLE
 10
175.71637448553969
 20
39.664724247837739
 30
0.0
 11
175.9069384890563
 21
39.855288251358161
 31
0.0
  0
LINE
  5
43DE
  8
TITLE
 10
177.8230567849055
 20
39.414714985748788
 30
0.0
 11
177.8581519572331
 21
39.449810158075941
 31
0.0
  0
LINE
  5
43DF
  8
TITLE
 10
177.73577191225871
 20
39.414714985748788
 30
0.0
 11
177.8581519572331
 21
39.537095030723208
 31
0.0
  0
LINE
  5
43E0
  8
TITLE
 10
177.64848703961161
 20
39.414714985748788
 30
0.0
 11
177.8581519572331
 21
39.624379903370823
 31
0.0
  0
LINE
  5
43E1
  8
TITLE
 10
177.56120216696399
 20
39.414714985748788
 30
0.0
 11
177.8581519572331
 21
39.711664776017528
 31
0.0
  0
LINE
  5
43E2
  8
TITLE
 10
177.47391729431681
 20
39.414714985748788
 30
0.0
 11
177.8581519572331
 21
39.798949648664689
 31
0.0
  0
LINE
  5
43E3
  8
TITLE
 10
177.38663242166959
 20
39.414714985748788
 30
0.0
 11
177.8272056872797
 21
39.855288251358161
 31
0.0
  0
LINE
  5
43E4
  8
TITLE
 10
177.29934754902291
 20
39.414714985748788
 30
0.0
 11
177.73992081463979
 21
39.855288251358161
 31
0.0
  0
LINE
  5
43E5
  8
TITLE
 10
176.97009795764549
 20
39.696459502891123
 30
0.0
 11
177.1289267061097
 21
39.855288251358161
 31
0.0
  0
LINE
  5
43E6
  8
TITLE
 10
176.97009795764549
 20
39.783744375538276
 30
0.0
 11
177.04164183346211
 21
39.855288251358161
 31
0.0
  0
LINE
  5
43E7
  8
TITLE
 10
177.21206267637581
 20
39.414714985748788
 30
0.0
 11
177.6526359419922
 21
39.855288251358161
 31
0.0
  0
LINE
  5
43E8
  8
TITLE
 10
177.12477780372859
 20
39.414714985748788
 30
0.0
 11
177.5653510693451
 21
39.855288251358161
 31
0.0
  0
LINE
  5
43E9
  8
TITLE
 10
177.037492931081
 20
39.414714985748788
 30
0.0
 11
177.47806619669831
 21
39.855288251358161
 31
0.0
  0
LINE
  5
43EA
  8
TITLE
 10
176.97009795764549
 20
39.43460488495316
 30
0.0
 11
177.39078132405069
 21
39.855288251358161
 31
0.0
  0
LINE
  5
43EB
  8
TITLE
 10
176.97009795764549
 20
39.52188975760032
 30
0.0
 11
177.30349645140359
 21
39.855288251358161
 31
0.0
  0
LINE
  5
43EC
  8
TITLE
 10
176.97009795764549
 20
39.609174630247821
 30
0.0
 11
177.21621157875691
 21
39.855288251358161
 31
0.0
  0
LINE
  5
43ED
  8
TITLE
 10
187.71200425844111
 20
34.290664364088229
 30
0.0
 11
189.12927505564039
 21
35.70793516129504
 31
0.0
  0
LINE
  5
43EE
  8
TITLE
 10
187.6247193857939
 20
34.290664364088229
 30
0.0
 11
189.12927505564039
 21
35.79522003394186
 31
0.0
  0
LINE
  5
43EF
  8
TITLE
 10
187.53743451314671
 20
34.290664364088229
 30
0.0
 11
189.12927505564039
 21
35.882504906589247
 31
0.0
  0
LINE
  5
43F0
  8
TITLE
 10
187.4501496404996
 20
34.290664364088229
 30
0.0
 11
189.12927505564039
 21
35.96978977923618
 31
0.0
  0
LINE
  5
43F1
  8
TITLE
 10
187.65463405688701
 20
37.724689068395378
 30
0.0
 11
189.12927505564039
 21
39.199330067152232
 31
0.0
  0
LINE
  5
43F2
  8
TITLE
 10
187.5673491842403
 20
37.724689068395378
 30
0.0
 11
189.12927505564039
 21
39.286614939799513
 31
0.0
  0
LINE
  5
43F3
  8
TITLE
 10
187.4800643115932
 20
37.724689068395378
 30
0.0
 11
189.12927505564039
 21
39.373899812446332
 31
0.0
  0
LINE
  5
43F4
  8
TITLE
 10
188.25084515361871
 20
37.360766566015513
 30
0.0
 11
189.46700735376541
 21
38.576928766166247
 31
0.0
  0
LINE
  5
43F5
  8
TITLE
 10
188.25084515361871
 20
37.448051438662901
 30
0.0
 11
189.37972248111819
 21
38.576928766166247
 31
0.0
  0
LINE
  5
43F6
  8
TITLE
 10
188.25084515361871
 20
37.535336311309827
 30
0.0
 11
189.2924376084716
 21
38.576928766166247
 31
0.0
  0
LINE
  5
43F7
  8
TITLE
 10
188.25084515361871
 20
37.622621183953811
 30
0.0
 11
189.2051527358239
 21
38.576928766166247
 31
0.0
  0
LINE
  5
43F8
  8
TITLE
 10
188.25084515361871
 20
37.709906056600737
 30
0.0
 11
189.12927505564039
 21
38.588335958629273
 31
0.0
  0
LINE
  5
43F9
  8
TITLE
 10
188.25084515361871
 20
36.051493476319031
 30
0.0
 11
189.12927505564039
 21
36.92992337834778
 31
0.0
  0
LINE
  5
43FA
  8
TITLE
 10
188.25084515361871
 20
36.138778348966298
 30
0.0
 11
189.12927505564039
 21
37.017208250991303
 31
0.0
  0
LINE
  5
43FB
  8
TITLE
 10
188.25084515361871
 20
36.226063221613231
 30
0.0
 11
189.12927505564039
 21
37.104493123638463
 31
0.0
  0
LINE
  5
43FC
  8
TITLE
 10
188.25084515361871
 20
36.313348094260498
 30
0.0
 11
189.12927505564039
 21
37.191777996282219
 31
0.0
  0
LINE
  5
43FD
  8
TITLE
 10
188.25084515361871
 20
36.400632966907892
 30
0.0
 11
189.12927505564039
 21
37.279062868929032
 31
0.0
  0
LINE
  5
43FE
  8
TITLE
 10
188.25084515361871
 20
36.487917839551187
 30
0.0
 11
189.12927505564039
 21
37.366347741576313
 31
0.0
  0
LINE
  5
43FF
  8
TITLE
 10
188.25084515361871
 20
36.57520271219812
 30
0.0
 11
189.12927505564039
 21
37.453632614223238
 31
0.0
  0
LINE
  5
4400
  8
TITLE
 10
188.25084515361871
 20
36.662487584842097
 30
0.0
 11
189.12927505564039
 21
37.540917486870853
 31
0.0
  0
LINE
  5
4401
  8
TITLE
 10
188.25084515361871
 20
36.749772457489257
 30
0.0
 11
189.12927505564039
 21
37.6282023595179
 31
0.0
  0
LINE
  5
4402
  8
TITLE
 10
188.25084515361871
 20
36.83705733013619
 30
0.0
 11
189.12927505564039
 21
37.715487232164953
 31
0.0
  0
LINE
  5
4403
  8
TITLE
 10
188.58485298490541
 20
34.290664364088229
 30
0.0
 11
189.43709268267179
 21
35.14290406185853
 31
0.0
  0
LINE
  5
4404
  8
TITLE
 10
188.49756811225819
 20
34.290664364088229
 30
0.0
 11
189.34980781002511
 21
35.14290406185853
 31
0.0
  0
LINE
  5
4405
  8
TITLE
 10
188.41028323961109
 20
34.290664364088229
 30
0.0
 11
189.26252293737801
 21
35.14290406185853
 31
0.0
  0
LINE
  5
4406
  8
TITLE
 10
188.3229983669639
 20
34.290664364088229
 30
0.0
 11
189.17523806473079
 21
35.14290406185853
 31
0.0
  0
LINE
  5
4407
  8
TITLE
 10
188.2357134943168
 20
34.290664364088229
 30
0.0
 11
189.12927505564039
 21
35.184225925415717
 31
0.0
  0
LINE
  5
4408
  8
TITLE
 10
188.1484286216691
 20
34.290664364088229
 30
0.0
 11
189.12927505564039
 21
35.271510798062771
 31
0.0
  0
LINE
  5
4409
  8
TITLE
 10
188.06114374902239
 20
34.290664364088229
 30
0.0
 11
189.12927505564039
 21
35.358795670706179
 31
0.0
  0
LINE
  5
440A
  8
TITLE
 10
187.97385887637529
 20
34.290664364088229
 30
0.0
 11
189.12927505564039
 21
35.446080543353112
 31
0.0
  0
LINE
  5
440B
  8
TITLE
 10
187.8865740037281
 20
34.290664364088229
 30
0.0
 11
189.12927505564039
 21
35.533365416000493
 31
0.0
  0
LINE
  5
440C
  8
TITLE
 10
187.79928913108091
 20
34.290664364088229
 30
0.0
 11
189.12927505564039
 21
35.620650288647767
 31
0.0
  0
LINE
  5
440D
  8
TITLE
 10
188.25084515361871
 20
35.789638858377657
 30
0.0
 11
189.12927505564039
 21
36.668068760406527
 31
0.0
  0
LINE
  5
440E
  8
TITLE
 10
188.25084515361871
 20
35.876923731024696
 30
0.0
 11
189.12927505564039
 21
36.75535363305346
 31
0.0
  0
LINE
  5
440F
  8
TITLE
 10
188.25084515361871
 20
35.96420860367175
 30
0.0
 11
189.12927505564039
 21
36.84263850570062
 31
0.0
  0
LINE
  5
4410
  8
TITLE
 10
188.25084515361871
 20
35.178644749854698
 30
0.0
 11
189.12927505564039
 21
36.057074651879823
 31
0.0
  0
LINE
  5
4411
  8
TITLE
 10
188.25084515361871
 20
35.265929622501858
 30
0.0
 11
189.12927505564039
 21
36.144359524527317
 31
0.0
  0
LINE
  5
4412
  8
TITLE
 10
188.25084515361871
 20
35.353214495149359
 30
0.0
 11
189.12927505564039
 21
36.231644397174144
 31
0.0
  0
LINE
  5
4413
  8
TITLE
 10
188.25084515361871
 20
35.440499367796178
 30
0.0
 11
189.12927505564039
 21
36.318929269817659
 31
0.0
  0
LINE
  5
4414
  8
TITLE
 10
188.25084515361871
 20
35.527784240439928
 30
0.0
 11
189.12927505564039
 21
36.406214142464819
 31
0.0
  0
LINE
  5
4415
  8
TITLE
 10
188.25084515361871
 20
35.615069113086861
 30
0.0
 11
189.12927505564039
 21
36.493499015111752
 31
0.0
  0
LINE
  5
4416
  8
TITLE
 10
188.25084515361871
 20
35.702353985734142
 30
0.0
 11
189.12927505564039
 21
36.580783887759033
 31
0.0
  0
LINE
  5
4417
  8
TITLE
 10
188.25084515361871
 20
39.10646401894769
 30
0.0
 11
188.99966938602941
 21
39.855288251358161
 31
0.0
  0
LINE
  5
4418
  8
TITLE
 10
187.91648867482121
 20
37.724689068395378
 30
0.0
 11
189.12927505564039
 21
38.937475449214162
 31
0.0
  0
LINE
  5
4419
  8
TITLE
 10
188.09105842011601
 20
37.724689068395378
 30
0.0
 11
189.12927505564039
 21
38.762905703919962
 31
0.0
  0
LINE
  5
441A
  8
TITLE
 10
188.00377354746891
 20
37.724689068395378
 30
0.0
 11
189.12927505564039
 21
38.850190576567343
 31
0.0
  0
LINE
  5
441B
  8
TITLE
 10
188.1783432927632
 20
37.724689068395378
 30
0.0
 11
189.12927505564039
 21
38.675620831276319
 31
0.0
  0
LINE
  5
441C
  8
TITLE
 10
188.25084515361871
 20
38.582754783065191
 30
0.0
 11
189.12927505564039
 21
39.461184685093599
 31
0.0
  0
LINE
  5
441D
  8
TITLE
 10
188.25084515361871
 20
38.67003965571223
 30
0.0
 11
189.12927505564039
 21
39.548469557740759
 31
0.0
  0
LINE
  5
441E
  8
TITLE
 10
187.82920380218141
 20
37.724689068395378
 30
0.0
 11
189.12927505564039
 21
39.024760321858373
 31
0.0
  0
LINE
  5
441F
  8
TITLE
 10
187.74191892953471
 20
37.724689068395378
 30
0.0
 11
189.12927505564039
 21
39.112045194505193
 31
0.0
  0
LINE
  5
4420
  8
TITLE
 10
188.25084515361871
 20
38.757324528359511
 30
0.0
 11
189.12927505564039
 21
39.635754430387813
 31
0.0
  0
LINE
  5
4421
  8
TITLE
 10
188.25084515361871
 20
38.844609401006778
 30
0.0
 11
189.12927505564039
 21
39.723039303031669
 31
0.0
  0
LINE
  5
4422
  8
TITLE
 10
188.25084515361871
 20
38.931894273653832
 30
0.0
 11
189.12927505564039
 21
39.810324175678829
 31
0.0
  0
LINE
  5
4423
  8
TITLE
 10
188.25084515361871
 20
39.019179146300758
 30
0.0
 11
189.08695425867651
 21
39.855288251358161
 31
0.0
  0
LINE
  5
4424
  8
TITLE
 10
188.25084515361871
 20
36.92434220278335
 30
0.0
 11
189.90343171699439
 21
38.576928766166247
 31
0.0
  0
LINE
  5
4425
  8
TITLE
 10
188.25084515361871
 20
37.011627075430738
 30
0.0
 11
189.81614684435411
 21
38.576928766166247
 31
0.0
  0
LINE
  5
4426
  8
TITLE
 10
188.25084515361871
 20
37.098911948077671
 30
0.0
 11
189.72886197170689
 21
38.576928766166247
 31
0.0
  0
LINE
  5
4427
  8
TITLE
 10
188.25084515361871
 20
37.186196820724831
 30
0.0
 11
189.6415770990597
 21
38.576928766166247
 31
0.0
  0
LINE
  5
4428
  8
TITLE
 10
188.25084515361871
 20
37.273481693371757
 30
0.0
 11
189.554292226413
 21
38.576928766166247
 31
0.0
  0
LINE
  5
4429
  8
TITLE
 10
188.9339924754868
 20
34.290664364088229
 30
0.0
 11
189.78623217325369
 21
35.14290406185853
 31
0.0
  0
LINE
  5
442A
  8
TITLE
 10
188.84670760284001
 20
34.290664364088229
 30
0.0
 11
189.69894730061381
 21
35.14290406185853
 31
0.0
  0
LINE
  5
442B
  8
TITLE
 10
188.7594227301924
 20
34.290664364088229
 30
0.0
 11
189.61166242796659
 21
35.14290406185853
 31
0.0
  0
LINE
  5
442C
  8
TITLE
 10
188.67213785755251
 20
34.290664364088229
 30
0.0
 11
189.52437755531901
 21
35.14290406185853
 31
0.0
  0
LINE
  5
442D
  8
TITLE
 10
185.57991604706561
 20
39.228650837078249
 30
0.0
 11
186.20655346134211
 21
39.855288251358161
 31
0.0
  0
LINE
  5
442E
  8
TITLE
 10
185.57991604706561
 20
39.054081091787218
 30
0.0
 11
186.38112320663589
 21
39.855288251358161
 31
0.0
  0
LINE
  5
442F
  8
TITLE
 10
185.57991604706561
 20
39.141365964434733
 30
0.0
 11
186.2938383339887
 21
39.855288251358161
 31
0.0
  0
LINE
  5
4430
  8
TITLE
 10
181.38325230324969
 20
39.047091235002661
 30
0.0
 11
181.95776435715419
 21
39.621603288911047
 31
0.0
  0
LINE
  5
4431
  8
TITLE
 10
181.33672544146879
 20
39.087849245869513
 30
0.0
 11
181.9113635182766
 21
39.662487322676952
 31
0.0
  0
LINE
  5
4432
  8
TITLE
 10
181.77386098891881
 20
38.739420939498132
 30
0.0
 11
182.35361955848381
 21
39.319179509063481
 31
0.0
  0
LINE
  5
4433
  8
TITLE
 10
181.72322777587399
 20
38.776072599101099
 30
0.0
 11
182.3017034893978
 21
39.354548312624281
 31
0.0
  0
LINE
  5
4434
  8
TITLE
 10
181.67311570255791
 20
38.813245398431953
 30
0.0
 11
182.2504929079814
 21
39.390622603855832
 31
0.0
  0
LINE
  5
4435
  8
TITLE
 10
181.6235220747576
 20
38.850936643278942
 30
0.0
 11
182.19998210041101
 21
39.427396668932147
 31
0.0
  0
LINE
  5
4436
  8
TITLE
 10
181.57444443055689
 20
38.889143871721778
 30
0.0
 11
182.150165934483
 21
39.464865375644422
 31
0.0
  0
LINE
  5
4437
  8
TITLE
 10
181.52588053508089
 20
38.927864848896213
 30
0.0
 11
182.10103983979289
 21
39.503024153601018
 31
0.0
  0
LINE
  5
4438
  8
TITLE
 10
181.47782837584049
 20
38.96709756229609
 30
0.0
 11
182.05259979037189
 21
39.541868976827118
 31
0.0
  0
LINE
  5
4439
  8
TITLE
 10
181.4302861585042
 20
39.006840217613778
 30
0.0
 11
182.00484228958109
 21
39.581396348687122
 31
0.0
  0
LINE
  5
443A
  8
TITLE
 10
185.3672917218027
 20
38.317747530649171
 30
0.0
 11
186.41517726554409
 21
39.365633074383027
 31
0.0
  0
LINE
  5
443B
  8
TITLE
 10
185.2800068491556
 20
38.317747530649171
 30
0.0
 11
186.41517726554409
 21
39.452917947030301
 31
0.0
  0
LINE
  5
443C
  8
TITLE
 10
185.19272197650841
 20
38.317747530649171
 30
0.0
 11
186.41517726554409
 21
39.540202819677241
 31
0.0
  0
LINE
  5
443D
  8
TITLE
 10
185.10543710386119
 20
38.317747530649171
 30
0.0
 11
186.41517726554409
 21
39.627487692324742
 31
0.0
  0
LINE
  5
443E
  8
TITLE
 10
185.01815223122139
 20
38.317747530649171
 30
0.0
 11
186.41517726554409
 21
39.71477256497144
 31
0.0
  0
LINE
  5
443F
  8
TITLE
 10
184.93086735857381
 20
38.317747530649171
 30
0.0
 11
186.41517726554409
 21
39.802057437618707
 31
0.0
  0
LINE
  5
4440
  8
TITLE
 10
181.2451882639175
 20
39.170881813608503
 30
0.0
 11
181.82058569697659
 21
39.746279246667882
 31
0.0
  0
LINE
  5
4441
  8
TITLE
 10
181.2001762442878
 20
39.213154666626679
 30
0.0
 11
181.7762062203978
 21
39.789184642736252
 31
0.0
  0
LINE
  5
4442
  8
TITLE
 10
181.29070441303111
 20
39.129113090078818
 30
0.0
 11
181.86563779457529
 21
39.704046471619449
 31
0.0
  0
LINE
  5
4443
  8
TITLE
 10
188.25084515361871
 20
39.193748891591667
 30
0.0
 11
188.91238451338171
 21
39.855288251358161
 31
0.0
  0
LINE
  5
4444
  8
TITLE
 10
188.25084515361871
 20
39.281033764238828
 30
0.0
 11
188.82509964073461
 21
39.855288251358161
 31
0.0
  0
LINE
  5
4445
  8
TITLE
 10
184.53583911532451
 20
36.002452089179769
 30
0.0
 11
185.14253615227241
 21
36.60914912612418
 31
0.0
  0
LINE
  5
4446
  8
TITLE
 10
184.53583911532451
 20
36.089736961823519
 30
0.0
 11
184.97922932032989
 21
36.533127166828763
 31
0.0
  0
LINE
  5
4447
  8
TITLE
 10
184.53583911532451
 20
35.91516721653273
 30
0.0
 11
185.36061468119991
 21
36.73994278240491
 31
0.0
  0
LINE
  5
4448
  8
TITLE
 10
184.53583911532451
 20
38.533713395926043
 30
0.0
 11
184.9801083597572
 21
38.977982640358618
 31
0.0
  0
LINE
  5
4449
  8
TITLE
 10
184.53583911532451
 20
38.62099826857321
 30
0.0
 11
184.89282348711001
 21
38.977982640358618
 31
0.0
  0
LINE
  5
444A
  8
TITLE
 10
184.58172786798559
 20
38.317747530649171
 30
0.0
 11
185.24196297769871
 21
38.977982640358618
 31
0.0
  0
LINE
  5
444B
  8
TITLE
 10
184.53583911532451
 20
38.359143650635133
 30
0.0
 11
185.154678105051
 21
38.977982640358618
 31
0.0
  0
LINE
  5
444C
  8
TITLE
 10
184.53583911532451
 20
38.446428523282179
 30
0.0
 11
185.0673932324043
 21
38.977982640358618
 31
0.0
  0
LINE
  5
444D
  8
TITLE
 10
184.6690127406327
 20
38.317747530649171
 30
0.0
 11
185.32924785034581
 21
38.977982640358618
 31
0.0
  0
LINE
  5
444E
  8
TITLE
 10
184.59945646041251
 20
35.716929943683112
 30
0.0
 11
187.2096357815258
 21
38.32710926478979
 31
0.0
  0
LINE
  5
444F
  8
TITLE
 10
184.53583911532451
 20
35.740597471242147
 30
0.0
 11
187.22506325416359
 21
38.429821610074441
 31
0.0
  0
LINE
  5
4450
  8
TITLE
 10
184.8185934087432
 20
35.761497146719648
 30
0.0
 11
187.16506857848981
 21
38.107972316465982
 31
0.0
  0
LINE
  5
4451
  8
TITLE
 10
184.70650526894039
 20
35.736693879563859
 30
0.0
 11
187.18987184564591
 21
38.220060456265742
 31
0.0
  0
LINE
  5
4452
  8
TITLE
 10
184.53583911532451
 20
35.827882343885562
 30
0.0
 11
187.2366957539011
 21
38.528738982458549
 31
0.0
  0
LINE
  5
4453
  8
TITLE
 10
184.84358248592659
 20
38.317747530649171
 30
0.0
 11
185.5038175956324
 21
38.977982640358618
 31
0.0
  0
LINE
  5
4454
  8
TITLE
 10
184.75629761327991
 20
38.317747530649171
 30
0.0
 11
185.41653272299251
 21
38.977982640358618
 31
0.0
  0
LINE
  5
4455
  8
TITLE
 10
182.3861254385242
 20
37.431418190884422
 30
0.0
 11
183.6955558648142
 21
38.740848617178358
 31
0.0
  0
LINE
  5
4456
  8
TITLE
 10
182.2988405658771
 20
37.431418190884422
 30
0.0
 11
183.62499169826009
 21
38.757569323267262
 31
0.0
  0
LINE
  5
4457
  8
TITLE
 10
182.21155569322991
 20
37.431418190884422
 30
0.0
 11
183.55549984517981
 21
38.775362342830483
 31
0.0
  0
LINE
  5
4458
  8
TITLE
 10
182.12427082058269
 20
37.431418190884422
 30
0.0
 11
183.48704672587149
 21
38.794194096169917
 31
0.0
  0
LINE
  5
4459
  8
TITLE
 10
182.03698594794281
 20
37.431418190884422
 30
0.0
 11
183.41960141655591
 21
38.814033659504851
 31
0.0
  0
LINE
  5
445A
  8
TITLE
 10
181.94970107529571
 20
37.431418190884422
 30
0.0
 11
183.35313539321939
 21
38.834852508812219
 31
0.0
  0
LINE
  5
445B
  8
TITLE
 10
182.73526492911279
 20
37.431418190884422
 30
0.0
 11
183.09241455760539
 21
37.788567819380091
 31
0.0
  0
LINE
  5
445C
  8
TITLE
 10
182.64798005646571
 20
37.431418190884422
 30
0.0
 11
183.09241455760539
 21
37.875852692023948
 31
0.0
  0
LINE
  5
445D
  8
TITLE
 10
182.56069518381901
 20
37.431418190884422
 30
0.0
 11
183.09241455760539
 21
37.963137564670767
 31
0.0
  0
LINE
  5
445E
  8
TITLE
 10
182.47341031117139
 20
37.431418190884422
 30
0.0
 11
183.09241455760539
 21
38.050422437314182
 31
0.0
  0
LINE
  5
445F
  8
TITLE
 10
181.86241620264849
 20
37.431418190884422
 30
0.0
 11
182.64447146628481
 21
38.213473454524433
 31
0.0
  0
LINE
  5
4460
  8
TITLE
 10
181.77513133000139
 20
37.431418190884422
 30
0.0
 11
182.5571865936376
 21
38.213473454524433
 31
0.0
  0
LINE
  5
4461
  8
TITLE
 10
181.6878464573542
 20
37.431418190884422
 30
0.0
 11
182.46990172099049
 21
38.213473454524433
 31
0.0
  0
LINE
  5
4462
  8
TITLE
 10
181.60056158470701
 20
37.431418190884422
 30
0.0
 11
182.3826168483433
 21
38.213473454524433
 31
0.0
  0
LINE
  5
4463
  8
TITLE
 10
181.51327671205991
 20
37.431418190884422
 30
0.0
 11
182.2953319756962
 21
38.213473454524433
 31
0.0
  0
LINE
  5
4464
  8
TITLE
 10
181.4259918394132
 20
37.431418190884422
 30
0.0
 11
182.2080471030558
 21
38.213473454524433
 31
0.0
  0
LINE
  5
4465
  8
TITLE
 10
181.33870696676561
 20
37.431418190884422
 30
0.0
 11
182.1207622304095
 21
38.213473454524433
 31
0.0
  0
LINE
  5
4466
  8
TITLE
 10
182.81023880046311
 20
36.284403845184897
 30
0.0
 11
183.51408853773631
 21
36.988253582461773
 31
0.0
  0
LINE
  5
4467
  8
TITLE
 10
182.72295392781601
 20
36.284403845184897
 30
0.0
 11
183.42680366508921
 21
36.988253582461773
 31
0.0
  0
LINE
  5
4468
  8
TITLE
 10
182.63566905516879
 20
36.284403845184897
 30
0.0
 11
183.33951879244881
 21
36.988253582461773
 31
0.0
  0
LINE
  5
4469
  8
TITLE
 10
182.5483841825216
 20
36.284403845184897
 30
0.0
 11
183.25223391980171
 21
36.988253582461773
 31
0.0
  0
LINE
  5
446A
  8
TITLE
 10
183.07209341840411
 20
36.284403845184897
 30
0.0
 11
183.7759431556774
 21
36.988253582461773
 31
0.0
  0
LINE
  5
446B
  8
TITLE
 10
182.98480854575701
 20
36.284403845184897
 30
0.0
 11
183.68865828303069
 21
36.988253582461773
 31
0.0
  0
LINE
  5
446C
  8
TITLE
 10
182.89752367310979
 20
36.284403845184897
 30
0.0
 11
183.6013734103831
 21
36.988253582461773
 31
0.0
  0
LINE
  5
446D
  8
TITLE
 10
182.46109930988129
 20
36.284403845184897
 30
0.0
 11
183.16494904715449
 21
36.988253582461773
 31
0.0
  0
LINE
  5
446E
  8
TITLE
 10
183.0899992340855
 20
34.294757590003087
 30
0.0
 11
183.6481259159668
 21
34.852884271877429
 31
0.0
  0
LINE
  5
446F
  8
TITLE
 10
183.05760780681109
 20
34.34965103537229
 30
0.0
 11
183.6157344886856
 21
34.90777771725039
 31
0.0
  0
LINE
  5
4470
  8
TITLE
 10
182.8308678158696
 20
34.733905152957853
 30
0.0
 11
183.38899449775181
 21
35.292031834835491
 31
0.0
  0
LINE
  5
4471
  8
TITLE
 10
182.79847638859559
 20
34.788798598330231
 30
0.0
 11
183.3566030704701
 21
35.3469252802048
 31
0.0
  0
LINE
  5
4472
  8
TITLE
 10
182.76608496132121
 20
34.843692043696251
 30
0.0
 11
183.32421164319561
 21
35.401818725574572
 31
0.0
  0
LINE
  5
4473
  8
TITLE
 10
183.02521637953669
 20
34.404544480741833
 30
0.0
 11
183.5833430614116
 21
34.962671162616523
 31
0.0
  0
LINE
  5
4474
  8
TITLE
 10
182.9928249522554
 20
34.459437926110922
 30
0.0
 11
183.55095163413711
 21
35.01756460798925
 31
0.0
  0
LINE
  5
4475
  8
TITLE
 10
182.960433524981
 20
34.514331371480239
 30
0.0
 11
183.51856020685591
 21
35.072458053354808
 31
0.0
  0
LINE
  5
4476
  8
TITLE
 10
182.92804209769969
 20
34.56922481684979
 30
0.0
 11
183.4861687795815
 21
35.127351498727769
 31
0.0
  0
LINE
  5
4477
  8
TITLE
 10
182.89565067042531
 20
34.624118262218651
 30
0.0
 11
183.45377735230019
 21
35.182244944093327
 31
0.0
  0
LINE
  5
4478
  8
TITLE
 10
182.86325924315079
 20
34.679011707588302
 30
0.0
 11
183.42138592502579
 21
35.237138389466402
 31
0.0
  0
LINE
  5
4479
  8
TITLE
 10
182.35633628156251
 20
34.521228236591917
 30
0.0
 11
183.29182021591441
 21
35.456712170943213
 31
0.0
  0
LINE
  5
447A
  8
TITLE
 10
182.16881928277459
 20
34.420996110446708
 30
0.0
 11
183.25942878864001
 21
35.51160561631275
 31
0.0
  0
LINE
  5
447B
  8
TITLE
 10
182.0237603146042
 20
34.363222014924297
 30
0.0
 11
183.227037361366
 21
35.56649906168218
 31
0.0
  0
LINE
  5
447C
  8
TITLE
 10
181.8989347320844
 20
34.325681305047851
 30
0.0
 11
183.19464593408429
 21
35.621392507051269
 31
0.0
  0
LINE
  5
447D
  8
TITLE
 10
181.7868426202308
 20
34.30087406584164
 30
0.0
 11
183.1622545068098
 21
35.676285952420812
 31
0.0
  0
LINE
  5
447E
  8
TITLE
 10
183.08440441969421
 20
37.431418190884422
 30
0.0
 11
183.09241455760539
 21
37.439428328791678
 31
0.0
  0
LINE
  5
447F
  8
TITLE
 10
182.9971195470475
 20
37.431418190884422
 30
0.0
 11
183.09241455760539
 21
37.526713201438731
 31
0.0
  0
LINE
  5
4480
  8
TITLE
 10
182.82254980175949
 20
37.431418190884422
 30
0.0
 11
183.09241455760539
 21
37.701282946733158
 31
0.0
  0
LINE
  5
4481
  8
TITLE
 10
182.90983467440719
 20
37.431418190884422
 30
0.0
 11
183.09241455760539
 21
37.613998074085892
 31
0.0
  0
LINE
  5
4482
  8
TITLE
 10
181.76282032870401
 20
36.284403845184897
 30
0.0
 11
182.46667006598449
 21
36.988253582461773
 31
0.0
  0
LINE
  5
4483
  8
TITLE
 10
181.67553545605691
 20
36.284403845184897
 30
0.0
 11
182.37938519333781
 21
36.988253582461773
 31
0.0
  0
LINE
  5
4484
  8
TITLE
 10
181.58825058340969
 20
36.284403845184897
 30
0.0
 11
182.29210032069059
 21
36.988253582461773
 31
0.0
  0
LINE
  5
4485
  8
TITLE
 10
181.5009657107698
 20
36.284403845184897
 30
0.0
 11
182.20481544804301
 21
36.988253582461773
 31
0.0
  0
LINE
  5
4486
  8
TITLE
 10
181.4136808381227
 20
36.284403845184897
 30
0.0
 11
182.1175305753959
 21
36.988253582461773
 31
0.0
  0
LINE
  5
4487
  8
TITLE
 10
181.32639596547551
 20
36.284403845184897
 30
0.0
 11
182.03024570274869
 21
36.988253582461773
 31
0.0
  0
LINE
  5
4488
  8
TITLE
 10
182.19924469193981
 20
36.284403845184897
 30
0.0
 11
182.90309442921301
 21
36.988253582461773
 31
0.0
  0
LINE
  5
4489
  8
TITLE
 10
182.3738144372341
 20
36.284403845184897
 30
0.0
 11
183.07766417450739
 21
36.988253582461773
 31
0.0
  0
LINE
  5
448A
  8
TITLE
 10
182.286529564587
 20
36.284403845184897
 30
0.0
 11
182.9903793018602
 21
36.988253582461773
 31
0.0
  0
LINE
  5
448B
  8
TITLE
 10
182.11195981929271
 20
36.284403845184897
 30
0.0
 11
182.81580955656591
 21
36.988253582461773
 31
0.0
  0
LINE
  5
448C
  8
TITLE
 10
182.02467494664589
 20
36.284403845184897
 30
0.0
 11
182.72852468391869
 21
36.988253582461773
 31
0.0
  0
LINE
  5
448D
  8
TITLE
 10
181.9373900739983
 20
36.284403845184897
 30
0.0
 11
182.64123981127199
 21
36.988253582461773
 31
0.0
  0
LINE
  5
448E
  8
TITLE
 10
181.8501052013516
 20
36.284403845184897
 30
0.0
 11
182.55395493862491
 21
36.988253582461773
 31
0.0
  0
LINE
  5
448F
  8
TITLE
 10
182.2154306976081
 20
35.776880614977472
 30
0.0
 11
182.4101319452802
 21
35.971581862649487
 31
0.0
  0
LINE
  5
4490
  8
TITLE
 10
182.18303927033409
 20
35.831774060346902
 30
0.0
 11
182.32284707263301
 21
35.971581862649487
 31
0.0
  0
LINE
  5
4491
  8
TITLE
 10
182.15064784305281
 20
35.886667505716332
 30
0.0
 11
182.2355621999854
 21
35.971581862649487
 31
0.0
  0
LINE
  5
4492
  8
TITLE
 10
182.1182564157784
 20
35.941560951085307
 30
0.0
 11
182.14827732733829
 21
35.971581862649487
 31
0.0
  0
LINE
  5
4493
  8
TITLE
 10
182.22476657368861
 20
35.437077000469351
 30
0.0
 11
182.75927143586881
 21
35.971581862649487
 31
0.0
  0
LINE
  5
4494
  8
TITLE
 10
182.27556520902129
 20
35.575160508452768
 30
0.0
 11
182.6719865632212
 21
35.971581862649487
 31
0.0
  0
LINE
  5
4495
  8
TITLE
 10
182.28021355216379
 20
35.66709372423918
 30
0.0
 11
182.58470169057409
 21
35.971581862649487
 31
0.0
  0
LINE
  5
4496
  8
TITLE
 10
182.2478221248825
 20
35.721987169608383
 30
0.0
 11
182.49741681792739
 21
35.971581862649487
 31
0.0
  0
LINE
  5
4497
  8
TITLE
 10
181.6893480458302
 20
34.290664364088229
 30
0.0
 11
183.12986307953591
 21
35.731179397790129
 31
0.0
  0
LINE
  5
4498
  8
TITLE
 10
181.6020631731831
 20
34.290664364088229
 30
0.0
 11
183.0974716522542
 21
35.786072843159218
 31
0.0
  0
LINE
  5
4499
  8
TITLE
 10
181.51477830053591
 20
34.290664364088229
 30
0.0
 11
183.06508022498019
 21
35.840966288532059
 31
0.0
  0
LINE
  5
449A
  8
TITLE
 10
181.42749342788869
 20
34.290664364088229
 30
0.0
 11
183.032688797698
 21
35.895859733897737
 31
0.0
  0
LINE
  5
449B
  8
TITLE
 10
181.34020855524881
 20
34.290664364088229
 30
0.0
 11
183.00029737042399
 21
35.950753179270919
 31
0.0
  0
LINE
  5
449C
  8
TITLE
 10
183.94494214486889
 20
36.284403845184897
 30
0.0
 11
183.97987964601629
 21
36.319341346340138
 31
0.0
  0
LINE
  5
449D
  8
TITLE
 10
184.53583911532451
 20
36.264306707117839
 30
0.0
 11
184.7157710607689
 21
36.444238652562383
 31
0.0
  0
LINE
  5
449E
  8
TITLE
 10
184.53583911532451
 20
36.351591579765
 30
0.0
 11
184.60175585154821
 21
36.417508315989153
 31
0.0
  0
LINE
  5
449F
  8
TITLE
 10
184.53583911532451
 20
36.177021834470793
 30
0.0
 11
184.84011984590691
 21
36.481302565057042
 31
0.0
  0
LINE
  5
44A0
  8
TITLE
 10
183.8576572722213
 20
36.284403845184897
 30
0.0
 11
183.97987964601629
 21
36.406626218983433
 31
0.0
  0
LINE
  5
44A1
  8
TITLE
 10
183.7703723995746
 20
36.284403845184897
 30
0.0
 11
183.97987964601629
 21
36.493911091630707
 31
0.0
  0
LINE
  5
44A2
  8
TITLE
 10
183.59580265428031
 20
36.284403845184897
 30
0.0
 11
183.97987964601629
 21
36.668480836921283
 31
0.0
  0
LINE
  5
44A3
  8
TITLE
 10
183.50851778163269
 20
36.284403845184897
 30
0.0
 11
183.97987964601629
 21
36.755765709568671
 31
0.0
  0
LINE
  5
44A4
  8
TITLE
 10
183.4212329089855
 20
36.284403845184897
 30
0.0
 11
183.97987964601629
 21
36.84305058221571
 31
0.0
  0
LINE
  5
44A5
  8
TITLE
 10
183.3339480363461
 20
36.284403845184897
 30
0.0
 11
183.97987964601629
 21
36.93033545486287
 31
0.0
  0
LINE
  5
44A6
  8
TITLE
 10
183.24666316369891
 20
36.284403845184897
 30
0.0
 11
183.95051290097209
 21
36.988253582461773
 31
0.0
  0
LINE
  5
44A7
  8
TITLE
 10
183.1593782910513
 20
36.284403845184897
 30
0.0
 11
183.8632280283245
 21
36.988253582461773
 31
0.0
  0
LINE
  5
44A8
  8
TITLE
 10
183.68308752692701
 20
36.284403845184897
 30
0.0
 11
183.97987964601629
 21
36.58119596427764
 31
0.0
  0
LINE
  5
44A9
  8
TITLE
 10
183.95875473464179
 20
34.290664364088229
 30
0.0
 11
183.9720401887316
 21
34.303949818184613
 31
0.0
  0
LINE
  5
44AA
  8
TITLE
 10
183.87146986199511
 20
34.290664364088229
 30
0.0
 11
183.93964876145711
 21
34.358843263554043
 31
0.0
  0
LINE
  5
44AB
  8
TITLE
 10
183.78418498934749
 20
34.290664364088229
 30
0.0
 11
183.9072573341827
 21
34.413736708923132
 31
0.0
  0
LINE
  5
44AC
  8
TITLE
 10
183.69690011670079
 20
34.290664364088229
 30
0.0
 11
183.8748659069015
 21
34.468630154292669
 31
0.0
  0
LINE
  5
44AD
  8
TITLE
 10
183.6096152440536
 20
34.290664364088229
 30
0.0
 11
183.84247447962699
 21
34.523523599661871
 31
0.0
  0
LINE
  5
44AE
  8
TITLE
 10
183.52233037140601
 20
34.290664364088229
 30
0.0
 11
183.81008305235309
 21
34.578417045031081
 31
0.0
  0
LINE
  5
44AF
  8
TITLE
 10
183.43504549875891
 20
34.290664364088229
 30
0.0
 11
183.77769162507141
 21
34.633310490400497
 31
0.0
  0
LINE
  5
44B0
  8
TITLE
 10
183.34776062611169
 20
34.290664364088229
 30
0.0
 11
183.74530019779741
 21
34.688203935773231
 31
0.0
  0
LINE
  5
44B1
  8
TITLE
 10
183.2604757534645
 20
34.290664364088229
 30
0.0
 11
183.7129087705157
 21
34.743097381139137
 31
0.0
  0
LINE
  5
44B2
  8
TITLE
 10
183.1731908808174
 20
34.290664364088229
 30
0.0
 11
183.68051734324169
 21
34.797990826511978
 31
0.0
  0
LINE
  5
44B3
  8
TITLE
 10
182.53956877960579
 20
38.283140513136118
 30
0.0
 11
183.15935928626089
 21
38.90293101979114
 31
0.0
  0
LINE
  5
44B4
  8
TITLE
 10
182.6580814751018
 20
38.227083463337181
 30
0.0
 11
183.287622307856
 21
38.856624296095902
 31
0.0
  0
LINE
  5
44B5
  8
TITLE
 10
182.5985237740706
 20
38.254810634949877
 30
0.0
 11
183.22303779240559
 21
38.879324653292322
 31
0.0
  0
LINE
  5
44B6
  8
TITLE
 10
183.09260805502981
 20
38.05061593473954
 30
0.0
 11
183.7672288749504
 21
38.725236754659932
 31
0.0
  0
LINE
  5
44B7
  8
TITLE
 10
182.30962804709131
 20
38.40233927120687
 30
0.0
 11
182.91330935425549
 21
39.006020578374432
 31
0.0
  0
LINE
  5
44B8
  8
TITLE
 10
182.4812087898967
 20
38.312065396074331
 30
0.0
 11
183.09656588409501
 21
38.927422490268903
 31
0.0
  0
LINE
  5
44B9
  8
TITLE
 10
182.42343652560291
 20
38.34157800442734
 30
0.0
 11
183.03463820121161
 21
38.95277968004018
 31
0.0
  0
LINE
  5
44BA
  8
TITLE
 10
182.3662451093987
 20
38.371671460866992
 30
0.0
 11
182.97355825412069
 21
38.978984605592252
 31
0.0
  0
LINE
  5
44BB
  8
TITLE
 10
181.8767028075886
 20
38.667693012874111
 30
0.0
 11
182.45959406049221
 21
39.250584265777661
 31
0.0
  0
LINE
  5
44BC
  8
TITLE
 10
181.82501827393301
 20
38.703293351865803
 30
0.0
 11
182.40624743311719
 21
39.284522511049893
 31
0.0
  0
LINE
  5
44BD
  8
TITLE
 10
182.08878592542979
 20
38.530636640134048
 30
0.0
 11
182.680330751285
 21
39.122181465988781
 31
0.0
  0
LINE
  5
44BE
  8
TITLE
 10
182.0349554842291
 20
38.56409107157981
 30
0.0
 11
182.62402598976769
 21
39.15316157711846
 31
0.0
  0
LINE
  5
44BF
  8
TITLE
 10
181.98166759199779
 20
38.598088051996228
 30
0.0
 11
182.56847468222571
 21
39.184895142216881
 31
0.0
  0
LINE
  5
44C0
  8
TITLE
 10
181.92891801792121
 20
38.632623350563222
 30
0.0
 11
182.5136670454562
 21
39.217372378097821
 31
0.0
  0
LINE
  5
44C1
  8
TITLE
 10
182.25357921022481
 20
38.433575306990747
 30
0.0
 11
182.85387601333241
 21
39.033872110094649
 31
0.0
  0
LINE
  5
44C2
  8
TITLE
 10
182.19809282005639
 20
38.465373789466192
 30
0.0
 11
182.79524385877991
 21
39.062524828189233
 31
0.0
  0
LINE
  5
44C3
  8
TITLE
 10
182.14316343267859
 20
38.497729274735093
 30
0.0
 11
182.73739955812971
 21
39.091965400186503
 31
0.0
  0
LINE
  5
44C4
  8
TITLE
 10
184.53583911532451
 20
38.708283141220022
 30
0.0
 11
184.80553861446239
 21
38.977982640358618
 31
0.0
  0
LINE
  5
44C5
  8
TITLE
 10
183.9185272420923
 20
37.829116650050423
 30
0.0
 11
183.97987964601629
 21
37.890469053974591
 31
0.0
  0
LINE
  5
44C6
  8
TITLE
 10
183.84526070198081
 20
37.843134982585873
 30
0.0
 11
183.97987964601629
 21
37.977753926621411
 31
0.0
  0
LINE
  5
44C7
  8
TITLE
 10
183.77287005082189
 20
37.858029204074342
 30
0.0
 11
183.97987964601629
 21
38.065038799268557
 31
0.0
  0
LINE
  5
44C8
  8
TITLE
 10
183.5607250415064
 20
37.907738812692742
 30
0.0
 11
183.97987964601629
 21
38.326893417206747
 31
0.0
  0
LINE
  5
44C9
  8
TITLE
 10
183.49161659070839
 20
37.925915234538138
 30
0.0
 11
183.97987964601629
 21
38.414178289853801
 31
0.0
  0
LINE
  5
44CA
  8
TITLE
 10
183.42328000347609
 20
37.94486351995284
 30
0.0
 11
183.97987964601629
 21
38.501463162497089
 31
0.0
  0
LINE
  5
44CB
  8
TITLE
 10
183.70133171111999
 20
37.873775737012238
 30
0.0
 11
183.97987964601629
 21
38.152323671915731
 31
0.0
  0
LINE
  5
44CC
  8
TITLE
 10
183.63062360672569
 20
37.890352505265241
 30
0.0
 11
183.97987964601629
 21
38.239608544559466
 31
0.0
  0
LINE
  5
44CD
  8
TITLE
 10
183.35569811517101
 20
37.964566504295362
 30
0.0
 11
183.97987964601629
 21
38.588748035144249
 31
0.0
  0
LINE
  5
44CE
  8
TITLE
 10
183.28885476830871
 20
37.985008030084153
 30
0.0
 11
183.97987964601629
 21
38.67603290779175
 31
0.0
  0
LINE
  5
44CF
  8
TITLE
 10
183.2227347411162
 20
38.006172875538823
 30
0.0
 11
183.91406439253021
 21
38.697502526952462
 31
0.0
  0
LINE
  5
44D0
  8
TITLE
 10
183.15732368283579
 20
38.028046689904727
 30
0.0
 11
183.84005054913681
 21
38.710773556205709
 31
0.0
  0
LINE
  5
44D1
  8
TITLE
 10
184.53583911532451
 20
38.795568013863893
 30
0.0
 11
184.71825374181569
 21
38.977982640358618
 31
0.0
  0
LINE
  5
44D2
  8
TITLE
 10
184.53583911532451
 20
38.882852886510818
 30
0.0
 11
184.6309688691685
 21
38.977982640358618
 31
0.0
  0
LINE
  5
44D3
  8
TITLE
 10
184.53583911532451
 20
38.97013775915832
 30
0.0
 11
184.54368399652861
 21
38.977982640358618
 31
0.0
  0
LINE
  5
44D4
  8
TITLE
 10
181.2514220941184
 20
37.431418190884422
 30
0.0
 11
182.03347735776191
 21
38.213473454524433
 31
0.0
  0
LINE
  5
44D5
  8
TITLE
 10
181.16413722147121
 20
37.431418190884422
 30
0.0
 11
181.9461924851143
 21
38.213473454524433
 31
0.0
  0
LINE
  5
44D6
  8
TITLE
 10
181.0768523488313
 20
37.431418190884422
 30
0.0
 11
181.85890761246759
 21
38.213473454524433
 31
0.0
  0
LINE
  5
44D7
  8
TITLE
 10
180.98956747618419
 20
37.431418190884422
 30
0.0
 11
181.77162273982
 21
38.213473454524433
 31
0.0
  0
LINE
  5
44D8
  8
TITLE
 10
180.902282603537
 20
37.431418190884422
 30
0.0
 11
181.6843378671733
 21
38.213473454524433
 31
0.0
  0
LINE
  5
44D9
  8
TITLE
 10
180.8149977308899
 20
37.431418190884422
 30
0.0
 11
181.59705299452611
 21
38.213473454524433
 31
0.0
  0
LINE
  5
44DA
  8
TITLE
 10
181.23911109282881
 20
36.284403845184897
 30
0.0
 11
181.94296083010161
 21
36.988253582461773
 31
0.0
  0
LINE
  5
44DB
  8
TITLE
 10
181.15182622018119
 20
36.284403845184897
 30
0.0
 11
181.85567595745439
 21
36.988253582461773
 31
0.0
  0
LINE
  5
44DC
  8
TITLE
 10
181.06454134753349
 20
36.284403845184897
 30
0.0
 11
181.76839108480769
 21
36.988253582461773
 31
0.0
  0
LINE
  5
44DD
  8
TITLE
 10
180.97725647488679
 20
36.284403845184897
 30
0.0
 11
181.6811062121601
 21
36.988253582461773
 31
0.0
  0
LINE
  5
44DE
  8
TITLE
 10
180.88997160224011
 20
36.284403845184897
 30
0.0
 11
181.5938213395134
 21
36.988253582461773
 31
0.0
  0
LINE
  5
44DF
  8
TITLE
 10
180.80268672959301
 20
36.284403845184897
 30
0.0
 11
181.50653646687309
 21
36.988253582461773
 31
0.0
  0
LINE
  5
44E0
  8
TITLE
 10
181.07835393730741
 20
34.290664364088229
 30
0.0
 11
181.86956489406791
 21
35.081875320848212
 31
0.0
  0
LINE
  5
44E1
  8
TITLE
 10
180.99106906466019
 20
34.290664364088229
 30
0.0
 11
181.7314813860807
 21
35.031076685508431
 31
0.0
  0
LINE
  5
44E2
  8
TITLE
 10
180.90378419201301
 20
34.290664364088229
 30
0.0
 11
181.6242289278311
 21
35.011109099906207
 31
0.0
  0
LINE
  5
44E3
  8
TITLE
 10
180.8164993193659
 20
34.290664364088229
 30
0.0
 11
181.53288195179579
 21
35.007046996521808
 31
0.0
  0
LINE
  5
44E4
  8
TITLE
 10
181.16563880995449
 20
34.290664364088229
 30
0.0
 11
182.8465563085087
 21
35.971581862649487
 31
0.0
  0
LINE
  5
44E5
  8
TITLE
 10
181.2529236826017
 20
34.290664364088229
 30
0.0
 11
182.9338411811554
 21
35.971581862649487
 31
0.0
  0
LINE
  5
44E6
  8
TITLE
 10
187.10101014991091
 20
34.290664364088229
 30
0.0
 11
187.9532498476774
 21
35.14290406185853
 31
0.0
  0
LINE
  5
44E7
  8
TITLE
 10
187.09633710225029
 20
34.373276189071248
 30
0.0
 11
187.86596497503751
 21
35.14290406185853
 31
0.0
  0
LINE
  5
44E8
  8
TITLE
 10
187.09633710225029
 20
34.460561061715111
 30
0.0
 11
187.7786801023903
 21
35.14290406185853
 31
0.0
  0
LINE
  5
44E9
  8
TITLE
 10
187.18829502255809
 20
34.290664364088229
 30
0.0
 11
188.04053472032501
 21
35.14290406185853
 31
0.0
  0
LINE
  5
44EA
  8
TITLE
 10
187.36286476785239
 20
34.290664364088229
 30
0.0
 11
188.21510446561891
 21
35.14290406185853
 31
0.0
  0
LINE
  5
44EB
  8
TITLE
 10
187.27557989520531
 20
34.290664364088229
 30
0.0
 11
188.1278195929722
 21
35.14290406185853
 31
0.0
  0
LINE
  5
44EC
  8
TITLE
 10
187.42261117260381
 20
38.103660292638438
 30
0.0
 11
187.89587964613111
 21
38.576928766166247
 31
0.0
  0
LINE
  5
44ED
  8
TITLE
 10
187.42261117260381
 20
38.190945165285711
 30
0.0
 11
187.80859477348389
 21
38.576928766166247
 31
0.0
  0
LINE
  5
44EE
  8
TITLE
 10
187.42261117260381
 20
38.016375419991277
 30
0.0
 11
187.9831645187783
 21
38.576928766166247
 31
0.0
  0
LINE
  5
44EF
  8
TITLE
 10
187.42261117260381
 20
37.754520802053442
 30
0.0
 11
188.2450191367129
 21
38.576928766166247
 31
0.0
  0
LINE
  5
44F0
  8
TITLE
 10
187.42261117260381
 20
37.841805674700829
 30
0.0
 11
188.15773426406531
 21
38.576928766166247
 31
0.0
  0
LINE
  5
44F1
  8
TITLE
 10
187.42261117260381
 20
37.929090547344352
 30
0.0
 11
188.07044939141861
 21
38.576928766166247
 31
0.0
  0
LINE
  5
44F2
  8
TITLE
 10
186.1569143556589
 20
37.798097074801831
 30
0.0
 11
187.2527079652927
 21
38.893890684435178
 31
0.0
  0
LINE
  5
44F3
  8
TITLE
 10
186.1050897538835
 20
37.658987600385899
 30
0.0
 11
187.25270788008399
 21
38.806605726586902
 31
0.0
  0
LINE
  5
44F4
  8
TITLE
 10
187.09633710225029
 20
34.984270297597512
 30
0.0
 11
187.25497086650739
 21
35.14290406185853
 31
0.0
  0
LINE
  5
44F5
  8
TITLE
 10
187.09633710225029
 20
34.896985424950692
 30
0.0
 11
187.34225573915501
 21
35.14290406185853
 31
0.0
  0
LINE
  5
44F6
  8
TITLE
 10
187.09633710225029
 20
34.547845934361931
 30
0.0
 11
187.69139522974359
 21
35.14290406185853
 31
0.0
  0
LINE
  5
44F7
  8
TITLE
 10
187.09633710225029
 20
34.635130807009197
 30
0.0
 11
187.604110357096
 21
35.14290406185853
 31
0.0
  0
LINE
  5
44F8
  8
TITLE
 10
187.09633710225029
 20
34.722415679656137
 30
0.0
 11
187.5168254844489
 21
35.14290406185853
 31
0.0
  0
LINE
  5
44F9
  8
TITLE
 10
187.09633710225029
 20
34.809700552303298
 30
0.0
 11
187.42954061180171
 21
35.14290406185853
 31
0.0
  0
LINE
  5
44FA
  8
TITLE
 10
185.89827413830741
 20
37.277602239515893
 30
0.0
 11
187.24496104807071
 21
38.624289149279889
 31
0.0
  0
LINE
  5
44FB
  8
TITLE
 10
186.02906779458809
 20
37.495680768443442
 30
0.0
 11
187.250204092556
 21
38.71681706641516
 31
0.0
  0
LINE
  5
44FC
  8
TITLE
 10
186.82024713351481
 20
36.017453418562241
 30
0.0
 11
187.2504387175245
 21
36.44764500257191
 31
0.0
  0
LINE
  5
44FD
  8
TITLE
 10
186.67257386500481
 20
36.131634767986377
 30
0.0
 11
187.2091785129455
 21
36.668239415930771
 31
0.0
  0
LINE
  5
44FE
  8
TITLE
 10
186.6233494421613
 20
36.169695217797198
 30
0.0
 11
187.16668767231701
 21
36.713033447952739
 31
0.0
  0
LINE
  5
44FF
  8
TITLE
 10
186.5741250193241
 20
36.207755667603813
 30
0.0
 11
187.12419683169489
 21
36.757827479971183
 31
0.0
  0
LINE
  5
4500
  8
TITLE
 10
186.5249005964879
 20
36.245816117410868
 30
0.0
 11
187.0817059910664
 21
36.802621511989862
 31
0.0
  0
LINE
  5
4501
  8
TITLE
 10
186.4756761736507
 20
36.283876567221228
 30
0.0
 11
187.03921515043751
 21
36.847415544011831
 31
0.0
  0
LINE
  5
4502
  8
TITLE
 10
186.42645175081401
 20
36.321937017028063
 30
0.0
 11
186.9967243098163
 21
36.892209576033572
 31
0.0
  0
LINE
  5
4503
  8
TITLE
 10
186.7710227106781
 20
36.055513868372827
 30
0.0
 11
187.2504387175245
 21
36.534929875218843
 31
0.0
  0
LINE
  5
4504
  8
TITLE
 10
186.72179828784149
 20
36.093574318179783
 30
0.0
 11
187.2504387175245
 21
36.62221474786611
 31
0.0
  0
LINE
  5
4505
  8
TITLE
 10
185.57991604706561
 20
35.999110549158672
 30
0.0
 11
186.80572262849131
 21
37.224917130584693
 31
0.0
  0
LINE
  5
4506
  8
TITLE
 10
185.50798066159169
 20
36.014460036335443
 30
0.0
 11
186.9121056888707
 21
37.418585063610863
 31
0.0
  0
LINE
  5
4507
  8
TITLE
 10
187.16481809338569
 20
35.751030269906892
 30
0.0
 11
187.2504387175245
 21
35.836650894049171
 31
0.0
  0
LINE
  5
4508
  8
TITLE
 10
187.115593670549
 20
35.789090719713727
 30
0.0
 11
187.2504387175245
 21
35.923935766696218
 31
0.0
  0
LINE
  5
4509
  8
TITLE
 10
187.21404251622241
 20
35.712969820099723
 30
0.0
 11
187.2504387175245
 21
35.74936602140167
 31
0.0
  0
LINE
  5
450A
  8
TITLE
 10
187.09633710225029
 20
35.071555170244892
 30
0.0
 11
187.16768599386069
 21
35.14290406185853
 31
0.0
  0
LINE
  5
450B
  8
TITLE
 10
185.57991604706561
 20
34.951692077400033
 30
0.0
 11
186.41517726554409
 21
35.786953295878341
 31
0.0
  0
LINE
  5
450C
  8
TITLE
 10
185.57991604706561
 20
35.038976950047299
 30
0.0
 11
186.41517726554409
 21
35.874238168525949
 31
0.0
  0
LINE
  5
450D
  8
TITLE
 10
185.57991604706561
 20
35.126261822694353
 30
0.0
 11
186.41517726554409
 21
35.961523041172768
 31
0.0
  0
LINE
  5
450E
  8
TITLE
 10
186.4027311687405
 20
34.290664364088229
 30
0.0
 11
186.41517726554409
 21
34.303110460891503
 31
0.0
  0
LINE
  5
450F
  8
TITLE
 10
186.3154462960938
 20
34.290664364088229
 30
0.0
 11
186.41517726554409
 21
34.390395333534912
 31
0.0
  0
LINE
  5
4510
  8
TITLE
 10
186.22816142344661
 20
34.290664364088229
 30
0.0
 11
186.41517726554409
 21
34.477680206182193
 31
0.0
  0
LINE
  5
4511
  8
TITLE
 10
186.14087655079939
 20
34.290664364088229
 30
0.0
 11
186.41517726554409
 21
34.564965078828891
 31
0.0
  0
LINE
  5
4512
  8
TITLE
 10
186.0535916781518
 20
34.290664364088229
 30
0.0
 11
186.41517726554409
 21
34.652249951472527
 31
0.0
  0
LINE
  5
4513
  8
TITLE
 10
185.9663068055051
 20
34.290664364088229
 30
0.0
 11
186.41517726554409
 21
34.739534824119687
 31
0.0
  0
LINE
  5
4514
  8
TITLE
 10
185.87902193286479
 20
34.290664364088229
 30
0.0
 11
186.41517726554409
 21
34.826819696767082
 31
0.0
  0
LINE
  5
4515
  8
TITLE
 10
185.7917370602176
 20
34.290664364088229
 30
0.0
 11
186.41517726554409
 21
34.914104569414228
 31
0.0
  0
LINE
  5
4516
  8
TITLE
 10
185.57991604706561
 20
34.864407204756731
 30
0.0
 11
186.41517726554409
 21
35.699668423231167
 31
0.0
  0
LINE
  5
4517
  8
TITLE
 10
185.70445218757089
 20
34.290664364088229
 30
0.0
 11
186.41517726554409
 21
35.001389442061047
 31
0.0
  0
LINE
  5
4518
  8
TITLE
 10
185.61716731492379
 20
34.290664364088229
 30
0.0
 11
186.41517726554409
 21
35.088674314708328
 31
0.0
  0
LINE
  5
4519
  8
TITLE
 10
185.57991604706561
 20
34.340697968877073
 30
0.0
 11
186.41517726554409
 21
35.175959187355829
 31
0.0
  0
LINE
  5
451A
  8
TITLE
 10
185.57991604706561
 20
34.427982841524567
 30
0.0
 11
186.41517726554409
 21
35.263244060002648
 31
0.0
  0
LINE
  5
451B
  8
TITLE
 10
185.57991604706561
 20
34.515267714171387
 30
0.0
 11
186.41517726554409
 21
35.350528932646171
 31
0.0
  0
LINE
  5
451C
  8
TITLE
 10
185.57991604706561
 20
34.602552586818888
 30
0.0
 11
186.41517726554409
 21
35.437813805293437
 31
0.0
  0
LINE
  5
451D
  8
TITLE
 10
185.57991604706561
 20
34.689837459462183
 30
0.0
 11
186.41517726554409
 21
35.525098677940612
 31
0.0
  0
LINE
  5
451E
  8
TITLE
 10
185.57991604706561
 20
34.777122332109343
 30
0.0
 11
186.41517726554409
 21
35.612383550584127
 31
0.0
  0
LINE
  5
451F
  8
TITLE
 10
185.57991604706561
 20
35.562686185926509
 30
0.0
 11
186.9542334691873
 21
36.937003608051903
 31
0.0
  0
LINE
  5
4520
  8
TITLE
 10
185.57991604706561
 20
35.649971058573897
 30
0.0
 11
186.91174262855881
 21
36.981797640070461
 31
0.0
  0
LINE
  5
4521
  8
TITLE
 10
185.57991604706561
 20
35.737255931220723
 30
0.0
 11
186.8692517879372
 21
37.026591672089133
 31
0.0
  0
LINE
  5
4522
  8
TITLE
 10
185.57991604706561
 20
35.824540803864117
 30
0.0
 11
186.8267609473086
 21
37.071385704110867
 31
0.0
  0
LINE
  5
4523
  8
TITLE
 10
185.57991604706561
 20
35.911825676511171
 30
0.0
 11
186.78427010667971
 21
37.116179736133063
 31
0.0
  0
LINE
  5
4524
  8
TITLE
 10
187.0663692477124
 20
35.827151169524321
 30
0.0
 11
187.2504387175245
 21
36.01122063933974
 31
0.0
  0
LINE
  5
4525
  8
TITLE
 10
187.01714482486881
 20
35.865211619331149
 30
0.0
 11
187.2504387175245
 21
36.098505511986787
 31
0.0
  0
LINE
  5
4526
  8
TITLE
 10
186.96792040203221
 20
35.903272069137763
 30
0.0
 11
187.2504387175245
 21
36.18579038463384
 31
0.0
  0
LINE
  5
4527
  8
TITLE
 10
186.91869597919549
 20
35.94133251894857
 30
0.0
 11
187.2504387175245
 21
36.273075257277242
 31
0.0
  0
LINE
  5
4528
  8
TITLE
 10
186.8694715563588
 20
35.979392968755178
 30
0.0
 11
187.2504387175245
 21
36.360360129924523
 31
0.0
  0
LINE
  5
4529
  8
TITLE
 10
185.57991604706561
 20
35.213546695341734
 30
0.0
 11
186.41517726554409
 21
36.048807913819822
 31
0.0
  0
LINE
  5
452A
  8
TITLE
 10
185.57991604706561
 20
35.300831567988901
 30
0.0
 11
186.41517726554409
 21
36.136092786467088
 31
0.0
  0
LINE
  5
452B
  8
TITLE
 10
185.57991604706561
 20
35.388116440635827
 30
0.0
 11
186.41517726554409
 21
36.223377659110952
 31
0.0
  0
LINE
  5
452C
  8
TITLE
 10
185.57991604706561
 20
35.475401313283221
 30
0.0
 11
186.41517726554409
 21
36.310662531758112
 31
0.0
  0
LINE
  5
452D
  8
TITLE
 10
186.2396107474228
 20
38.142648084510483
 30
0.0
 11
187.07494530327401
 21
38.977982640358618
 31
0.0
  0
LINE
  5
452E
  8
TITLE
 10
186.25226829423079
 20
38.242590503958468
 30
0.0
 11
186.98766043062679
 21
38.977982640358618
 31
0.0
  0
LINE
  5
452F
  8
TITLE
 10
186.24014044826711
 20
38.317747530649171
 30
0.0
 11
186.9003755579802
 21
38.977982640358618
 31
0.0
  0
LINE
  5
4530
  8
TITLE
 10
186.1528555756199
 20
38.317747530649171
 30
0.0
 11
186.81309068533301
 21
38.977982640358618
 31
0.0
  0
LINE
  5
4531
  8
TITLE
 10
186.06557070297271
 20
38.317747530649171
 30
0.0
 11
186.72580581268579
 21
38.977982640358618
 31
0.0
  0
LINE
  5
4532
  8
TITLE
 10
185.9782858303256
 20
38.317747530649171
 30
0.0
 11
186.63852094003869
 21
38.977982640358618
 31
0.0
  0
LINE
  5
4533
  8
TITLE
 10
185.89100095768569
 20
38.317747530649171
 30
0.0
 11
186.5512360673915
 21
38.977982640358618
 31
0.0
  0
LINE
  5
4534
  8
TITLE
 10
185.8037160850385
 20
38.317747530649171
 30
0.0
 11
186.46395119474431
 21
38.977982640358618
 31
0.0
  0
LINE
  5
4535
  8
TITLE
 10
185.7164312123914
 20
38.317747530649171
 30
0.0
 11
186.41517726554409
 21
39.016493583797804
 31
0.0
  0
LINE
  5
4536
  8
TITLE
 10
186.19397826814969
 20
37.922445859943309
 30
0.0
 11
187.24951504856881
 21
38.977982640358618
 31
0.0
  0
LINE
  5
4537
  8
TITLE
 10
186.22070860472331
 20
38.036461069163813
 30
0.0
 11
187.16223017592159
 21
38.977982640358618
 31
0.0
  0
LINE
  5
4538
  8
TITLE
 10
185.62914633974421
 20
38.317747530649171
 30
0.0
 11
186.41517726554409
 21
39.10377845644507
 31
0.0
  0
LINE
  5
4539
  8
TITLE
 10
185.54186146709711
 20
38.317747530649171
 30
0.0
 11
186.41517726554409
 21
39.19106332908882
 31
0.0
  0
LINE
  5
453A
  8
TITLE
 10
185.45457659444989
 20
38.317747530649171
 30
0.0
 11
186.41517726554409
 21
39.278348201735866
 31
0.0
  0
LINE
  5
453B
  8
TITLE
 10
187.42261117260381
 20
38.540084655874118
 30
0.0
 11
187.4594552828957
 21
38.576928766166247
 31
0.0
  0
LINE
  5
453C
  8
TITLE
 10
187.42261117260381
 20
38.365514910579797
 30
0.0
 11
187.63402502819011
 21
38.576928766166247
 31
0.0
  0
LINE
  5
453D
  8
TITLE
 10
187.42261117260381
 20
38.452799783226851
 30
0.0
 11
187.54674015554241
 21
38.576928766166247
 31
0.0
  0
LINE
  5
453E
  8
TITLE
 10
187.42261117260381
 20
38.278230037933099
 30
0.0
 11
187.72130990083679
 21
38.576928766166247
 31
0.0
  0
LINE
  5
453F
  8
TITLE
 10
185.19660625807859
 20
35.877655378113452
 30
0.0
 11
187.0489103470959
 21
37.729959467130698
 31
0.0
  0
LINE
  5
4540
  8
TITLE
 10
185.06202366736801
 20
35.830357660049351
 30
0.0
 11
187.09620806515289
 21
37.864542057835138
 31
0.0
  0
LINE
  5
4541
  8
TITLE
 10
184.93666218680019
 20
35.792281052128828
 30
0.0
 11
187.1342846730808
 21
37.989903538409983
 31
0.0
  0
LINE
  5
4542
  8
TITLE
 10
185.3434612796855
 20
35.937225527073231
 30
0.0
 11
186.98934019813669
 21
37.5831044455241
 31
0.0
  0
LINE
  5
4543
  8
TITLE
 10
185.57991604706561
 20
39.752360072957693
 30
0.0
 11
185.68284422546591
 21
39.855288251358161
 31
0.0
  0
LINE
  5
4544
  8
TITLE
 10
185.57991604706561
 20
39.839644945604853
 30
0.0
 11
185.59555935281881
 21
39.855288251358161
 31
0.0
  0
LINE
  5
4545
  8
TITLE
 10
185.57991604706561
 20
39.315935709725522
 30
0.0
 11
186.11926858869489
 21
39.855288251358161
 31
0.0
  0
LINE
  5
4546
  8
TITLE
 10
185.57991604706561
 20
39.403220582372803
 30
0.0
 11
186.03198371604771
 21
39.855288251358161
 31
0.0
  0
LINE
  5
4547
  8
TITLE
 10
185.57991604706561
 20
39.490505455016553
 30
0.0
 11
185.94469884340009
 21
39.855288251358161
 31
0.0
  0
LINE
  5
4548
  8
TITLE
 10
185.57991604706561
 20
39.577790327663251
 30
0.0
 11
185.85741397076069
 21
39.855288251358161
 31
0.0
  0
LINE
  5
4549
  8
TITLE
 10
185.57991604706561
 20
39.665075200310412
 30
0.0
 11
185.7701290981131
 21
39.855288251358161
 31
0.0
  0
LINE
  5
454A
  8
TITLE
 10
188.25084515361871
 20
39.717458127470771
 30
0.0
 11
188.38867527750651
 21
39.855288251358161
 31
0.0
  0
LINE
  5
454B
  8
TITLE
 10
188.25084515361871
 20
39.804743000118037
 30
0.0
 11
188.30139040485889
 21
39.855288251358161
 31
0.0
  0
LINE
  5
454C
  8
TITLE
 10
188.25084515361871
 20
39.368318636885867
 30
0.0
 11
188.73781476808739
 21
39.855288251358161
 31
0.0
  0
LINE
  5
454D
  8
TITLE
 10
188.25084515361871
 20
39.455603509529404
 30
0.0
 11
188.65052989544071
 21
39.855288251358161
 31
0.0
  0
LINE
  5
454E
  8
TITLE
 10
188.25084515361871
 20
39.542888382176557
 30
0.0
 11
188.5632450228008
 21
39.855288251358161
 31
0.0
  0
LINE
  5
454F
  8
TITLE
 10
188.25084515361871
 20
39.630173254823951
 30
0.0
 11
188.4759601501537
 21
39.855288251358161
 31
0.0
  0
LINE
  5
4550
  8
TITLE
 10
190.15598069253971
 20
34.290664364088229
 30
0.0
 11
190.2335869524936
 21
34.368270624041891
 31
0.0
  0
LINE
  5
4551
  8
TITLE
 10
189.8941260745982
 20
34.290664364088229
 30
0.0
 11
190.2335869524936
 21
34.630125241983372
 31
0.0
  0
LINE
  5
4552
  8
TITLE
 10
189.8068412019511
 20
34.290664364088229
 30
0.0
 11
190.2335869524936
 21
34.717410114626887
 31
0.0
  0
LINE
  5
4553
  8
TITLE
 10
189.71955632930391
 20
34.290664364088229
 30
0.0
 11
190.2335869524936
 21
34.804694987274161
 31
0.0
  0
LINE
  5
4554
  8
TITLE
 10
189.63227145665681
 20
34.290664364088229
 30
0.0
 11
190.2335869524936
 21
34.891979859917569
 31
0.0
  0
LINE
  5
4555
  8
TITLE
 10
190.06869581989261
 20
34.290664364088229
 30
0.0
 11
190.2335869524936
 21
34.455555496689271
 31
0.0
  0
LINE
  5
4556
  8
TITLE
 10
189.98141094724579
 20
34.290664364088229
 30
0.0
 11
190.2335869524936
 21
34.542840369336091
 31
0.0
  0
LINE
  5
4557
  8
TITLE
 10
189.54498658401641
 20
34.290664364088229
 30
0.0
 11
190.2335869524936
 21
34.979264732564957
 31
0.0
  0
LINE
  5
4558
  8
TITLE
 10
189.9240407456918
 20
37.724689068395378
 30
0.0
 11
189.9826071139168
 21
37.783255436617083
 31
0.0
  0
LINE
  5
4559
  8
TITLE
 10
189.83675587304421
 20
37.724689068395378
 30
0.0
 11
189.9826071139168
 21
37.870540309264243
 31
0.0
  0
LINE
  5
455A
  8
TITLE
 10
189.74947100039751
 20
37.724689068395378
 30
0.0
 11
189.9826071139168
 21
37.957825181911737
 31
0.0
  0
LINE
  5
455B
  8
TITLE
 10
189.6621861277504
 20
37.724689068395378
 30
0.0
 11
189.9826071139168
 21
38.045110054558677
 31
0.0
  0
LINE
  5
455C
  8
TITLE
 10
189.57490125511001
 20
37.724689068395378
 30
0.0
 11
189.9826071139168
 21
38.132394927205731
 31
0.0
  0
LINE
  5
455D
  8
TITLE
 10
189.45770171136971
 20
34.290664364088229
 30
0.0
 11
190.2335869524936
 21
35.066549605211783
 31
0.0
  0
LINE
  5
455E
  8
TITLE
 10
189.37041683872249
 20
34.290664364088229
 30
0.0
 11
190.22265653648941
 21
35.14290406185853
 31
0.0
  0
LINE
  5
455F
  8
TITLE
 10
189.2831319660749
 20
34.290664364088229
 30
0.0
 11
190.13537166384179
 21
35.14290406185853
 31
0.0
  0
LINE
  5
4560
  8
TITLE
 10
189.1958470934282
 20
34.290664364088229
 30
0.0
 11
190.04808679119469
 21
35.14290406185853
 31
0.0
  0
LINE
  5
4561
  8
TITLE
 10
189.1085622207811
 20
34.290664364088229
 30
0.0
 11
189.96080191854799
 21
35.14290406185853
 31
0.0
  0
LINE
  5
4562
  8
TITLE
 10
189.02127734813391
 20
34.290664364088229
 30
0.0
 11
189.8735170459008
 21
35.14290406185853
 31
0.0
  0
LINE
  5
4563
  8
TITLE
 10
189.31304663716901
 20
37.724689068395378
 30
0.0
 11
189.9826071139168
 21
38.394249545147211
 31
0.0
  0
LINE
  5
4564
  8
TITLE
 10
189.22576176452179
 20
37.724689068395378
 30
0.0
 11
189.9826071139168
 21
38.481534417791067
 31
0.0
  0
LINE
  5
4565
  8
TITLE
 10
189.4876163824633
 20
37.724689068395378
 30
0.0
 11
189.9826071139168
 21
38.21967979985277
 31
0.0
  0
LINE
  5
4566
  8
TITLE
 10
189.40033150981611
 20
37.724689068395378
 30
0.0
 11
189.9826071139168
 21
38.306964672500051
 31
0.0
  0
LINE
  5
4567
  8
TITLE
 10
189.13847689187469
 20
37.724689068395378
 30
0.0
 11
189.9826071139168
 21
38.568819290437887
 31
0.0
  0
LINE
  5
45C7
  8
TITLE
 10
127.0465728752538
 20
43.671572875253808
 30
0.0
 11
132.70342712474621
 21
49.328427124746177
 31
0.0
  0
TEXT
  5
45C8
  8
TITLE
 10
125.89443753671669
 20
47.015804915053423
 30
0.0
 40
2.5
  1
２
 72
     1
 11
127.06110420338329
 21
48.265804915053423
 31
0.0
 73
     2
  0
TEXT
  5
45C9
  8
TITLE
 10
131.9063422986207
 20
43.520567724352752
 30
0.0
 40
2.5
  1
１
 72
     1
 11
132.98967563195399
 21
44.770567724352752
 31
0.0
 73
     2
  0
LINE
  5
5124
  8
MODEL
 10
58.919291299409963
 20
229.61543902709801
 30
0.0
 11
58.919291299409963
 21
229.23906669051021
 31
0.0
  0
LINE
  5
5125
  8
MODEL
 10
72.519291299410099
 20
229.5954656436185
 30
0.0
 11
76.519291299409986
 21
229.5954656436185
 31
0.0
  0
LINE
  5
5126
  8
MODEL
 10
68.519291299409986
 20
233.59546564361889
 30
0.0
 11
71.919291299409849
 21
233.59546564361889
 31
0.0
  0
LINE
  5
5127
  8
MODEL
 10
77.119291299410008
 20
233.5954656436187
 30
0.0
 11
80.519291299409872
 21
233.5954656436187
 31
0.0
  0
LINE
  5
5128
  8
CENTER
 10
74.519291299409986
 20
245.5954656436187
 30
0.0
 11
74.519291299409986
 21
191.59546564361861
 31
0.0
  0
ARC
  5
5129
  8
MODEL
 10
68.519291299410099
 20
229.59546564361889
 30
0.0
 40
4.0
 50
90.0
 51
180.0
  0
LINE
  5
512A
  8
MODEL
 10
71.919291299409963
 20
233.5954656436187
 30
0.0
 11
72.519291299410099
 21
229.5954656436187
 31
0.0
  0
LINE
  5
512B
  8
MODEL
 10
77.119291299410008
 20
233.5954656436187
 30
0.0
 11
76.519291299409986
 21
229.5954656436187
 31
0.0
  0
ARC
  5
512C
  8
MODEL
 10
66.919291299410077
 20
198.1954656436188
 30
0.0
 40
1.6000000000000001
 50
270.0
 51
7.283090279481609
  0
LINE
  5
512D
  8
MODEL
 10
68.332996315671096
 20
199.75496701420099
 30
0.0
 11
68.506382339421904
 21
198.39830062756869
 31
0.0
  0
LINE
  5
512E
  8
MODEL
 10
58.919291299409963
 20
229.2390666905109
 30
0.0
 11
62.7341174527715
 21
199.38979567571869
 31
0.0
  0
ARC
  5
512F
  8
MODEL
 10
65.908299532795297
 20
199.79546564361871
 30
0.0
 40
3.2000000000000002
 50
187.2830902794816
 51
270.0
  0
ARC
  5
5130
  8
MODEL
 10
74.519291299409986
 20
217.26222564361879
 30
0.0
 40
23.33324
 50
64.09398817551795
 51
115.90601182448199
  0
ARC
  5
5131
  8
MODEL
 10
68.519291299409986
 20
229.61543902709801
 30
0.0
 40
9.5999999999999996
 50
115.90601182448199
 51
180.0
  0
LINE
  5
5132
  8
MODEL
 10
64.720012616055271
 20
228.02491308417589
 30
0.0
 11
63.834375678010993
 21
228.7098287055743
 31
0.0
  0
LINE
  5
5133
  8
MODEL
 10
63.834375678010993
 20
228.7098287055743
 30
0.0
 11
64.519291299409986
 21
229.5954656436187
 31
0.0
  0
LINE
  5
5134
  8
MODEL
 10
64.035096994656499
 20
227.13927614613189
 30
0.0
 11
64.720012616055271
 21
228.02491308417589
 31
0.0
  0
LINE
  5
5135
  8
MODEL
 10
65.121455249345843
 20
224.88380796528949
 30
0.0
 11
64.235818311301784
 21
225.56872358668861
 31
0.0
  0
LINE
  5
5136
  8
MODEL
 10
64.235818311301784
 20
225.56872358668861
 30
0.0
 11
64.920733932700557
 21
226.45436052473281
 31
0.0
  0
LINE
  5
5137
  8
MODEL
 10
64.920733932700557
 20
226.45436052473281
 30
0.0
 11
64.035096994656499
 21
227.13927614613189
 31
0.0
  0
LINE
  5
5138
  8
MODEL
 10
64.436539627947184
 20
223.99817102724529
 30
0.0
 11
65.121455249345843
 21
224.88380796528949
 31
0.0
  0
LINE
  5
5139
  8
MODEL
 10
65.322176565991128
 20
223.31325540584689
 30
0.0
 11
64.436539627947184
 21
223.99817102724529
 31
0.0
  0
LINE
  5
513A
  8
MODEL
 10
65.522897882636755
 20
221.7427028464038
 30
0.0
 11
64.637260944592356
 21
222.42761846780249
 31
0.0
  0
LINE
  5
513B
  8
MODEL
 10
64.637260944592356
 20
222.42761846780249
 30
0.0
 11
65.322176565991356
 21
223.31325540584689
 31
0.0
  0
LINE
  5
513C
  8
MODEL
 10
64.837982261237869
 20
220.85706590835969
 30
0.0
 11
65.522897882636755
 21
221.7427028464038
 31
0.0
  0
LINE
  5
513D
  8
MODEL
 10
65.924340515927213
 20
218.60159772751729
 30
0.0
 11
65.038703577883155
 21
219.2865133489164
 31
0.0
  0
LINE
  5
513E
  8
MODEL
 10
65.038703577883155
 20
219.2865133489164
 30
0.0
 11
65.723619199281814
 21
220.17215028696029
 31
0.0
  0
LINE
  5
513F
  8
MODEL
 10
65.723619199281814
 20
220.17215028696029
 30
0.0
 11
64.837982261237869
 21
220.85706590835969
 31
0.0
  0
LINE
  5
5140
  8
MODEL
 10
65.23942489452844
 20
217.71596078947331
 30
0.0
 11
65.924340515927213
 21
218.60159772751729
 31
0.0
  0
LINE
  5
5141
  8
MODEL
 10
66.125061832572726
 20
217.0310451680744
 30
0.0
 11
65.23942489452844
 21
217.71596078947331
 31
0.0
  0
LINE
  5
5142
  8
MODEL
 10
66.325783149217898
 20
215.4604926086316
 30
0.0
 11
65.440146211173825
 21
216.14540823003031
 31
0.0
  0
LINE
  5
5143
  8
MODEL
 10
65.440146211173825
 20
216.14540823003031
 30
0.0
 11
66.125061832572726
 21
217.0310451680744
 31
0.0
  0
LINE
  5
5144
  8
MODEL
 10
65.640867527819239
 20
214.5748556705872
 30
0.0
 11
66.325783149217898
 21
215.4604926086316
 31
0.0
  0
LINE
  5
5145
  8
MODEL
 10
66.727225782508697
 20
212.319387489745
 30
0.0
 11
65.841588844464411
 21
213.00430311114391
 31
0.0
  0
LINE
  5
5146
  8
MODEL
 10
65.841588844464411
 20
213.00430311114391
 30
0.0
 11
66.526504465863297
 21
213.88994004918831
 31
0.0
  0
LINE
  5
5147
  8
MODEL
 10
66.526504465863297
 20
213.88994004918831
 30
0.0
 11
65.640867527819239
 21
214.5748556705872
 31
0.0
  0
LINE
  5
5148
  8
MODEL
 10
66.042310161109697
 20
211.43375055170131
 30
0.0
 11
66.727225782508697
 21
212.319387489745
 31
0.0
  0
LINE
  5
5149
  8
MODEL
 10
66.927947099153982
 20
210.74883493030219
 30
0.0
 11
66.042310161109697
 21
211.43375055170131
 31
0.0
  0
LINE
  5
514A
  8
MODEL
 10
67.128668415799382
 20
209.17828237085939
 30
0.0
 11
66.243031477755196
 21
209.86319799225799
 31
0.0
  0
LINE
  5
514B
  8
MODEL
 10
66.243031477755196
 20
209.86319799225799
 30
0.0
 11
66.927947099153982
 21
210.74883493030219
 31
0.0
  0
LINE
  5
514C
  8
MODEL
 10
66.443752794400496
 20
208.29264543281519
 30
0.0
 11
67.128668415799382
 21
209.17828237085939
 31
0.0
  0
LINE
  5
514D
  8
MODEL
 10
67.53011104908984
 20
206.03717725197279
 30
0.0
 11
66.644474111045895
 21
206.72209287337191
 31
0.0
  0
LINE
  5
514E
  8
MODEL
 10
66.644474111045895
 20
206.72209287337191
 30
0.0
 11
67.329389732444668
 21
207.60772981141611
 31
0.0
  0
LINE
  5
514F
  8
MODEL
 10
67.329389732444668
 20
207.60772981141611
 30
0.0
 11
66.443752794400496
 21
208.29264543281519
 31
0.0
  0
LINE
  5
5150
  8
MODEL
 10
66.845195427691067
 20
205.1515403139291
 30
0.0
 11
67.53011104908984
 21
206.03717725197279
 31
0.0
  0
LINE
  5
5151
  8
MODEL
 10
67.730832365735466
 20
204.46662469253019
 30
0.0
 11
66.845195427691067
 21
205.1515403139291
 31
0.0
  0
LINE
  5
5152
  8
MODEL
 10
67.931553682380525
 20
202.89607213308739
 30
0.0
 11
67.045916744336466
 21
203.58098775448579
 31
0.0
  0
LINE
  5
5153
  8
MODEL
 10
67.045916744336466
 20
203.58098775448579
 30
0.0
 11
67.730832365735466
 21
204.46662469253019
 31
0.0
  0
LINE
  5
5154
  8
MODEL
 10
67.246638060981866
 20
202.01043519504299
 30
0.0
 11
67.931553682380525
 21
202.89607213308739
 31
0.0
  0
LINE
  5
5155
  8
MODEL
 10
68.332996315671323
 20
199.75496701420079
 30
0.0
 11
67.447359377627151
 21
200.4398826355997
 31
0.0
  0
LINE
  5
5156
  8
MODEL
 10
67.447359377627151
 20
200.4398826355997
 30
0.0
 11
68.132274999026038
 21
201.3255195736439
 31
0.0
  0
LINE
  5
5157
  8
MODEL
 10
68.132274999026038
 20
201.3255195736439
 30
0.0
 11
67.246638060981866
 21
202.01043519504299
 31
0.0
  0
LINE
  5
5158
  8
MODEL
 10
65.908299532795297
 20
196.59546564361861
 30
0.0
 11
66.919291299410077
 21
196.59546564361861
 31
0.0
  0
LINE
  5
5159
  8
MODEL
 10
90.119291299409994
 20
229.61543902709801
 30
0.0
 11
90.119291299409994
 21
229.23906669051021
 31
0.0
  0
ARC
  5
515A
  8
MODEL
 10
80.519291299409872
 20
229.59546564361889
 30
0.0
 40
4.0
 50
0.0
 51
90.0
  0
ARC
  5
515B
  8
MODEL
 10
82.119291299409895
 20
198.1954656436188
 30
0.0
 40
1.6000000000000001
 50
172.7169097205184
 51
270.0
  0
LINE
  5
515C
  8
MODEL
 10
80.705586283148875
 20
199.75496701420099
 30
0.0
 11
80.532200259398067
 21
198.39830062756869
 31
0.0
  0
LINE
  5
515D
  8
MODEL
 10
90.119291299409994
 20
229.2390666905109
 30
0.0
 11
86.304465146048457
 21
199.38979567571869
 31
0.0
  0
ARC
  5
515E
  8
MODEL
 10
83.130283066024674
 20
199.79546564361871
 30
0.0
 40
3.2000000000000002
 50
270.0
 51
352.7169097205184
  0
ARC
  5
515F
  8
MODEL
 10
80.519291299409986
 20
229.61543902709801
 30
0.0
 40
9.5999999999999996
 50
0.0
 51
64.09398817551795
  0
LINE
  5
5160
  8
MODEL
 10
84.318569982764714
 20
228.02491308417589
 30
0.0
 11
85.204206920808986
 21
228.7098287055743
 31
0.0
  0
LINE
  5
5161
  8
MODEL
 10
85.204206920808986
 20
228.7098287055743
 30
0.0
 11
84.519291299409986
 21
229.5954656436187
 31
0.0
  0
LINE
  5
5162
  8
MODEL
 10
85.003485604163458
 20
227.13927614613189
 30
0.0
 11
84.318569982764714
 21
228.02491308417589
 31
0.0
  0
LINE
  5
5163
  8
MODEL
 10
83.917127349474129
 20
224.88380796528949
 30
0.0
 11
84.802764287518187
 21
225.56872358668861
 31
0.0
  0
LINE
  5
5164
  8
MODEL
 10
84.802764287518187
 20
225.56872358668861
 30
0.0
 11
84.117848666119414
 21
226.45436052473281
 31
0.0
  0
LINE
  5
5165
  8
MODEL
 10
84.117848666119414
 20
226.45436052473281
 30
0.0
 11
85.003485604163458
 21
227.13927614613189
 31
0.0
  0
LINE
  5
5166
  8
MODEL
 10
84.602042970872773
 20
223.99817102724529
 30
0.0
 11
83.917127349474129
 21
224.88380796528949
 31
0.0
  0
LINE
  5
5167
  8
MODEL
 10
83.716406032828843
 20
223.31325540584689
 30
0.0
 11
84.602042970872773
 21
223.99817102724529
 31
0.0
  0
LINE
  5
5168
  8
MODEL
 10
83.515684716183216
 20
221.7427028464038
 30
0.0
 11
84.401321654227615
 21
222.42761846780249
 31
0.0
  0
LINE
  5
5169
  8
MODEL
 10
84.401321654227615
 20
222.42761846780249
 30
0.0
 11
83.716406032828615
 21
223.31325540584689
 31
0.0
  0
LINE
  5
516A
  8
MODEL
 10
84.200600337582088
 20
220.85706590835969
 30
0.0
 11
83.515684716183216
 21
221.7427028464038
 31
0.0
  0
LINE
  5
516B
  8
MODEL
 10
83.114242082892758
 20
218.60159772751729
 30
0.0
 11
83.999879020936817
 21
219.2865133489164
 31
0.0
  0
LINE
  5
516C
  8
MODEL
 10
83.999879020936817
 20
219.2865133489164
 30
0.0
 11
83.314963399538144
 21
220.17215028696029
 31
0.0
  0
LINE
  5
516D
  8
MODEL
 10
83.314963399538144
 20
220.17215028696029
 30
0.0
 11
84.200600337582088
 21
220.85706590835969
 31
0.0
  0
LINE
  5
516E
  8
MODEL
 10
83.799157704291531
 20
217.71596078947331
 30
0.0
 11
83.114242082892758
 21
218.60159772751729
 31
0.0
  0
LINE
  5
516F
  8
MODEL
 10
82.913520766247245
 20
217.0310451680744
 30
0.0
 11
83.799157704291531
 21
217.71596078947331
 31
0.0
  0
LINE
  5
5170
  8
MODEL
 10
82.712799449602073
 20
215.4604926086316
 30
0.0
 11
83.598436387646146
 21
216.14540823003031
 31
0.0
  0
LINE
  5
5171
  8
MODEL
 10
83.598436387646146
 20
216.14540823003031
 30
0.0
 11
82.913520766247245
 21
217.0310451680744
 31
0.0
  0
LINE
  5
5172
  8
MODEL
 10
83.397715071000718
 20
214.5748556705872
 30
0.0
 11
82.712799449602073
 21
215.4604926086316
 31
0.0
  0
LINE
  5
5173
  8
MODEL
 10
82.311356816311275
 20
212.319387489745
 30
0.0
 11
83.19699375435556
 21
213.00430311114391
 31
0.0
  0
LINE
  5
5174
  8
MODEL
 10
83.19699375435556
 20
213.00430311114391
 30
0.0
 11
82.512078132956674
 21
213.88994004918831
 31
0.0
  0
LINE
  5
5175
  8
MODEL
 10
82.512078132956674
 20
213.88994004918831
 30
0.0
 11
83.397715071000718
 21
214.5748556705872
 31
0.0
  0
LINE
  5
5176
  8
MODEL
 10
82.996272437710275
 20
211.43375055170131
 30
0.0
 11
82.311356816311275
 21
212.319387489745
 31
0.0
  0
LINE
  5
5177
  8
MODEL
 10
82.110635499665989
 20
210.74883493030219
 30
0.0
 11
82.996272437710275
 21
211.43375055170131
 31
0.0
  0
LINE
  5
5178
  8
MODEL
 10
81.909914183020604
 20
209.17828237085939
 30
0.0
 11
82.795551121064776
 21
209.86319799225799
 31
0.0
  0
LINE
  5
5179
  8
MODEL
 10
82.795551121064776
 20
209.86319799225799
 30
0.0
 11
82.110635499665989
 21
210.74883493030219
 31
0.0
  0
LINE
  5
517A
  8
MODEL
 10
82.594829804419476
 20
208.29264543281519
 30
0.0
 11
81.909914183020604
 21
209.17828237085939
 31
0.0
  0
LINE
  5
517B
  8
MODEL
 10
81.508471549730118
 20
206.03717725197279
 30
0.0
 11
82.394108487774076
 21
206.72209287337191
 31
0.0
  0
LINE
  5
517C
  8
MODEL
 10
82.394108487774076
 20
206.72209287337191
 30
0.0
 11
81.709192866375304
 21
207.60772981141611
 31
0.0
  0
LINE
  5
517D
  8
MODEL
 10
81.709192866375304
 20
207.60772981141611
 30
0.0
 11
82.594829804419476
 21
208.29264543281519
 31
0.0
  0
LINE
  5
517E
  8
MODEL
 10
82.193387171128904
 20
205.1515403139291
 30
0.0
 11
81.508471549730118
 21
206.03717725197279
 31
0.0
  0
LINE
  5
517F
  8
MODEL
 10
81.307750233084505
 20
204.46662469253019
 30
0.0
 11
82.193387171128904
 21
205.1515403139291
 31
0.0
  0
LINE
  5
5180
  8
MODEL
 10
81.107028916439447
 20
202.89607213308739
 30
0.0
 11
81.992665854483505
 21
203.58098775448579
 31
0.0
  0
LINE
  5
5181
  8
MODEL
 10
81.992665854483505
 20
203.58098775448579
 30
0.0
 11
81.307750233084505
 21
204.46662469253019
 31
0.0
  0
LINE
  5
5182
  8
MODEL
 10
81.791944537838106
 20
202.01043519504299
 30
0.0
 11
81.107028916439447
 21
202.89607213308739
 31
0.0
  0
LINE
  5
5183
  8
MODEL
 10
80.705586283148648
 20
199.75496701420079
 30
0.0
 11
81.59122322119282
 21
200.4398826355997
 31
0.0
  0
LINE
  5
5184
  8
MODEL
 10
81.59122322119282
 20
200.4398826355997
 30
0.0
 11
80.906307599793934
 21
201.3255195736439
 31
0.0
  0
LINE
  5
5185
  8
MODEL
 10
80.906307599793934
 20
201.3255195736439
 30
0.0
 11
81.791944537838106
 21
202.01043519504299
 31
0.0
  0
LINE
  5
5186
  8
MODEL
 10
83.130283066024674
 20
196.59546564361861
 30
0.0
 11
82.119291299409895
 21
196.59546564361861
 31
0.0
  0
LINE
  5
519F
  8
GENKYO
 10
151.6022745042562
 20
237.57356235461651
 30
0.0
 11
151.6022745042562
 21
227.5735623546164
 31
0.0
  0
LINE
  5
51A0
  8
GENKYO
 10
151.6022745042562
 20
127.5735623546164
 30
0.0
 11
151.6022745042562
 21
117.5735623546164
 31
0.0
  0
LINE
  5
51A1
  8
MODEL
 10
151.0522745042561
 20
227.5735623546164
 30
0.0
 11
151.0522745042561
 21
127.5735623546164
 31
0.0
  0
LINE
  5
51A2
  8
MODEL
 10
153.25227450425609
 20
227.5735623546164
 30
0.0
 11
153.25227450425609
 21
127.5735623546164
 31
0.0
  0
LINE
  5
51A3
  8
MODEL
 10
151.0522745042561
 20
227.5735623546164
 30
0.0
 11
153.25227450425609
 21
227.5735623546164
 31
0.0
  0
LINE
  5
51A4
  8
MODEL
 10
151.0522745042561
 20
127.5735623546164
 30
0.0
 11
153.25227450425609
 21
127.5735623546164
 31
0.0
  0
LINE
  5
51A9
  8
MODEL
 10
66.719291299409974
 20
122.0079950376461
 30
0.0
 11
66.719291299409974
 21
121.8198088693522
 31
0.0
  0
LINE
  5
51AA
  8
MODEL
 10
73.519291299410042
 20
121.9980083459063
 30
0.0
 11
75.519291299409929
 21
121.9980083459063
 31
0.0
  0
LINE
  5
51AB
  8
MODEL
 10
71.519291299409929
 20
123.9980083459066
 30
0.0
 11
73.219291299409861
 21
123.9980083459066
 31
0.0
  0
LINE
  5
51AC
  8
MODEL
 10
75.819291299409997
 20
123.9980083459064
 30
0.0
 11
77.519291299409929
 21
123.9980083459064
 31
0.0
  0
ARC
  5
51AD
  8
MODEL
 10
71.519291299410042
 20
121.9980083459066
 30
0.0
 40
2.0
 50
90.0
 51
180.0
  0
LINE
  5
51AE
  8
MODEL
 10
73.219291299409974
 20
123.9980083459064
 30
0.0
 11
73.519291299410042
 21
121.9980083459065
 31
0.0
  0
LINE
  5
51AF
  8
MODEL
 10
75.819291299409997
 20
123.9980083459064
 30
0.0
 11
75.519291299409929
 21
121.9980083459065
 31
0.0
  0
ARC
  5
51B0
  8
MODEL
 10
70.719291299409974
 20
106.2980083459065
 30
0.0
 40
0.8
 50
270.0
 51
7.283090279481609
  0
LINE
  5
51B1
  8
MODEL
 10
71.426143807540484
 20
107.0777590311976
 30
0.0
 11
71.512836819415952
 21
106.39942583788149
 31
0.0
  0
LINE
  5
51B2
  8
MODEL
 10
66.719291299409974
 20
121.8198088693525
 30
0.0
 11
68.626704376090743
 21
106.89517336195649
 31
0.0
  0
ARC
  5
51B3
  8
MODEL
 10
70.213795416102585
 20
107.09800834590651
 30
0.0
 40
1.6000000000000001
 50
187.2830902794816
 51
270.0
  0
ARC
  5
51B4
  8
MODEL
 10
74.519291299409915
 20
115.8313883459065
 30
0.0
 40
11.66662
 50
64.09398817551795
 51
115.90601182448199
  0
ARC
  5
51B5
  8
MODEL
 10
71.519291299409929
 20
122.0079950376461
 30
0.0
 40
4.7999999999999989
 50
115.90601182448199
 51
180.0
  0
LINE
  5
51B6
  8
MODEL
 10
69.619651957732572
 20
121.212732066185
 30
0.0
 11
69.176833488710486
 21
121.5551898768842
 31
0.0
  0
LINE
  5
51B7
  8
MODEL
 10
69.176833488710486
 20
121.5551898768842
 30
0.0
 11
69.519291299409915
 21
121.9980083459065
 31
0.0
  0
LINE
  5
51B8
  8
MODEL
 10
69.277194147033242
 20
120.7699135971631
 30
0.0
 11
69.619651957732572
 21
121.212732066185
 31
0.0
  0
LINE
  5
51B9
  8
MODEL
 10
69.820373274377857
 20
119.6421795067418
 30
0.0
 11
69.377554805355885
 21
119.9846373174414
 31
0.0
  0
LINE
  5
51BA
  8
MODEL
 10
69.377554805355885
 20
119.9846373174414
 30
0.0
 11
69.720012616055214
 21
120.4274557864635
 31
0.0
  0
LINE
  5
51BB
  8
MODEL
 10
69.720012616055214
 20
120.4274557864635
 30
0.0
 11
69.277194147033242
 21
120.7699135971631
 31
0.0
  0
LINE
  5
51BC
  8
MODEL
 10
69.477915463678514
 20
119.1993610377198
 30
0.0
 11
69.820373274377857
 21
119.6421795067418
 31
0.0
  0
LINE
  5
51BD
  8
MODEL
 10
69.9207339327005
 20
118.8569032270206
 30
0.0
 11
69.477915463678514
 21
119.1993610377198
 31
0.0
  0
LINE
  5
51BE
  8
MODEL
 10
70.02109459102337
 20
118.07162694729899
 30
0.0
 11
69.578276122001171
 21
118.4140847579984
 31
0.0
  0
LINE
  5
51BF
  8
MODEL
 10
69.578276122001171
 20
118.4140847579984
 30
0.0
 11
69.920733932700614
 21
118.8569032270206
 31
0.0
  0
LINE
  5
51C0
  8
MODEL
 10
69.678636780323927
 20
117.62880847827689
 30
0.0
 11
70.02109459102337
 21
118.07162694729899
 31
0.0
  0
LINE
  5
51C1
  8
MODEL
 10
70.221815907668542
 20
116.5010743878557
 30
0.0
 11
69.77899743864657
 21
116.84353219855529
 31
0.0
  0
LINE
  5
51C2
  8
MODEL
 10
69.77899743864657
 20
116.84353219855529
 30
0.0
 11
70.1214552493459
 21
117.2863506675773
 31
0.0
  0
LINE
  5
51C3
  8
MODEL
 10
70.1214552493459
 20
117.2863506675773
 30
0.0
 11
69.678636780323927
 21
117.62880847827689
 31
0.0
  0
LINE
  5
51C4
  8
MODEL
 10
69.879358096969213
 20
116.05825591883379
 30
0.0
 11
70.221815907668542
 21
116.5010743878557
 31
0.0
  0
LINE
  5
51C5
  8
MODEL
 10
70.322176565991285
 20
115.71579810813429
 30
0.0
 11
69.879358096969213
 21
116.05825591883379
 31
0.0
  0
LINE
  5
51C6
  8
MODEL
 10
70.422537224313942
 20
114.93052182841291
 30
0.0
 11
69.979718755291856
 21
115.27297963911219
 31
0.0
  0
LINE
  5
51C7
  8
MODEL
 10
69.979718755291856
 20
115.27297963911219
 30
0.0
 11
70.322176565991285
 21
115.71579810813429
 31
0.0
  0
LINE
  5
51C8
  8
MODEL
 10
70.080079413614612
 20
114.48770335939069
 30
0.0
 11
70.422537224313942
 21
114.93052182841291
 31
0.0
  0
LINE
  5
51C9
  8
MODEL
 10
70.623258540959341
 20
113.35996926896961
 30
0.0
 11
70.180440071937142
 21
113.70242707966911
 31
0.0
  0
LINE
  5
51CA
  8
MODEL
 10
70.180440071937142
 20
113.70242707966911
 30
0.0
 11
70.522897882636585
 21
114.14524554869131
 31
0.0
  0
LINE
  5
51CB
  8
MODEL
 10
70.522897882636585
 20
114.14524554869131
 30
0.0
 11
70.080079413614612
 21
114.48770335939069
 31
0.0
  0
LINE
  5
51CC
  8
MODEL
 10
70.280800730259784
 20
112.91715079994781
 30
0.0
 11
70.623258540959341
 21
113.35996926896961
 31
0.0
  0
LINE
  5
51CD
  8
MODEL
 10
70.723619199281984
 20
112.57469298924821
 30
0.0
 11
70.280800730259784
 21
112.91715079994781
 31
0.0
  0
LINE
  5
51CE
  8
MODEL
 10
70.823979857604627
 20
111.7894167095268
 30
0.0
 11
70.381161388582541
 21
112.13187452022611
 31
0.0
  0
LINE
  5
51CF
  8
MODEL
 10
70.381161388582541
 20
112.13187452022611
 30
0.0
 11
70.723619199281984
 21
112.57469298924821
 31
0.0
  0
LINE
  5
51D0
  8
MODEL
 10
70.481522046905184
 20
111.3465982405047
 30
0.0
 11
70.823979857604627
 21
111.7894167095268
 31
0.0
  0
LINE
  5
51D1
  8
MODEL
 10
71.024701174249913
 20
110.2188641500835
 30
0.0
 11
70.58188270522794
 21
110.5613219607831
 31
0.0
  0
LINE
  5
51D2
  8
MODEL
 10
70.58188270522794
 20
110.5613219607831
 30
0.0
 11
70.92434051592727
 21
111.0041404298051
 31
0.0
  0
LINE
  5
51D3
  8
MODEL
 10
70.92434051592727
 20
111.0041404298051
 30
0.0
 11
70.481522046905184
 21
111.3465982405047
 31
0.0
  0
LINE
  5
51D4
  8
MODEL
 10
70.682243363550469
 20
109.7760456810616
 30
0.0
 11
71.024701174249913
 21
110.2188641500835
 31
0.0
  0
LINE
  5
51D5
  8
MODEL
 10
71.125061832572655
 20
109.4335878703622
 30
0.0
 11
70.682243363550469
 21
109.7760456810616
 31
0.0
  0
LINE
  5
51D6
  8
MODEL
 10
71.225422490895184
 20
108.6483115906408
 30
0.0
 11
70.782604021873226
 21
108.99076940134
 31
0.0
  0
LINE
  5
51D7
  8
MODEL
 10
70.782604021873226
 20
108.99076940134
 30
0.0
 11
71.125061832572655
 21
109.4335878703622
 31
0.0
  0
LINE
  5
51D8
  8
MODEL
 10
70.882964680195869
 20
108.2054931216186
 30
0.0
 11
71.225422490895184
 21
108.6483115906408
 31
0.0
  0
LINE
  5
51D9
  8
MODEL
 10
71.426143807540598
 20
107.0777590311975
 30
0.0
 11
70.983325338518512
 21
107.4202168418969
 31
0.0
  0
LINE
  5
51DA
  8
MODEL
 10
70.983325338518512
 20
107.4202168418969
 30
0.0
 11
71.325783149217955
 21
107.863035310919
 31
0.0
  0
LINE
  5
51DB
  8
MODEL
 10
71.325783149217955
 20
107.863035310919
 30
0.0
 11
70.882964680195869
 21
108.2054931216186
 31
0.0
  0
LINE
  5
51DC
  8
MODEL
 10
70.213795416102585
 20
105.4980083459065
 30
0.0
 11
70.719291299409974
 21
105.4980083459065
 31
0.0
  0
LINE
  5
51DD
  8
MODEL
 10
82.319291299409997
 20
122.0079950376461
 30
0.0
 11
82.319291299409997
 21
121.8198088693522
 31
0.0
  0
ARC
  5
51DE
  8
MODEL
 10
77.519291299409929
 20
121.9980083459066
 30
0.0
 40
2.0
 50
0.0
 51
90.0
  0
ARC
  5
51DF
  8
MODEL
 10
78.319291299409883
 20
106.2980083459065
 30
0.0
 40
0.8
 50
172.7169097205184
 51
270.0
  0
LINE
  5
51E0
  8
MODEL
 10
77.612438791279374
 20
107.0777590311976
 30
0.0
 11
77.525745779404019
 21
106.39942583788149
 31
0.0
  0
LINE
  5
51E1
  8
MODEL
 10
82.319291299409997
 20
121.8198088693525
 30
0.0
 11
80.411878222729214
 21
106.89517336195649
 31
0.0
  0
ARC
  5
51E2
  8
MODEL
 10
78.824787182717273
 20
107.09800834590651
 30
0.0
 40
1.6000000000000001
 50
270.0
 51
352.7169097205184
  0
ARC
  5
51E3
  8
MODEL
 10
77.519291299409929
 20
122.0079950376461
 30
0.0
 40
4.7999999999999989
 50
0.0
 51
64.09398817551795
  0
LINE
  5
51E4
  8
MODEL
 10
79.418930641087286
 20
121.212732066185
 30
0.0
 11
79.861749110109486
 21
121.5551898768842
 31
0.0
  0
LINE
  5
51E5
  8
MODEL
 10
79.861749110109486
 20
121.5551898768842
 30
0.0
 11
79.519291299409915
 21
121.9980083459065
 31
0.0
  0
LINE
  5
51E6
  8
MODEL
 10
79.761388451786729
 20
120.7699135971631
 30
0.0
 11
79.418930641087286
 21
121.212732066185
 31
0.0
  0
LINE
  5
51E7
  8
MODEL
 10
79.218209324442
 20
119.6421795067418
 30
0.0
 11
79.661027793464086
 21
119.9846373174414
 31
0.0
  0
LINE
  5
51E8
  8
MODEL
 10
79.661027793464086
 20
119.9846373174414
 30
0.0
 11
79.318569982764643
 21
120.4274557864635
 31
0.0
  0
LINE
  5
51E9
  8
MODEL
 10
79.318569982764643
 20
120.4274557864635
 30
0.0
 11
79.761388451786729
 21
120.7699135971631
 31
0.0
  0
LINE
  5
51EA
  8
MODEL
 10
79.560667135141315
 20
119.1993610377198
 30
0.0
 11
79.218209324442
 21
119.6421795067418
 31
0.0
  0
LINE
  5
51EB
  8
MODEL
 10
79.117848666119343
 20
118.8569032270206
 30
0.0
 11
79.560667135141315
 21
119.1993610377198
 31
0.0
  0
LINE
  5
51EC
  8
MODEL
 10
79.017488007796601
 20
118.07162694729899
 30
0.0
 11
79.460306476818801
 21
118.4140847579984
 31
0.0
  0
LINE
  5
51ED
  8
MODEL
 10
79.460306476818801
 20
118.4140847579984
 30
0.0
 11
79.117848666119244
 21
118.8569032270206
 31
0.0
  0
LINE
  5
51EE
  8
MODEL
 10
79.359945818496044
 20
117.62880847827689
 30
0.0
 11
79.017488007796601
 21
118.07162694729899
 31
0.0
  0
LINE
  5
51EF
  8
MODEL
 10
78.816766691151315
 20
116.5010743878557
 30
0.0
 11
79.259585160173401
 21
116.84353219855529
 31
0.0
  0
LINE
  5
51F0
  8
MODEL
 10
79.259585160173401
 20
116.84353219855529
 30
0.0
 11
78.917127349474072
 21
117.2863506675773
 31
0.0
  0
LINE
  5
51F1
  8
MODEL
 10
78.917127349474072
 20
117.2863506675773
 30
0.0
 11
79.359945818496044
 21
117.62880847827689
 31
0.0
  0
LINE
  5
51F2
  8
MODEL
 10
79.159224501850758
 20
116.05825591883379
 30
0.0
 11
78.816766691151315
 21
116.5010743878557
 31
0.0
  0
LINE
  5
51F3
  8
MODEL
 10
78.716406032828544
 20
115.71579810813429
 30
0.0
 11
79.159224501850758
 21
116.05825591883379
 31
0.0
  0
LINE
  5
51F4
  8
MODEL
 10
78.616045374506015
 20
114.93052182841291
 30
0.0
 11
79.058863843528002
 21
115.27297963911219
 31
0.0
  0
LINE
  5
51F5
  8
MODEL
 10
79.058863843528002
 20
115.27297963911219
 30
0.0
 11
78.716406032828544
 21
115.71579810813429
 31
0.0
  0
LINE
  5
51F6
  8
MODEL
 10
78.958503185205359
 20
114.48770335939069
 30
0.0
 11
78.616045374506015
 21
114.93052182841291
 31
0.0
  0
LINE
  5
51F7
  8
MODEL
 10
78.41532405786063
 20
113.35996926896961
 30
0.0
 11
78.858142526882716
 21
113.70242707966911
 31
0.0
  0
LINE
  5
51F8
  8
MODEL
 10
78.858142526882716
 20
113.70242707966911
 30
0.0
 11
78.515684716183273
 21
114.14524554869131
 31
0.0
  0
LINE
  5
51F9
  8
MODEL
 10
78.515684716183273
 20
114.14524554869131
 30
0.0
 11
78.958503185205359
 21
114.48770335939069
 31
0.0
  0
LINE
  5
51FA
  8
MODEL
 10
78.757781868560073
 20
112.91715079994781
 30
0.0
 11
78.41532405786063
 21
113.35996926896961
 31
0.0
  0
LINE
  5
51FB
  8
MODEL
 10
78.314963399537973
 20
112.57469298924821
 30
0.0
 11
78.757781868560073
 21
112.91715079994781
 31
0.0
  0
LINE
  5
51FC
  8
MODEL
 10
78.214602741215231
 20
111.7894167095268
 30
0.0
 11
78.657421210237317
 21
112.13187452022611
 31
0.0
  0
LINE
  5
51FD
  8
MODEL
 10
78.657421210237317
 20
112.13187452022611
 30
0.0
 11
78.314963399537973
 21
112.57469298924821
 31
0.0
  0
LINE
  5
51FE
  8
MODEL
 10
78.557060551914674
 20
111.3465982405047
 30
0.0
 11
78.214602741215231
 21
111.7894167095268
 31
0.0
  0
LINE
  5
51FF
  8
MODEL
 10
78.013881424570059
 20
110.2188641500835
 30
0.0
 11
78.456699893592031
 21
110.5613219607831
 31
0.0
  0
LINE
  5
5200
  8
MODEL
 10
78.456699893592031
 20
110.5613219607831
 30
0.0
 11
78.114242082892588
 21
111.0041404298051
 31
0.0
  0
LINE
  5
5201
  8
MODEL
 10
78.114242082892588
 20
111.0041404298051
 30
0.0
 11
78.557060551914674
 21
111.3465982405047
 31
0.0
  0
LINE
  5
5202
  8
MODEL
 10
78.356339235269374
 20
109.7760456810616
 30
0.0
 11
78.013881424570059
 21
110.2188641500835
 31
0.0
  0
LINE
  5
5203
  8
MODEL
 10
77.913520766247174
 20
109.4335878703622
 30
0.0
 11
78.356339235269374
 21
109.7760456810616
 31
0.0
  0
LINE
  5
5204
  8
MODEL
 10
77.813160107924645
 20
108.6483115906408
 30
0.0
 11
78.255978576946745
 21
108.99076940134
 31
0.0
  0
LINE
  5
5205
  8
MODEL
 10
78.255978576946745
 20
108.99076940134
 30
0.0
 11
77.913520766247174
 21
109.4335878703622
 31
0.0
  0
LINE
  5
5206
  8
MODEL
 10
78.155617918623989
 20
108.2054931216186
 30
0.0
 11
77.813160107924645
 21
108.6483115906408
 31
0.0
  0
LINE
  5
5207
  8
MODEL
 10
77.61243879127926
 20
107.0777590311975
 30
0.0
 11
78.055257260301346
 21
107.4202168418969
 31
0.0
  0
LINE
  5
5208
  8
MODEL
 10
78.055257260301346
 20
107.4202168418969
 30
0.0
 11
77.712799449601903
 21
107.863035310919
 31
0.0
  0
LINE
  5
5209
  8
MODEL
 10
77.712799449601903
 20
107.863035310919
 30
0.0
 11
78.155617918623989
 21
108.2054931216186
 31
0.0
  0
LINE
  5
520A
  8
MODEL
 10
78.824787182717273
 20
105.4980083459065
 30
0.0
 11
78.319291299409883
 21
105.4980083459065
 31
0.0
  0
LINE
  5
520C
  8
CENTER
 10
74.519291299409915
 20
132.4980083459065
 30
0.0
 11
74.519291299409915
 21
102.9980083459064
 31
0.0
  0
TEXT
  5
52E8
  8
TEXT
 10
67.675694764087027
 20
87.381037944288437
 30
0.0
 40
2.5
  1
Ｓ＝１／１
  0
TEXT
  5
52E9
  8
DIMS
 62
     7
 10
163.10356930898001
 20
186.98424492072661
 30
0.0
 40
2.500000215322046
  1
本体
  0
SOLID
  5
52EA
  8
DIMS
 10
154.7801878925608
 20
178.9064511335927
 30
0.0
 11
153.25227450425609
 21
177.57356235461651
 31
0.0
 12
154.2653097270385
 22
179.3299425687739
 32
0.0
 13
154.2653097270385
 23
179.3299425687739
 33
0.0
1001
ACAD
1000
DSTYLE
1002
{
1070
     5
1000

1070
    40
1040
1.0000000861288181
1002
}
  0
LINE
  5
52EE
  8
DIMS
 10
150.4272745042561
 20
227.5735623546164
 30
0.0
 11
142.80227450425619
 21
227.5735623546164
 31
0.0
  0
LINE
  5
52EF
  8
DIMS
 10
150.4272745042561
 20
127.5735623546164
 30
0.0
 11
142.8022745042561
 21
127.5735623546164
 31
0.0
  0
LINE
  5
52F0
  8
DIMS
 10
144.05227450425619
 20
225.5735623546164
 30
0.0
 11
144.0522745042561
 21
129.5735623546164
 31
0.0
  0
SOLID
  5
52F1
  8
DIMS
 10
143.71894117092279
 20
225.5735623546164
 30
0.0
 11
144.3856078375895
 21
225.5735623546164
 31
0.0
 12
144.05227450425619
 22
227.5735623546164
 32
0.0
 13
144.05227450425619
 23
227.5735623546164
 33
0.0
  0
SOLID
  5
52F2
  8
DIMS
 10
143.71894117092279
 20
129.5735623546164
 30
0.0
 11
144.3856078375895
 21
129.5735623546164
 31
0.0
 12
144.0522745042561
 22
127.5735623546164
 32
0.0
 13
144.0522745042561
 23
127.5735623546164
 33
0.0
  0
TEXT
  5
52F4
  8
TEXT
 10
137.04677245191581
 20
86.221821837175114
 30
0.0
 40
2.5
  1
立面図　Ｓ＝１／１０
  0
LINE
  5
52F5
  8
DIMS
 10
71.894291299410099
 20
229.5954656436185
 30
0.0
 11
50.669291299410013
 21
229.5954656436185
 31
0.0
  0
LINE
  5
52F6
  8
DIMS
 10
73.894291299409986
 20
240.5954656436187
 30
0.0
 11
50.669291299410013
 21
240.5954656436187
 31
0.0
  0
LINE
  5
52F7
  8
DIMS
 10
51.919291299410013
 20
231.5954656436185
 30
0.0
 11
51.919291299410013
 21
238.5954656436187
 31
0.0
  0
SOLID
  5
52F8
  8
DIMS
 10
51.58595796607667
 20
231.5954656436185
 30
0.0
 11
52.252624632743348
 21
231.5954656436185
 31
0.0
 12
51.919291299410013
 22
229.5954656436185
 32
0.0
 13
51.919291299410013
 23
229.5954656436185
 33
0.0
  0
SOLID
  5
52F9
  8
DIMS
 10
51.58595796607667
 20
238.5954656436187
 30
0.0
 11
52.252624632743348
 21
238.5954656436187
 31
0.0
 12
51.919291299410013
 22
240.5954656436187
 32
0.0
 13
51.919291299410013
 23
240.5954656436187
 33
0.0
  0
LINE
  5
52FB
  8
DIMS
 10
80.827075184188686
 20
200.70556213613941
 30
0.0
 11
78.811838079925963
 21
184.93725289584029
 31
0.0
  0
LINE
  5
52FC
  8
DIMS
 10
86.381893824230247
 20
199.99563969231431
 30
0.0
 11
84.366656719967509
 21
184.22733045201531
 31
0.0
  0
LINE
  5
52FD
  8
DIMS
 10
80.954166711151757
 20
185.9236240409121
 30
0.0
 11
82.541257751163613
 21
185.7207890569621
 31
0.0
  0
SOLID
  5
52FE
  8
DIMS
 10
80.996423999474686
 20
186.2542680075812
 30
0.0
 11
80.911909422828828
 21
185.592980074243
 31
0.0
 12
78.970302911136912
 22
186.17716777084959
 32
0.0
 13
78.970302911136912
 23
186.17716777084959
 33
0.0
  0
SOLID
  5
52FF
  8
DIMS
 10
82.583515039486514
 20
186.05143302363129
 30
0.0
 11
82.499000462840684
 21
185.39014509029289
 31
0.0
 12
84.525121551178458
 22
185.46724532702461
 32
0.0
 13
84.525121551178458
 23
185.46724532702461
 33
0.0
  0
LINE
  5
5301
  8
DIMS
 10
64.519291299410099
 20
228.97046564361889
 30
0.0
 11
64.519291299410099
 21
221.34546564361841
 31
0.0
  0
LINE
  5
5302
  8
DIMS
 10
84.519291299409758
 20
228.97046564361889
 30
0.0
 11
84.519291299409758
 21
221.34546564361841
 31
0.0
  0
LINE
  5
5303
  8
DIMS
 10
66.519291299410085
 20
222.5954656436185
 30
0.0
 11
82.519291299409744
 21
222.5954656436185
 31
0.0
  0
SOLID
  5
5304
  8
DIMS
 10
66.519291299410085
 20
222.92879897695181
 30
0.0
 11
66.519291299410085
 21
222.2621323102851
 31
0.0
 12
64.519291299410099
 22
222.5954656436185
 32
0.0
 13
64.519291299410099
 23
222.5954656436185
 33
0.0
  0
SOLID
  5
5305
  8
DIMS
 10
82.519291299409744
 20
222.92879897695181
 30
0.0
 11
82.519291299409744
 21
222.2621323102851
 31
0.0
 12
84.519291299409758
 22
222.5954656436185
 32
0.0
 13
84.519291299409758
 23
222.5954656436185
 33
0.0
  0
LINE
  5
5307
  8
DIMS
 10
73.894291299409986
 20
240.5954656436187
 30
0.0
 11
45.66929129940997
 21
240.59546564361881
 31
0.0
  0
LINE
  5
5308
  8
DIMS
 10
65.283299532795297
 20
196.59546564361881
 30
0.0
 11
45.669291299409963
 21
196.59546564361881
 31
0.0
  0
LINE
  5
5309
  8
DIMS
 10
46.91929129940997
 20
238.59546564361881
 30
0.0
 11
46.919291299409963
 21
198.59546564361881
 31
0.0
  0
SOLID
  5
530A
  8
DIMS
 10
46.585957966076627
 20
238.59546564361881
 30
0.0
 11
47.252624632743299
 21
238.59546564361881
 31
0.0
 12
46.91929129940997
 22
240.59546564361881
 32
0.0
 13
46.91929129940997
 23
240.59546564361881
 33
0.0
  0
SOLID
  5
530B
  8
DIMS
 10
46.58595796607662
 20
198.59546564361881
 30
0.0
 11
47.252624632743291
 21
198.59546564361881
 31
0.0
 12
46.919291299409963
 22
196.59546564361881
 32
0.0
 13
46.919291299409963
 23
196.59546564361881
 33
0.0
  0
LINE
  5
530D
  8
DIMS
 10
58.919291299409977
 20
230.24043902709801
 30
0.0
 11
58.919291299409977
 21
248.8454656436187
 31
0.0
  0
LINE
  5
530E
  8
DIMS
 10
90.119291299410037
 20
230.24043902709801
 30
0.0
 11
90.119291299410037
 21
248.8454656436187
 31
0.0
  0
LINE
  5
530F
  8
DIMS
 10
60.919291299409977
 20
247.5954656436187
 30
0.0
 11
88.119291299410037
 21
247.5954656436187
 31
0.0
  0
SOLID
  5
5310
  8
DIMS
 10
60.919291299409977
 20
247.92879897695201
 30
0.0
 11
60.919291299409977
 21
247.2621323102853
 31
0.0
 12
58.919291299409977
 22
247.5954656436187
 32
0.0
 13
58.919291299409977
 23
247.5954656436187
 33
0.0
  0
SOLID
  5
5311
  8
DIMS
 10
88.119291299410037
 20
247.92879897695201
 30
0.0
 11
88.119291299410037
 21
247.2621323102853
 31
0.0
 12
90.119291299410037
 22
247.5954656436187
 32
0.0
 13
90.119291299410037
 23
247.5954656436187
 33
0.0
  0
TEXT
  5
5313
  8
TITLE
 10
33.916666666666693
 20
25.183981718735598
 30
0.0
 40
2.5
  1
色：ＹＭ－１３（ライトグレー）
  0
TEXT
  5
5314
  8
TITLE
 10
33.916666666666693
 20
21.01731505206893
 30
0.0
 40
2.5
  1
　　ＹＭ－４０（クロームイエロー）
  0
TEXT
  5
5315
  8
TITLE
 10
81.708333333333343
 20
47.916666666666629
 30
0.0
 40
2.5
  1
軟質塩ビ
  0
LINE
  5
5316
  8
DEFPOINTS
 10
0.0
 20
0.0
 30
0.0
 11
210.0
 21
0.0
 31
0.0
  0
LINE
  5
5317
  8
DEFPOINTS
 10
210.0
 20
0.0
 30
0.0
 11
210.0
 21
297.0
 31
0.0
  0
LINE
  5
5318
  8
DEFPOINTS
 10
210.0
 20
297.0
 30
0.0
 11
0.0
 21
297.0
 31
0.0
  0
LINE
  5
5319
  8
DEFPOINTS
 10
0.0
 20
297.0
 30
0.0
 11
0.0
 21
0.0
 31
0.0
  0
TEXT
  5
531A
  8
TITLE
 10
170.5199852135498
 20
48.828796392541342
 30
0.0
 40
2.5
  1
日付
  0
TEXT
  5
531B
  8
TITLE
 10
167.125
 20
63.675497065706622
 30
0.0
 40
2.5
  1
図  面  番  号
  0
TEXT
  5
531C
  8
TITLE
 10
167.20833333333329
 20
56.25
 30
0.0
 40
2.5
  1
６Ｓ－０５０３
  0
TEXT
  5
531D
  8
TITLE
 10
173.20833333333329
 20
44.244047619047592
 30
0.0
 40
2.5
  1
Ｈ２４．９．１３
  0
TEXT
  5
531E
  8
TITLE
 10
140.8533185468832
 20
48.828796392541342
 30
0.0
 40
2.5
  1
仕上
  0
TEXT
  5
531F
  8
TITLE
 10
110.8533185468832
 20
48.828796392541342
 30
0.0
 40
2.5
  1
縮尺
  0
TEXT
  5
5320
  8
TITLE
 10
122.0416666666666
 20
63.675497065706622
 30
0.0
 40
2.5
  1
タ    イ    プ
  0
TEXT
  5
5321
  8
TITLE
 10
119.375
 20
56.25
 30
0.0
 40
2.5
  1
ＹＭＨＧ－０９１０
  0
TEXT
  5
5322
  8
TITLE
 10
66.903959893265423
 20
47.93739991761003
 30
0.0
 40
2.5
  1
材質
  0
TEXT
  5
5323
  8
TITLE
 10
77.291666666666671
 20
63.675497065706622
 30
0.0
 40
2.5
  1
群          別
  0
TEXT
  5
5324
  8
TITLE
 10
66.903959893265423
 20
41.270733250943287
 30
0.0
 40
2.5
  1
規格
  0
TEXT
  5
5325
  8
TITLE
 10
66.903959893265423
 20
34.604066584276673
 30
0.0
 40
2.5
  1
重量
  0
TEXT
  5
5326
  8
TITLE
 10
35.333333333333329
 20
56.25
 30
0.0
 40
2.5
  1
Ｈ鋼ガード
  0
TEXT
  5
5327
  8
TITLE
 10
23.422619047619051
 20
33.677403026748948
 30
0.0
 40
2.0
  1
3
  0
TEXT
  5
5328
  8
TITLE
 10
23.39038268634409
 20
38.634565554712367
 30
0.0
 40
2.0
  1
2
  0
LINE
  5
5329
  8
TITLE
 10
24.375
 20
42.0
 30
0.0
 11
22.20993649053889
 21
38.25
 31
0.0
  0
LINE
  5
532A
  8
TITLE
 10
22.20993649053889
 20
38.25
 30
0.0
 11
26.54006350946111
 21
38.25
 31
0.0
  0
LINE
  5
532B
  8
TITLE
 10
26.54006350946111
 20
38.25
 30
0.0
 11
24.375
 21
42.0
 31
0.0
  0
TEXT
  5
532C
  8
TITLE
 10
21.16555319691588
 20
28.739356149794158
 30
0.0
 40
2.5
  1
特記事項
  0
LINE
  5
532D
  8
TITLE
 10
24.375
 20
37.0
 30
0.0
 11
22.20993649053889
 21
33.25
 31
0.0
  0
LINE
  5
532E
  8
TITLE
 10
22.20993649053889
 20
33.25
 30
0.0
 11
26.54006350946111
 21
33.25
 31
0.0
  0
LINE
  5
532F
  8
TITLE
 10
26.54006350946111
 20
33.25
 30
0.0
 11
24.375
 21
37.0
 31
0.0
  0
TEXT
  5
5330
  8
TITLE
 10
23.433530944715631
 20
43.7605351667139
 30
0.0
 40
2.0
  1
1
  0
LINE
  5
5331
  8
TITLE
 10
24.375
 20
47.0
 30
0.0
 11
22.20993649053889
 21
43.25
 31
0.0
  0
LINE
  5
5332
  8
TITLE
 10
22.20993649053889
 20
43.25
 30
0.0
 11
26.54006350946111
 21
43.25
 31
0.0
  0
LINE
  5
5333
  8
TITLE
 10
26.54006350946111
 20
43.25
 30
0.0
 11
24.375
 21
47.0
 31
0.0
  0
TEXT
  5
5334
  8
TITLE
 10
32.416666666666671
 20
63.675497065706622
 30
0.0
 40
2.5
  1
品          名
  0
TEXT
  5
5335
  8
TITLE
 10
32.333333333333329
 20
48.675497065706622
 30
0.0
 40
2.5
  1
経          歴
  0
LINE
  5
5336
  8
TITLE
 10
20.0
 20
12.625
 30
0.0
 11
199.75
 21
12.625
 31
0.0
  0
LINE
  5
5337
  8
TITLE
 10
199.75
 20
12.625
 30
0.0
 11
199.75
 21
284.375
 31
0.0
  0
LINE
  5
5338
  8
TITLE
 10
199.75
 20
284.375
 30
0.0
 11
20.0
 21
284.375
 31
0.0
  0
LINE
  5
5339
  8
TITLE
 10
20.0
 20
284.375
 30
0.0
 11
20.0
 21
12.625
 31
0.0
  0
TEXT
  5
533A
  8
DIMS
 62
     7
 10
71.26036272798143
 20
248.2204656436187
 30
0.0
 40
2.5
  1
15.6
 41
0.75
  7
DIMS
  0
TEXT
  5
533B
  8
DIMS
 62
     7
 10
46.294291299409927
 20
216.8097513579045
 30
0.0
 40
2.5
  1
22
 50
90.0
 41
0.75
  7
DIMS
  0
TEXT
  5
533C
  8
DIMS
 62
     7
 10
72.599648442267068
 20
223.2204656436185
 30
0.0
 40
2.5
  1
10
 41
0.75
  7
DIMS
  0
TEXT
  5
533D
  8
DIMS
 62
     7
 10
79.612810941389441
 20
186.72513689931839
 30
0.0
 40
2.5
  1
2.8
 50
352.7169097205184
 41
0.75
  7
DIMS
  0
TEXT
  5
533E
  8
DIMS
 62
     7
 10
51.294291299409977
 20
232.86332278647581
 30
0.0
 40
2.5
  1
5.5
 50
90.0
 41
0.75
  7
DIMS
  0
TEXT
  5
533F
  8
DIMS
 62
     7
 10
143.4272745042561
 20
166.06463378318779
 30
0.0
 40
2.5
  1
定尺1000 ・ 1500
 50
90.0
 41
0.75
  7
DIMS
  0
LINE
  5
5340
  8
DIMS
 10
154.52274880979959
 20
179.11819685118331
 30
0.0
 11
160.4785690828918
 21
186.35924486689601
 31
0.0
1001
ACAD
1000
DSTYLE
1002
{
1070
     5
1000

1070
    40
1040
1.0000000861288181
1002
}
  0
LINE
  5
5341
  8
DIMS
 10
160.4785690828918
 20
186.35924486689601
 30
0.0
 11
169.0044983998848
 21
186.35924486689601
 31
0.0
1001
ACAD
1000
DSTYLE
1002
{
1070
     5
1000

1070
    40
1040
1.0000000861288181
1002
}
  0
ENDSEC
  0
EOF
