  0
SECTION
  2
HEADER
  9
$ACADVER
  1
AC1009
  9
$INSBASE
 10
0.0
 20
0.0
 30
0.0
  9
$EXTMIN
 10
-0.0156302086959386
 20
-0.024966037973627
 30
-0.0000000000000053
  9
$EXTMAX
 10
420.02308318772219
 20
594.00621100431704
 30
0.0000000000000099
  9
$LIMMIN
 10
0.0
 20
0.0
  9
$LIMMAX
 10
420.0
 20
297.0
  9
$ORTHOMODE
 70
     0
  9
$REGENMODE
 70
     1
  9
$FILLMODE
 70
     1
  9
$QTEXTMODE
 70
     0
  9
$MIRRTEXT
 70
     1
  9
$DRAGMODE
 70
     2
  9
$LTSCALE
 40
0.4
  9
$OSMODE
 70
    37
  9
$ATTMODE
 70
     1
  9
$TEXTSIZE
 40
2.5
  9
$TRACEWID
 40
1.0
  9
$TEXTSTYLE
  7
STANDARD
  9
$CLAYER
  8
0
  9
$CELTYPE
  6
BYLAYER
  9
$CECOLOR
 62
   256
  9
$DIMSCALE
 40
0.0
  9
$DIMASZ
 40
2.0
  9
$DIMEXO
 40
1.25
  9
$DIMDLI
 40
7.5
  9
$DIMRND
 40
0.0
  9
$DIMDLE
 40
0.0
  9
$DIMEXE
 40
1.25
  9
$DIMTP
 40
0.0
  9
$DIMTM
 40
0.0
  9
$DIMTXT
 40
2.5
  9
$DIMCEN
 40
0.0
  9
$DIMTSZ
 40
0.0
  9
$DIMTOL
 70
     0
  9
$DIMLIM
 70
     0
  9
$DIMTIH
 70
     0
  9
$DIMTOH
 70
     0
  9
$DIMSE1
 70
     0
  9
$DIMSE2
 70
     0
  9
$DIMTAD
 70
     1
  9
$DIMZIN
 70
     8
  9
$DIMBLK
  1

  9
$DIMASO
 70
     1
  9
$DIMSHO
 70
     1
  9
$DIMPOST
  1

  9
$DIMAPOST
  1

  9
$DIMALT
 70
     0
  9
$DIMALTD
 70
     3
  9
$DIMALTF
 40
0.03937007874016
  9
$DIMLFAC
 40
1.0
  9
$DIMTOFL
 70
     1
  9
$DIMTVP
 40
0.0
  9
$DIMTIX
 70
     0
  9
$DIMSOXD
 70
     0
  9
$DIMSAH
 70
     0
  9
$DIMBLK1
  1

  9
$DIMBLK2
  1

  9
$DIMSTYLE
  2
DIMS
  9
$DIMCLRD
 70
     0
  9
$DIMCLRE
 70
     0
  9
$DIMCLRT
 70
     7
  9
$DIMTFAC
 40
1.0
  9
$DIMGAP
 40
0.625
  9
$LUNITS
 70
     2
  9
$LUPREC
 70
     4
  9
$SKETCHINC
 40
1.0
  9
$FILLETRAD
 40
0.0
  9
$AUNITS
 70
     0
  9
$AUPREC
 70
     0
  9
$MENU
  1
.
  9
$ELEVATION
 40
0.0
  9
$PELEVATION
 40
0.0
  9
$THICKNESS
 40
0.0
  9
$LIMCHECK
 70
     0
  9
$BLIPMODE
 70
     0
  9
$CHAMFERA
 40
10.0
  9
$CHAMFERB
 40
10.0
  9
$SKPOLY
 70
     0
  9
$TDCREATE
 40
2451729.486387847
  9
$TDUPDATE
 40
2457383.6551279509
  9
$TDINDWG
 40
0.2144960532
  9
$TDUSRTIMER
 40
0.2144958796
  9
$USRTIMER
 70
     1
  9
$ANGBASE
 50
0.0
  9
$ANGDIR
 70
     0
  9
$PDMODE
 70
     0
  9
$PDSIZE
 40
0.0
  9
$PLINEWID
 40
0.0
  9
$COORDS
 70
     1
  9
$SPLFRAME
 70
     0
  9
$SPLINETYPE
 70
     6
  9
$SPLINESEGS
 70
     8
  9
$ATTDIA
 70
     1
  9
$ATTREQ
 70
     1
  9
$HANDLING
 70
     1
  9
$HANDSEED
  5
4822
  9
$SURFTAB1
 70
     6
  9
$SURFTAB2
 70
     6
  9
$SURFTYPE
 70
     6
  9
$SURFU
 70
     6
  9
$SURFV
 70
     6
  9
$UCSNAME
  2

  9
$UCSORG
 10
0.0
 20
0.0
 30
0.0
  9
$UCSXDIR
 10
1.0
 20
0.0
 30
0.0
  9
$UCSYDIR
 10
0.0
 20
1.0
 30
0.0
  9
$PUCSNAME
  2

  9
$PUCSORG
 10
0.0
 20
0.0
 30
0.0
  9
$PUCSXDIR
 10
1.0
 20
0.0
 30
0.0
  9
$PUCSYDIR
 10
0.0
 20
1.0
 30
0.0
  9
$USERI1
 70
     0
  9
$USERI2
 70
     0
  9
$USERI3
 70
     0
  9
$USERI4
 70
     0
  9
$USERI5
 70
     0
  9
$USERR1
 40
0.0
  9
$USERR2
 40
0.0
  9
$USERR3
 40
0.0
  9
$USERR4
 40
0.0
  9
$USERR5
 40
0.0
  9
$WORLDVIEW
 70
     1
  9
$SHADEDGE
 70
     3
  9
$SHADEDIF
 70
    70
  9
$TILEMODE
 70
     1
  9
$MAXACTVP
 70
    48
  9
$PLIMCHECK
 70
     0
  9
$PEXTMIN
 10
0.0
 20
0.0
 30
0.0
  9
$PEXTMAX
 10
0.0
 20
0.0
 30
0.0
  9
$PLIMMIN
 10
0.0
 20
0.0
  9
$PLIMMAX
 10
12.0
 20
9.0
  9
$UNITMODE
 70
     0
  9
$VISRETAIN
 70
     1
  9
$PLINEGEN
 70
     0
  9
$PSLTSCALE
 70
     0
  0
ENDSEC
  0
SECTION
  2
TABLES
  0
TABLE
  2
VPORT
 70
     1
  0
VPORT
  2
*ACTIVE
 70
     0
 10
0.0
 20
0.0
 11
1.0
 21
1.0
 12
210.0037264895131
 22
296.99062248317171
 13
0.0
 23
0.0
 14
10.0
 24
10.0
 15
10.0
 25
10.0
 16
0.0
 26
0.0
 36
1.0
 17
0.0
 27
0.0
 37
0.0
 40
598.57733400945096
 41
1.601532567049808
 42
50.0
 43
0.0
 44
0.0
 50
0.0
 51
0.0
 71
     0
 72
   100
 73
     1
 74
     3
 75
     0
 76
     0
 77
     0
 78
     0
  0
ENDTAB
  0
TABLE
  2
LTYPE
 70
     4
  0
LTYPE
  2
CONTINUOUS
 70
     0
  3
Solid line
 72
    65
 73
     0
 40
0.0
  0
LTYPE
  2
HIDDEN2
 70
     0
  3
Hidden (.5x) _ _ _ _ _ _ _ _ _ _ _ _ _ _ _ _ _
 72
    65
 73
     2
 40
4.7624999999999993
 49
3.174999999999998
 49
-1.587499999999999
  0
LTYPE
  2
CENTER2
 70
     0
  3
Center (.5x) ___ _ ___ _ ___ _ ___ _ ___ _ ___
 72
    65
 73
     4
 40
28.574999999999999
 49
19.050000000000001
 49
-3.174999999999998
 49
3.174999999999998
 49
-3.174999999999998
  0
ENDTAB
  0
TABLE
  2
LAYER
 70
     9
  0
LAYER
  2
0
 70
     0
 62
     7
  6
CONTINUOUS
  0
LAYER
  2
MODEL
 70
     0
 62
     7
  6
CONTINUOUS
  0
LAYER
  2
DIMS
 70
     0
 62
     1
  6
CONTINUOUS
  0
LAYER
  2
HIDDEN
 70
     0
 62
     9
  6
HIDDEN2
  0
LAYER
  2
CENTER
 70
     0
 62
     6
  6
CENTER2
  0
LAYER
  2
TITLE
 70
     0
 62
     7
  6
CONTINUOUS
  0
LAYER
  2
TEXT
 70
     0
 62
     7
  6
CONTINUOUS
  0
LAYER
  2
DEFPOINTS
 70
     0
 62
     7
  6
CONTINUOUS
  0
LAYER
  2
DIMS20
 70
     0
 62
     1
  6
CONTINUOUS
  0
ENDTAB
  0
TABLE
  2
STYLE
 70
     3
  0
STYLE
  2
STANDARD
 70
     0
 40
0.0
 41
1.0
 50
0.0
 71
     0
 42
2.5
  3
romans.shx
  4
bigfont.shx
  0
STYLE
  2
DIMS
 70
     0
 40
0.0
 41
0.75
 50
0.0
 71
     0
 42
2.5
  3
romans.shx
  4
bigfont.shx
  0
ENDTAB
  0
TABLE
  2
VIEW
 70
     1
  0
VIEW
  2
PRINT
 70
     1
 40
128.5
 10
98.875866602002347
 20
145.24226553880581
 41
88.0
 11
0.0
 21
0.0
 31
1.0
 12
0.0
 22
0.0
 32
0.0
 42
50.0
 43
0.0
 44
0.0
 50
0.0
 71
     0
  0
ENDTAB
  0
TABLE
  2
UCS
 70
     0
  0
ENDTAB
  0
TABLE
  2
APPID
 70
     7
  0
APPID
  2
ACAD
 70
     0
  0
APPID
  2
ACADANNOTATIVE
 70
     0
  0
APPID
  2
ACAD_MLEADERVER
 70
     0
  0
APPID
  2
ACAD_EXEMPT_FROM_CAD_STANDARDS
 70
     0
  0
APPID
  2
ACAD_PSEXT
 70
     0
  0
APPID
  2
ACAD_DSTYLE_DIMRADIAL_EXTENSION
 70
     0
  0
APPID
  2
ACAD_NAV_VCDISPLAY
 70
     0
  0
ENDTAB
  0
TABLE
  2
DIMSTYLE
 70
     4
  0
DIMSTYLE
  2
STANDARD
 70
     0
  3

  4

  5

  6

  7

 40
1.0
 41
0.18
 42
0.0625
 43
0.38
 44
0.18
 45
0.0
 46
0.0
 47
0.0
 48
0.0
140
0.18
141
0.09
142
0.0
143
25.399999999999999
144
1.0
145
0.0
146
1.0
147
0.09
 71
     0
 72
     0
 73
     1
 74
     1
 75
     0
 76
     0
 77
     0
 78
     0
170
     0
171
     2
172
     0
173
     0
174
     0
175
     0
176
     0
177
     0
178
     0
  0
DIMSTYLE
  2
DIMS
 70
     0
  3

  4

  5

  6

  7

 40
0.0
 41
2.0
 42
1.25
 43
7.5
 44
1.25
 45
0.0
 46
0.0
 47
0.0
 48
0.0
140
2.5
141
0.0
142
0.0
143
0.03937007874016
144
1.0
145
0.0
146
1.0
147
0.625
 71
     0
 72
     0
 73
     0
 74
     0
 75
     0
 76
     0
 77
     1
 78
     8
170
     0
171
     3
172
     1
173
     0
174
     0
175
     0
176
     0
177
     0
178
     7
  0
ENDTAB
  0
ENDSEC
  0
SECTION
  2
BLOCKS
  0
BLOCK
  8
0
  2
$MODEL_SPACE
 70
     0
 10
0.0
 20
0.0
 30
0.0
  3
$MODEL_SPACE
  1

  0
ENDBLK
  5
4717
  8
0
  0
BLOCK
 67
     1
  8
0
  2
$PAPER_SPACE
 70
     0
 10
0.0
 20
0.0
 30
0.0
  3
$PAPER_SPACE
  1

  0
ENDBLK
  5
4713
 67
     1
  8
0
  0
BLOCK
  8
0
  2
*U46
 70
     1
 10
0.0
 20
0.0
 30
0.0
  3
*U46
  1

  0
TEXT
  5
4650
  8
DIMS
 62
     7
 10
234.71822100452709
 20
480.97382725835507
 30
0.0
 40
4.9999999963419981
  1
R35
 50
44.26287372394868
 41
0.75
  7
DIMS
  0
ENDBLK
  5
4652
  8
0
  0
BLOCK
  8
0
  2
*U47
 70
     1
 10
0.0
 20
0.0
 30
0.0
  3
*U47
  1

  0
TEXT
  5
4654
  8
DIMS
 62
     7
 10
154.00000000091441
 20
467.19509428095432
 30
0.0
 40
4.9999999963419981
  1
70\U+00B12
 50
90.0
 41
0.75
  7
DIMS
  0
ENDBLK
  5
4656
  8
0
  0
BLOCK
  8
0
  2
*U48
 70
     1
 10
0.0
 20
0.0
 30
0.0
  3
*U48
  1

  0
TEXT
  5
4658
  8
DIMS
 62
     7
 10
169.00000000091441
 20
419.80223714716362
 30
0.0
 40
4.9999999963419981
  1
12\U+00B12
 50
90.0
 41
0.75
  7
DIMS
  0
ENDBLK
  5
465A
  8
0
  0
BLOCK
  8
0
  2
*U49
 70
     1
 10
0.0
 20
0.0
 30
0.0
  3
*U49
  1

  0
TEXT
  5
465C
  8
DIMS
 62
     7
 10
169.00000000091441
 20
465.37366571085818
 30
0.0
 40
4.9999999963419981
  1
\U+03C620\U+00B11
 50
90.0
 41
0.75
  7
DIMS
  0
ENDBLK
  5
465E
  8
0
  0
BLOCK
  8
0
  2
*U50
 70
     1
 10
0.0
 20
0.0
 30
0.0
  3
*U50
  1

  0
TEXT
  5
4660
  8
DIMS
 62
     7
 10
169.00000000091441
 20
514.05223712942245
 30
0.0
 40
4.9999999963419981
  1
12\U+00B12
 50
90.0
 41
0.75
  7
DIMS
  0
ENDBLK
  5
4662
  8
0
  0
BLOCK
  8
0
  2
*U51
 70
     1
 10
0.0
 20
0.0
 30
0.0
  3
*U51
  1

  0
TEXT
  5
4664
  8
DIMS
 62
     7
 10
222.57142857704611
 20
411.13226064325761
 30
0.0
 40
4.9999999963419981
  1
70\U+00B12
 41
0.75
  7
DIMS
  0
ENDBLK
  5
4666
  8
0
  0
BLOCK
  8
0
  2
*U52
 70
     1
 10
0.0
 20
0.0
 30
0.0
  3
*U52
  1

  0
TEXT
  5
4668
  8
DIMS
 62
     7
 10
270.90378268202568
 20
421.12366570299332
 30
0.0
 40
4.9999999963419981
  1
12\U+00B12
 41
0.75
  7
DIMS
  0
ENDBLK
  5
466A
  8
0
  0
BLOCK
  8
0
  2
*U53
 70
     1
 10
0.0
 20
0.0
 30
0.0
  3
*U53
  1

  0
TEXT
  5
466C
  8
DIMS
 62
     7
 10
226.67857143118431
 20
421.12366570299332
 30
0.0
 40
4.9999999963419981
  1
46
 41
0.75
  7
DIMS
  0
ENDBLK
  5
466E
  8
0
  0
BLOCK
  8
0
  2
*U54
 70
     1
 10
0.0
 20
0.0
 30
0.0
  3
*U54
  1

  0
TEXT
  5
4670
  8
DIMS
 62
     7
 10
174.63816214816779
 20
421.12366570299332
 30
0.0
 40
4.9999999963419981
  1
12\U+00B12
 41
0.75
  7
DIMS
  0
ENDBLK
  5
4672
  8
0
  0
BLOCK
  8
0
  2
*U55
 70
     1
 10
0.0
 20
0.0
 30
0.0
  3
*U55
  1

  0
TEXT
  5
4674
  8
DIMS
 62
     7
 10
294.0000000009145
 20
465.37366571085818
 30
0.0
 40
4.9999999963419981
  1
\U+03C628\U+00B11
 50
90.0
 41
0.75
  7
DIMS
  0
ENDBLK
  5
4676
  8
0
  0
BLOCK
  8
0
  2
*U56
 70
     1
 10
0.0
 20
0.0
 30
0.0
  3
*U56
  1

  0
TEXT
  5
4678
  8
DIMS20
 62
     7
 10
332.34241578093793
 20
260.9928442472127
 30
0.0
 40
5.0
  1
38
 50
90.0
 41
0.75
  7
DIMS
  0
ENDBLK
  5
467A
  8
0
  0
BLOCK
  8
0
  2
*U57
 70
     1
 10
0.0
 20
0.0
 30
0.0
  3
*U57
  1

  0
TEXT
  5
467C
  8
DIMS20
 62
     7
 10
206.43170149522359
 20
262.11131670321129
 30
0.0
 40
5.0
  1
1970
 41
0.75
  7
DIMS
  0
ENDBLK
  5
467E
  8
0
  0
BLOCK
  8
0
  2
*U58
 70
     1
 10
0.0
 20
0.0
 30
0.0
  3
*U58
  1

  0
TEXT
  5
4680
  8
DIMS20
 62
     7
 10
332.59241578093793
 20
355.39585571942808
 30
0.0
 40
5.0
  1
70
 50
90.0
 41
0.75
  7
DIMS
  0
ENDBLK
  5
4682
  8
0
  0
BLOCK
  8
0
  2
*U59
 70
     1
 10
0.0
 20
0.0
 30
0.0
  3
*U59
  1

  0
TEXT
  5
4684
  8
DIMS20
 62
     7
 10
206.69955863808079
 20
305.51131670321138
 30
0.0
 40
5.0
  1
2000
 41
0.75
  7
DIMS
  0
ENDBLK
  5
4686
  8
0
  0
BLOCK
  8
0
  2
*U60
 70
     1
 10
0.0
 20
0.0
 30
0.0
  3
*U60
  1

  0
TEXT
  5
4688
  8
DIMS20
 62
     7
 10
323.4299034031942
 20
320.51131670321138
 30
0.0
 40
5.0
  1
100
 41
0.75
  7
DIMS
  0
ENDBLK
  5
468A
  8
0
  0
BLOCK
  8
0
  2
*U61
 70
     1
 10
0.0
 20
0.0
 30
0.0
  3
*U61
  1

  0
TEXT
  5
468C
  8
DIMS20
 62
     7
 10
275.98527292379509
 20
320.51131670321138
 30
0.0
 40
5.0
  1
450
 41
0.75
  7
DIMS
  0
ENDBLK
  5
468E
  8
0
  0
BLOCK
  8
0
  2
*U62
 70
     1
 10
0.0
 20
0.0
 30
0.0
  3
*U62
  1

  0
TEXT
  5
4690
  8
DIMS20
 62
     7
 10
230.98527292379509
 20
320.51131670321138
 30
0.0
 40
5.0
  1
450
 41
0.75
  7
DIMS
  0
ENDBLK
  5
4692
  8
0
  0
BLOCK
  8
0
  2
*U63
 70
     1
 10
0.0
 20
0.0
 30
0.0
  3
*U63
  1

  0
TEXT
  5
4694
  8
DIMS20
 62
     7
 10
185.98527292379501
 20
320.51131670321138
 30
0.0
 40
5.0
  1
450
 41
0.75
  7
DIMS
  0
ENDBLK
  5
4696
  8
0
  0
BLOCK
  8
0
  2
*U64
 70
     1
 10
0.0
 20
0.0
 30
0.0
  3
*U64
  1

  0
TEXT
  5
4698
  8
DIMS20
 62
     7
 10
140.98527292379501
 20
320.51131670321138
 30
0.0
 40
5.0
  1
450
 41
0.75
  7
DIMS
  0
ENDBLK
  5
469A
  8
0
  0
BLOCK
  8
0
  2
*U65
 70
     1
 10
0.0
 20
0.0
 30
0.0
  3
*U65
  1

  0
TEXT
  5
469C
  8
DIMS20
 62
     7
 10
93.418089705261053
 20
320.51131670321138
 30
0.0
 40
5.0
  1
100
 41
0.75
  7
DIMS
  0
ENDBLK
  5
469E
  8
0
  0
BLOCK
  8
0
  2
*U66
 70
     1
 10
0.0
 20
0.0
 30
0.0
  3
*U66
  1

  0
TEXT
  5
46A0
  8
DIMS
 62
     7
 10
216.17857139361601
 20
160.0593593012303
 30
0.0
 40
5.0000000489375163
  1
20
 41
0.75
  7
DIMS
  0
ENDBLK
  5
46A2
  8
0
  0
BLOCK
  8
0
  2
*U67
 70
     1
 10
0.0
 20
0.0
 30
0.0
  3
*U67
  1

  0
TEXT
  5
46A4
  8
DIMS
 62
     7
 10
252.09966207288929
 20
190.49657309659341
 30
0.0
 40
5.0000000489375163
  1
10
 50
90.0
 41
0.75
  7
DIMS
  0
ENDBLK
  5
46A6
  8
0
  0
ENDSEC
  0
SECTION
  2
ENTITIES
  0
LINE
  5
1ECE
  8
TITLE
 10
250.6764609656457
 20
82.20815824114446
 30
0.0
 11
244.8387403741217
 21
76.370437649619561
 31
0.0
  0
LINE
  5
1ECF
  8
TITLE
 10
248.23770289203549
 20
76.576048449149766
 30
0.0
 11
248.63597997492249
 21
76.974325532035422
 31
0.0
  0
LINE
  5
1ED0
  8
TITLE
 10
248.13766036327621
 20
76.65057566567566
 30
0.0
 11
248.4614102296382
 21
76.974325532035891
 31
0.0
  0
LINE
  5
1ED1
  8
TITLE
 10
248.33345317384641
 20
76.497228985621163
 30
0.0
 11
248.81054972026871
 21
76.974325532035891
 31
0.0
  0
LINE
  5
1ED2
  8
TITLE
 10
248.42497126901529
 20
76.414177335509521
 30
0.0
 11
248.98511946554939
 21
76.974325532035422
 31
0.0
  0
LINE
  5
1ED3
  8
TITLE
 10
239.5442068190705
 20
71.723086772641864
 30
0.0
 11
250.0292782875749
 21
82.20815824114446
 31
0.0
  0
LINE
  5
1ED4
  8
TITLE
 10
239.59483239386361
 20
71.5991426021385
 30
0.0
 11
250.2038480328674
 21
82.20815824114446
 31
0.0
  0
LINE
  5
1ED5
  8
TITLE
 10
239.64723506394881
 20
71.476975526930346
 30
0.0
 11
250.37841777816271
 21
82.20815824114446
 31
0.0
  0
LINE
  5
1ED6
  8
TITLE
 10
239.7013781899677
 20
71.356548907656816
 30
0.0
 11
250.55298752345789
 21
82.20815824114446
 31
0.0
  0
LINE
  5
1ED7
  8
TITLE
 10
239.3192420306959
 20
72.370970710750726
 30
0.0
 11
249.15642956111969
 21
82.20815824114446
 31
0.0
  0
LINE
  5
1ED8
  8
TITLE
 10
239.36031834466931
 20
72.237477279417362
 30
0.0
 11
249.33099930639759
 21
82.20815824114446
 31
0.0
  0
LINE
  5
1ED9
  8
TITLE
 10
239.40340539709541
 20
72.105994586548377
 30
0.0
 11
249.50556905169111
 21
82.20815824114446
 31
0.0
  0
LINE
  5
1EDA
  8
TITLE
 10
239.4484486897872
 20
71.976468133944991
 30
0.0
 11
249.6801387969854
 21
82.20815824114446
 31
0.0
  0
LINE
  5
1EDB
  8
TITLE
 10
239.1763082903999
 20
72.926315951624446
 30
0.0
 11
248.4581505799479
 21
82.20815824114446
 31
0.0
  0
LINE
  5
1EDC
  8
TITLE
 10
239.2086955201612
 20
72.784133436090769
 30
0.0
 11
248.63272032524131
 21
82.20815824114446
 31
0.0
  0
LINE
  5
1EDD
  8
TITLE
 10
239.24336343539019
 20
72.644231606031781
 30
0.0
 11
248.80729007052921
 21
82.20815824114446
 31
0.0
  0
LINE
  5
1EDE
  8
TITLE
 10
239.28023562014371
 20
72.506534045492344
 30
0.0
 11
248.9818598158235
 21
82.20815824114446
 31
0.0
  0
LINE
  5
1EDF
  8
TITLE
 10
239.4953979628354
 20
71.848847661700589
 30
0.0
 11
249.8547085422797
 21
82.20815824114446
 31
0.0
  0
LINE
  5
1EE0
  8
TITLE
 10
40.0
 20
135.0
 30
0.0
 11
399.5
 21
135.0
 31
0.0
  0
LINE
  5
1EE4
  8
TITLE
 10
219.75
 20
85.0
 30
0.0
 11
399.5
 21
85.0
 31
0.0
  0
LINE
  5
1EE5
  8
TITLE
 10
40.0
 20
105.0
 30
0.0
 11
399.5
 21
105.0
 31
0.0
  0
LINE
  5
1EE6
  8
TITLE
 10
40.0
 20
65.0
 30
0.0
 11
399.5
 21
65.0
 31
0.0
  0
LINE
  5
1EE7
  8
TITLE
 10
247.9210933158929
 20
67.007242372505289
 30
0.0
 11
254.2019356512337
 21
73.288084707838138
 31
0.0
  0
LINE
  5
1EE8
  8
TITLE
 10
248.13462381916
 20
67.046203130477579
 30
0.0
 11
254.1629748932618
 21
73.074554204571072
 31
0.0
  0
LINE
  5
1EE9
  8
TITLE
 10
248.356322792909
 20
67.093332358932685
 30
0.0
 11
254.11584566480809
 21
72.852855230832134
 31
0.0
  0
LINE
  5
1EEA
  8
TITLE
 10
245.02240137470929
 20
66.901666356001215
 30
0.0
 11
254.1618251716618
 21
76.041090152953728
 31
0.0
  0
LINE
  5
1EEB
  8
TITLE
 10
245.19697112000361
 20
66.901666356001215
 30
0.0
 11
254.1894289586325
 21
75.894124194629953
 31
0.0
  0
LINE
  5
1EEC
  8
TITLE
 10
245.3715408652906
 20
66.901666356001215
 30
0.0
 11
254.2144779248174
 21
75.744603415528445
 31
0.0
  0
LINE
  5
1EED
  8
TITLE
 10
245.54611061059131
 20
66.901666356001215
 30
0.0
 11
254.23686139897291
 21
75.592417144382566
 31
0.0
  0
LINE
  5
1EEE
  8
TITLE
 10
247.514925298723
 20
66.950213845909502
 30
0.0
 11
254.2589641778313
 21
73.694252725017563
 31
0.0
  0
LINE
  5
1EEF
  8
TITLE
 10
247.32089655822261
 20
66.930754850702897
 30
0.0
 11
254.27842317303839
 21
73.888281465518261
 31
0.0
  0
LINE
  5
1EF0
  8
TITLE
 10
247.71478199598999
 20
66.97550079788175
 30
0.0
 11
254.23367722585951
 21
73.494396027751023
 31
0.0
  0
LINE
  5
1EF1
  8
TITLE
 10
246.9483197506415
 20
66.907317533707555
 30
0.0
 11
254.3018604900335
 21
74.260858273103395
 31
0.0
  0
LINE
  5
1EF2
  8
TITLE
 10
247.13217445401821
 20
66.916602491790854
 30
0.0
 11
254.29257553195021
 21
74.077003569724425
 31
0.0
  0
LINE
  5
1EF3
  8
TITLE
 10
245.72068035588649
 20
66.901666356001897
 30
0.0
 11
254.25645704945151
 21
75.437443049580452
 31
0.0
  0
LINE
  5
1EF4
  8
TITLE
 10
245.92963259299719
 20
66.936048847818256
 30
0.0
 11
254.2731291759228
 21
75.279545430742701
 31
0.0
  0
LINE
  5
1EF5
  8
TITLE
 10
246.0906048567376
 20
66.922451366285713
 30
0.0
 11
254.2867266574558
 21
75.118573166990018
 31
0.0
  0
LINE
  5
1EF6
  8
TITLE
 10
246.2548207909376
 20
66.912097555167975
 30
0.0
 11
254.29708046857189
 21
74.954357232818197
 31
0.0
  0
LINE
  5
1EF7
  8
TITLE
 10
246.42247035838409
 20
66.90517737732057
 30
0.0
 11
254.3216051891612
 21
74.804312208098736
 31
0.0
  0
LINE
  5
1EF8
  8
TITLE
 10
246.59376819709809
 20
66.901905470757583
 30
0.0
 11
254.3072725529837
 21
74.61540982664043
 31
0.0
  0
LINE
  5
1EF9
  8
TITLE
 10
246.7689582747025
 20
66.902525803069011
 30
0.0
 11
254.30665222067179
 21
74.440219749034426
 31
0.0
  0
LINE
  5
1EFA
  8
TITLE
 10
243.10213417648629
 20
66.901666356001215
 30
0.0
 11
253.17479335252111
 21
76.974325532035422
 31
0.0
  0
LINE
  5
1EFB
  8
TITLE
 10
243.2767039217824
 20
66.901666356001215
 30
0.0
 11
253.34936309781369
 21
76.974325532035422
 31
0.0
  0
LINE
  5
1EFC
  8
TITLE
 10
243.45127366707399
 20
66.901666356001897
 30
0.0
 11
253.52393284310989
 21
76.974325532034982
 31
0.0
  0
LINE
  5
1EFD
  8
TITLE
 10
243.62584341236931
 20
66.901666356001215
 30
0.0
 11
253.69850258840421
 21
76.974325532035422
 31
0.0
  0
LINE
  5
1EFE
  8
TITLE
 10
243.80041315766439
 20
66.901666356001215
 30
0.0
 11
253.87307233369759
 21
76.974325532035422
 31
0.0
  0
LINE
  5
1EFF
  8
TITLE
 10
243.97498290295701
 20
66.901666356001897
 30
0.0
 11
253.94759823467211
 21
76.874281687715893
 31
0.0
  0
LINE
  5
1F00
  8
TITLE
 10
244.1495526482513
 20
66.901666356001215
 30
0.0
 11
253.9887043252138
 21
76.740818032963702
 31
0.0
  0
LINE
  5
1F01
  8
TITLE
 10
244.3241223935465
 20
66.901666356001215
 30
0.0
 11
254.0277414121538
 21
76.605285374608229
 31
0.0
  0
LINE
  5
1F02
  8
TITLE
 10
244.49869213882079
 20
66.901666356001215
 30
0.0
 11
254.06464525228699
 21
76.467619469455698
 31
0.0
  0
LINE
  5
1F03
  8
TITLE
 10
244.6732618841161
 20
66.901666356001215
 30
0.0
 11
254.0993458898929
 21
76.327750361766675
 31
0.0
  0
LINE
  5
1F04
  8
TITLE
 10
244.84783162941491
 20
66.901666356001215
 30
0.0
 11
254.1317670072321
 21
76.185601733819098
 31
0.0
  0
LINE
  5
1F05
  8
TITLE
 10
242.75299468589759
 20
66.901666356001215
 30
0.0
 11
252.82565386193161
 21
76.974325532035422
 31
0.0
  0
LINE
  5
1F06
  8
TITLE
 10
242.92756443119291
 20
66.901666356001215
 30
0.0
 11
253.00022360722409
 21
76.974325532034982
 31
0.0
  0
LINE
  5
1F07
  8
TITLE
 10
40.0
 20
125.0
 30
0.0
 11
399.5
 21
125.0
 31
0.0
  0
LINE
  5
1F08
  8
TITLE
 10
219.75
 20
135.0
 30
0.0
 11
219.75
 21
65.0
 31
0.0
  0
LINE
  5
1F09
  8
TITLE
 10
129.75
 20
135.0
 30
0.0
 11
129.75
 21
65.0
 31
0.0
  0
LINE
  5
1F0A
  8
TITLE
 10
40.0
 20
75.0
 30
0.0
 11
129.75
 21
75.0
 31
0.0
  0
LINE
  5
1F0B
  8
TITLE
 10
40.0
 20
95.0
 30
0.0
 11
129.75
 21
95.0
 31
0.0
  0
LINE
  5
1F0C
  8
TITLE
 10
40.0
 20
85.0
 30
0.0
 11
129.75
 21
85.0
 31
0.0
  0
LINE
  5
1F0D
  8
TITLE
 10
40.0
 20
95.0
 30
0.0
 11
129.75
 21
95.0
 31
0.0
  0
LINE
  5
1F17
  8
TITLE
 10
129.75
 20
91.666666666666501
 30
0.0
 11
219.75
 21
91.666666666666501
 31
0.0
  0
LINE
  5
1F18
  8
TITLE
 10
129.75
 20
78.333333333333243
 30
0.0
 11
219.75
 21
78.333333333333243
 31
0.0
  0
LINE
  5
1F1D
  8
TITLE
 10
248.0332329030407
 20
76.720717950734297
 30
0.0
 11
248.28684048434391
 21
76.974325532035891
 31
0.0
  0
LINE
  5
1F1E
  8
TITLE
 10
247.81066672648561
 20
76.84729126478598
 30
0.0
 11
247.9377009937343
 21
76.974325532035422
 31
0.0
  0
LINE
  5
1F1F
  8
TITLE
 10
247.92429170853211
 20
76.786346501539143
 30
0.0
 11
248.1122707390285
 21
76.974325532035422
 31
0.0
  0
LINE
  5
1F20
  8
TITLE
 10
247.69213937549651
 20
76.903333659091473
 30
0.0
 11
247.76313124844091
 21
76.974325532035422
 31
0.0
  0
LINE
  5
1F21
  8
TITLE
 10
239.31770178174699
 20
76.733674094086822
 30
0.0
 11
244.79218592877351
 21
82.20815824114446
 31
0.0
  0
LINE
  5
1F22
  8
TITLE
 10
239.25008888871801
 20
76.491491455765512
 30
0.0
 11
244.96675567406689
 21
82.20815824114446
 31
0.0
  0
LINE
  5
1F23
  8
TITLE
 10
239.19344013534561
 20
76.260272957125579
 30
0.0
 11
245.14132541936209
 21
82.20815824114446
 31
0.0
  0
LINE
  5
1F24
  8
TITLE
 10
239.1461834332849
 20
76.038446509770907
 30
0.0
 11
245.3158951646565
 21
82.20815824114446
 31
0.0
  0
LINE
  5
1F25
  8
TITLE
 10
239.1071107421358
 20
75.824804073326945
 30
0.0
 11
245.49046490994991
 21
82.20815824114446
 31
0.0
  0
LINE
  5
1F26
  8
TITLE
 10
239.07526963112019
 20
75.618393217018593
 30
0.0
 11
245.66503465524511
 21
82.20815824114446
 31
0.0
  0
LINE
  5
1F27
  8
TITLE
 10
239.04989322186159
 20
75.418447062465702
 30
0.0
 11
245.8396044005394
 21
82.20815824114446
 31
0.0
  0
LINE
  5
1F28
  8
TITLE
 10
239.030353096482
 20
75.224337191791591
 30
0.0
 11
246.01417414583369
 21
82.20815824114446
 31
0.0
  0
LINE
  5
1F29
  8
TITLE
 10
239.01612658173241
 20
75.035540931722835
 30
0.0
 11
246.1887438911134
 21
82.20815824114446
 31
0.0
  0
LINE
  5
1F2A
  8
TITLE
 10
239.00677337837351
 20
74.851617983072188
 30
0.0
 11
246.36331363640781
 21
82.20815824114446
 31
0.0
  0
LINE
  5
1F2B
  8
TITLE
 10
239.00191846312461
 20
74.672193322547628
 30
0.0
 11
246.5378833817021
 21
82.20815824114446
 31
0.0
  0
LINE
  5
1F2C
  8
TITLE
 10
239.0012393183151
 20
74.496944432445133
 30
0.0
 11
246.71245312699651
 21
82.20815824114446
 31
0.0
  0
LINE
  5
1F2D
  8
TITLE
 10
239.00445621973179
 20
74.32559158856678
 30
0.0
 11
246.8870228722908
 21
82.20815824114446
 31
0.0
  0
LINE
  5
1F2E
  8
TITLE
 10
239.01132473142749
 20
74.157890354985739
 30
0.0
 11
247.06159261758509
 21
82.20815824114446
 31
0.0
  0
LINE
  5
1F2F
  8
TITLE
 10
239.02162982311529
 20
73.993625701379656
 30
0.0
 11
247.2361623628795
 21
82.20815824114446
 31
0.0
  0
LINE
  5
1F30
  8
TITLE
 10
239.03518120044919
 20
73.832607333419432
 30
0.0
 11
247.41073210817379
 21
82.20815824114446
 31
0.0
  0
LINE
  5
1F31
  8
TITLE
 10
239.05180955552439
 20
73.674665943200338
 30
0.0
 11
247.58530185346811
 21
82.20815824114446
 31
0.0
  0
LINE
  5
1F32
  8
TITLE
 10
239.07136352500581
 20
73.519650167387908
 30
0.0
 11
247.7598715987624
 21
82.20815824114446
 31
0.0
  0
LINE
  5
1F33
  8
TITLE
 10
239.14628528882079
 20
73.070862695320088
 30
0.0
 11
248.28358083463081
 21
82.20815824114446
 31
0.0
  0
LINE
  5
1F34
  8
TITLE
 10
239.0937071990665
 20
73.367424096153371
 30
0.0
 11
247.93444134405669
 21
82.20815824114446
 31
0.0
  0
LINE
  5
1F35
  8
TITLE
 10
239.11871806387899
 20
73.217865215657653
 30
0.0
 11
248.1090110893374
 21
82.20815824114446
 31
0.0
  0
LINE
  5
1F36
  8
TITLE
 10
240.86350380548171
 20
69.550988853214903
 30
0.0
 11
244.4884600729992
 21
73.175945120712413
 31
0.0
  0
LINE
  5
1F37
  8
TITLE
 10
240.4037553894959
 20
70.138658908973852
 30
0.0
 11
244.17029084477781
 21
73.905194364255763
 31
0.0
  0
LINE
  5
1F38
  8
TITLE
 10
240.47676410208899
 20
70.037097876272568
 30
0.0
 11
244.20964910692601
 21
73.769982881109627
 31
0.0
  0
LINE
  5
1F39
  8
TITLE
 10
240.55123190051381
 20
69.936995929405384
 30
0.0
 11
244.2549816622695
 21
73.640745691160404
 31
0.0
  0
LINE
  5
1F3A
  8
TITLE
 10
240.62714834074541
 20
69.838342624340839
 30
0.0
 11
244.3058443646496
 21
73.517038648245261
 31
0.0
  0
LINE
  5
1F3B
  8
TITLE
 10
240.7045042424588
 20
69.741128780760391
 30
0.0
 11
244.36188675895389
 21
73.398511297255709
 31
0.0
  0
LINE
  5
1F3C
  8
TITLE
 10
240.7832916511106
 20
69.645346444117195
 30
0.0
 11
244.42283152220261
 21
73.284886315208254
 31
0.0
  0
LINE
  5
1F3D
  8
TITLE
 10
241.02818111462599
 20
69.366526671760539
 30
0.0
 11
244.6331295745868
 21
72.971475131711699
 31
0.0
  0
LINE
  5
1F3E
  8
TITLE
 10
241.11263849263381
 20
69.276414304528998
 30
0.0
 11
244.71194903809189
 21
72.875724849926854
 31
0.0
  0
LINE
  5
1F3F
  8
TITLE
 10
241.19850503222011
 20
69.187711098806631
 30
0.0
 11
244.79500068820931
 21
72.784206754749903
 31
0.0
  0
LINE
  5
1F40
  8
TITLE
 10
240.9451351104571
 20
69.458050412896455
 30
0.0
 11
244.55860235805719
 21
73.071517660476502
 31
0.0
  0
LINE
  5
1F41
  8
TITLE
 10
240.4835879970997
 20
66.901666356001215
 30
0.0
 11
245.73825378987749
 21
72.156332148778347
 31
0.0
  0
LINE
  5
1F42
  8
TITLE
 10
240.658157742394
 20
66.901666356001897
 30
0.0
 11
245.86740728613401
 21
72.110915899740348
 31
0.0
  0
LINE
  5
1F43
  8
TITLE
 10
240.8327274876456
 20
66.901666356001897
 30
0.0
 11
246.00252778739201
 21
72.071466655711447
 31
0.0
  0
LINE
  5
1F44
  8
TITLE
 10
241.00729723296811
 20
66.901666356001215
 30
0.0
 11
246.14418107017349
 21
72.038550193206689
 31
0.0
  0
LINE
  5
1F45
  8
TITLE
 10
241.18186697826329
 20
66.901666356001215
 30
0.0
 11
246.2931009937638
 21
72.012900371501459
 31
0.0
  0
LINE
  5
1F46
  8
TITLE
 10
241.35643672355761
 20
66.901666356001215
 30
0.0
 11
246.45025965970041
 21
71.99548929214437
 31
0.0
  0
LINE
  5
1F47
  8
TITLE
 10
241.53100646885201
 20
66.901666356000973
 30
0.0
 11
246.6169825453799
 21
71.987642432530265
 31
0.0
  0
LINE
  5
1F48
  8
TITLE
 10
241.7055762141454
 20
66.901666356001215
 30
0.0
 11
246.79514973283679
 21
71.991239874691701
 31
0.0
  0
LINE
  5
1F49
  8
TITLE
 10
241.8801459594406
 20
66.901666356001215
 30
0.0
 11
246.9875782024065
 21
72.009098598967071
 31
0.0
  0
LINE
  5
1F4A
  8
TITLE
 10
242.05471570473401
 20
66.901666356001215
 30
0.0
 11
247.19883694108191
 21
72.045787592349583
 31
0.0
  0
LINE
  5
1F4B
  8
TITLE
 10
242.2292854500283
 20
66.901666356001897
 30
0.0
 11
247.4373104195092
 21
72.109691325481208
 31
0.0
  0
LINE
  5
1F4C
  8
TITLE
 10
242.4038551953245
 20
66.901666356001897
 30
0.0
 11
247.72219303005301
 21
72.220004190731501
 31
0.0
  0
LINE
  5
1F4D
  8
TITLE
 10
242.5784249406461
 20
66.901666356001215
 30
0.0
 11
248.1320416502013
 21
72.455283065595481
 31
0.0
  0
LINE
  5
1F4E
  8
TITLE
 10
240.3322175142857
 20
70.241690779015926
 30
0.0
 11
244.13747473772219
 21
74.046948002488293
 31
0.0
  0
LINE
  5
1F4F
  8
TITLE
 10
239.4361695253337
 20
66.901666356000973
 30
0.0
 11
245.06939961951781
 21
72.534896450183865
 31
0.0
  0
LINE
  5
1F50
  8
TITLE
 10
239.08703003480699
 20
66.901666356001215
 30
0.0
 11
244.88225491207959
 21
72.69689123333022
 31
0.0
  0
LINE
  5
1F51
  8
TITLE
 10
239.2615997800394
 20
66.901666356001215
 30
0.0
 11
244.97371149631911
 21
72.613778072280184
 31
0.0
  0
LINE
  5
1F52
  8
TITLE
 10
239.61073927062719
 20
66.901666356001215
 30
0.0
 11
245.1693788846724
 21
72.460305970045496
 31
0.0
  0
LINE
  5
1F53
  8
TITLE
 10
239.78530901592239
 20
66.901666356001215
 30
0.0
 11
245.27374147824861
 21
72.390098818327488
 31
0.0
  0
LINE
  5
1F54
  8
TITLE
 10
239.9598787612176
 20
66.901666356001215
 30
0.0
 11
245.38261564316511
 21
72.324403237949127
 31
0.0
  0
LINE
  5
1F55
  8
TITLE
 10
240.1344485065128
 20
66.901666356001215
 30
0.0
 11
245.4961707839729
 21
72.263388633462455
 31
0.0
  0
LINE
  5
1F56
  8
TITLE
 10
240.30901825180439
 20
66.901666356001215
 30
0.0
 11
245.61462470829429
 21
72.207272812489705
 31
0.0
  0
LINE
  5
1F57
  8
TITLE
 10
240.12656714116659
 20
70.559749641819948
 30
0.0
 11
244.08696058121771
 21
74.520143081858336
 31
0.0
  0
LINE
  5
1F58
  8
TITLE
 10
240.19360812697499
 20
70.452220882392552
 30
0.0
 11
244.0946555406272
 21
74.353268295980115
 31
0.0
  0
LINE
  5
1F59
  8
TITLE
 10
240.26216358552941
 20
70.346206595637341
 30
0.0
 11
244.1119375401048
 21
74.19598055016219
 31
0.0
  0
LINE
  5
1F5A
  8
TITLE
 10
240.06105818194101
 20
70.668810427876451
 30
0.0
 11
244.0907430464149
 21
74.698495292349904
 31
0.0
  0
LINE
  5
1F5B
  8
TITLE
 10
239.75722788829171
 20
71.237828860643504
 30
0.0
 11
244.56078576524121
 21
76.041386737629423
 31
0.0
  0
LINE
  5
1F5C
  8
TITLE
 10
239.8147528282534
 20
71.120784055419108
 30
0.0
 11
244.32151694024469
 21
75.627548167367664
 31
0.0
  0
LINE
  5
1F5D
  8
TITLE
 10
239.87392405202991
 20
71.005385533919025
 30
0.0
 11
244.2102503678052
 21
75.341711849639296
 31
0.0
  0
LINE
  5
1F5E
  8
TITLE
 10
239.93471481370671
 20
70.891606550239445
 30
0.0
 11
244.1458504954571
 21
75.102742231983925
 31
0.0
  0
LINE
  5
1F5F
  8
TITLE
 10
239.9971004359231
 20
70.779422427156987
 30
0.0
 11
244.10883804849891
 21
74.891160039730266
 31
0.0
  0
LINE
  5
1F61
  8
TITLE
 10
240.60472037062479
 20
79.242680900030351
 30
0.0
 11
243.57019771172779
 21
82.20815824114446
 31
0.0
  0
LINE
  5
1F62
  8
TITLE
 10
243.48418745957861
 20
82.20815824114446
 30
0.0
 11
241.2426036210872
 21
79.966574402653336
 31
0.0
  0
LINE
  5
1F63
  8
TITLE
 10
247.5684323325813
 20
76.95419636147038
 30
0.0
 11
247.5885615031475
 21
76.974325532035422
 31
0.0
  0
LINE
  5
1F64
  8
TITLE
 10
239.9411180763673
 20
78.229939115195734
 30
0.0
 11
243.91933720231651
 21
82.20815824114446
 31
0.0
  0
LINE
  5
1F65
  8
TITLE
 10
240.19255662832171
 20
78.655947412445343
 30
0.0
 11
243.74476745702219
 21
82.20815824114446
 31
0.0
  0
LINE
  5
1F66
  8
TITLE
 10
239.6122421382606
 20
77.551923686427472
 30
0.0
 11
244.2684766928906
 21
82.20815824114446
 31
0.0
  0
LINE
  5
1F67
  8
TITLE
 10
239.7567494337363
 20
77.871000727268424
 30
0.0
 11
244.0939069476108
 21
82.20815824114446
 31
0.0
  0
LINE
  5
1F68
  8
TITLE
 10
239.49511412608169
 20
77.260225928966733
 30
0.0
 11
244.44304643818489
 21
82.20815824114446
 31
0.0
  0
LINE
  5
1F69
  8
TITLE
 10
239.39839116852539
 20
76.98893322612571
 30
0.0
 11
244.61761618347921
 21
82.20815824114446
 31
0.0
  0
LINE
  5
1F6C
  8
TITLE
 10
309.75
 20
135.0
 30
0.0
 11
309.75
 21
105.0
 31
0.0
  0
LINE
  5
1F6E
  8
TITLE
 10
335.73707359199489
 20
76.377364522974844
 30
0.0
 11
336.37241702639949
 21
77.012707957372854
 31
0.0
  0
LINE
  5
1F6F
  8
TITLE
 10
335.56250384669971
 20
76.377364522974844
 30
0.0
 11
336.37241702639949
 21
77.187277702667402
 31
0.0
  0
LINE
  5
1F70
  8
TITLE
 10
333.53776469747748
 20
74.701764864341627
 30
0.0
 11
336.37241702639949
 21
77.536417193256511
 31
0.0
  0
LINE
  5
1F71
  8
TITLE
 10
333.66350339235032
 20
75.002073304500755
 30
0.0
 11
336.37241702639949
 21
77.71098693855059
 31
0.0
  0
LINE
  5
1F72
  8
TITLE
 10
333.74250229165949
 20
75.255641949111819
 30
0.0
 11
336.22068674946507
 21
77.733826406909657
 31
0.0
  0
LINE
  5
1F73
  8
TITLE
 10
333.29697968983959
 20
74.286410111400514
 30
0.0
 11
336.37241702639949
 21
77.361847447962433
 31
0.0
  0
LINE
  5
1F74
  8
TITLE
 10
332.297815333416
 20
76.429501170260195
 30
0.0
 11
333.60214057006488
 21
77.733826406909657
 31
0.0
  0
LINE
  5
1F75
  8
TITLE
 10
333.46766690318327
 20
76.377364522974844
 30
0.0
 11
335.43212436394151
 21
78.341821983726504
 31
0.0
  0
LINE
  5
1F76
  8
TITLE
 10
333.29309715788889
 20
76.377364522974844
 30
0.0
 11
335.43212436394151
 21
78.51639172902037
 31
0.0
  0
LINE
  5
1F77
  8
TITLE
 10
333.11852741259457
 20
76.377364522974844
 30
0.0
 11
335.43212436394151
 21
78.690961474315131
 31
0.0
  0
LINE
  5
1F78
  8
TITLE
 10
332.94395766731401
 20
76.377364522974844
 30
0.0
 11
335.43212436394151
 21
78.865531219608783
 31
0.0
  0
LINE
  5
1F79
  8
TITLE
 10
332.76938792201958
 20
76.377364522974844
 30
0.0
 11
335.43212436394151
 21
79.040100964903331
 31
0.0
  0
LINE
  5
1F7A
  8
TITLE
 10
332.59481817672531
 20
76.37736452298212
 30
0.0
 11
335.43212436394151
 21
79.214670710197652
 31
0.0
  0
LINE
  5
1F7B
  8
TITLE
 10
332.4202484314319
 20
76.37736452298212
 30
0.0
 11
335.43212436394151
 21
79.389240455492427
 31
0.0
  0
LINE
  5
1F7C
  8
TITLE
 10
332.297815333416
 20
76.60407091555453
 30
0.0
 11
333.42757082477061
 21
77.733826406909657
 31
0.0
  0
LINE
  5
1F7D
  8
TITLE
 10
332.297815333416
 20
76.77864066084156
 30
0.0
 11
333.25300107947629
 21
77.733826406909657
 31
0.0
  0
LINE
  5
1F7E
  8
TITLE
 10
333.76049275645801
 20
76.321050885654373
 30
0.0
 11
335.43212436394151
 21
77.992682493145566
 31
0.0
  0
LINE
  5
1F7F
  8
TITLE
 10
333.76049275645801
 20
76.146481140367541
 30
0.0
 11
335.43212436394151
 21
77.818112747850591
 31
0.0
  0
LINE
  5
1F80
  8
TITLE
 10
333.64223664847759
 20
76.37736452298212
 30
0.0
 11
335.43212436394151
 21
78.167252238439232
 31
0.0
  0
LINE
  5
1F81
  8
TITLE
 10
333.76049275645801
 20
75.797341649779582
 30
0.0
 11
335.69697751358228
 21
77.733826406909657
 31
0.0
  0
LINE
  5
1F82
  8
TITLE
 10
333.76049275645801
 20
75.971911395073903
 30
0.0
 11
335.52240776828791
 21
77.733826406909657
 31
0.0
  0
LINE
  5
1F83
  8
TITLE
 10
333.76049275645801
 20
75.448202159198203
 30
0.0
 11
336.04611700417172
 21
77.733826406909657
 31
0.0
  0
LINE
  5
1F84
  8
TITLE
 10
333.76049275645801
 20
75.622771904492552
 30
0.0
 11
335.87154725887649
 21
77.733826406909657
 31
0.0
  0
LINE
  5
1F85
  8
TITLE
 10
322.50097959344572
 20
76.757710657274401
 30
0.0
 11
324.9720134476056
 21
79.228744511434101
 31
0.0
  0
LINE
  5
1F86
  8
TITLE
 10
322.47185356273172
 20
76.903154371854498
 30
0.0
 11
324.9720134476056
 21
79.403314256721373
 31
0.0
  0
LINE
  5
1F87
  8
TITLE
 10
322.5078756934563
 20
75.542618540239346
 30
0.0
 11
323.98445404715761
 21
77.01919689393344
 31
0.0
  0
LINE
  5
1F88
  8
TITLE
 10
322.33330594816198
 20
75.542618540239346
 30
0.0
 11
323.95532801644367
 21
77.164640608513764
 31
0.0
  0
LINE
  5
1F89
  8
TITLE
 10
322.15873620286771
 20
75.542618540239346
 30
0.0
 11
323.92620198572968
 21
77.310084323101137
 31
0.0
  0
LINE
  5
1F8A
  8
TITLE
 10
321.9841664575743
 20
75.542618540239346
 30
0.0
 11
323.89707595501568
 21
77.45552803768031
 31
0.0
  0
LINE
  5
1F8B
  8
TITLE
 10
321.80959671227907
 20
75.542618540239346
 30
0.0
 11
325.09640838938321
 21
78.829430217329431
 31
0.0
  0
LINE
  5
1F8C
  8
TITLE
 10
321.6350269669847
 20
75.542618540239346
 30
0.0
 11
324.9720134476056
 21
78.879605020845474
 31
0.0
  0
LINE
  5
1F8D
  8
TITLE
 10
321.46045722170493
 20
75.542618540239346
 30
0.0
 11
324.9720134476056
 21
79.05417476613934
 31
0.0
  0
LINE
  5
1F8E
  8
TITLE
 10
327.34059912783403
 20
76.709377323450539
 30
0.0
 11
330.32766814272242
 21
79.696446338353311
 31
0.0
  0
LINE
  5
1F8F
  8
TITLE
 10
327.39582856165362
 20
75.542618540239346
 30
0.0
 11
328.95502626054878
 21
77.101816239134905
 31
0.0
  0
LINE
  5
1F90
  8
TITLE
 10
327.22125881636009
 20
75.542618540239346
 30
0.0
 11
328.99873864884648
 21
77.320098372718576
 31
0.0
  0
LINE
  5
1F91
  8
TITLE
 10
327.04668907108038
 20
75.542618540239346
 30
0.0
 11
330.33350074816917
 21
78.829430217329431
 31
0.0
  0
LINE
  5
1F92
  8
TITLE
 10
326.87211932578521
 20
75.542618540239346
 30
0.0
 11
330.15893100287491
 21
78.829430217329431
 31
0.0
  0
LINE
  5
1F93
  8
TITLE
 10
326.6975495804918
 20
75.542618540239346
 30
0.0
 11
329.98436125758047
 21
78.829430217329431
 31
0.0
  0
LINE
  5
1F94
  8
TITLE
 10
324.48828700929158
 20
73.507925714333865
 30
0.0
 11
330.01656919791373
 21
79.036207902956903
 31
0.0
  0
LINE
  5
1F95
  8
TITLE
 10
324.31371726399721
 20
73.507925714333865
 30
0.0
 11
330.17211867032518
 21
79.366327120654447
 31
0.0
  0
LINE
  5
1F96
  8
TITLE
 10
312.51453102872711
 20
76.198028338376375
 30
0.0
 11
316.02707919306692
 21
79.710576502716307
 31
0.0
  0
LINE
  5
1F97
  8
TITLE
 10
312.51453102872711
 20
76.372598083670937
 30
0.0
 11
315.85250944777277
 21
79.710576502716307
 31
0.0
  0
LINE
  5
1F98
  8
TITLE
 10
312.51453102872711
 20
76.54716782896503
 30
0.0
 11
315.6779397024784
 21
79.710576502716307
 31
0.0
  0
LINE
  5
1F99
  8
TITLE
 10
312.51453102872711
 20
76.72173757425891
 30
0.0
 11
315.50336995718408
 21
79.710576502716307
 31
0.0
  0
LINE
  5
1F9A
  8
TITLE
 10
312.51453102872711
 20
76.896307319553216
 30
0.0
 11
315.32880021190431
 21
79.710576502716307
 31
0.0
  0
LINE
  5
1F9B
  8
TITLE
 10
312.51453102872711
 20
74.97604012133047
 30
0.0
 11
314.50536248940438
 21
76.966871582007812
 31
0.0
  0
LINE
  5
1F9C
  8
TITLE
 10
312.51453102872711
 20
75.15060986662435
 30
0.0
 11
314.50536248940438
 21
77.14144132729551
 31
0.0
  0
LINE
  5
1F9D
  8
TITLE
 10
312.51453102872711
 20
75.325179611918884
 30
0.0
 11
314.50536248940438
 21
77.316011072588481
 31
0.0
  0
LINE
  5
1F9E
  8
TITLE
 10
312.51453102872711
 20
75.848888847794584
 30
0.0
 11
314.50536248940438
 21
77.839720308464834
 31
0.0
  0
LINE
  5
1F9F
  8
TITLE
 10
312.51453102872711
 20
76.023458593081841
 30
0.0
 11
314.50536248940438
 21
78.014290053759623
 31
0.0
  0
LINE
  5
1FA0
  8
TITLE
 10
312.51453102872711
 20
75.499749357213403
 30
0.0
 11
314.50536248940438
 21
77.490580817883483
 31
0.0
  0
LINE
  5
1FA1
  8
TITLE
 10
312.51453102872711
 20
75.674319102500462
 30
0.0
 11
314.50536248940438
 21
77.665150563170741
 31
0.0
  0
LINE
  5
1FA2
  8
TITLE
 10
297.838573032488
 20
76.36049869203201
 30
0.0
 11
301.18865084316519
 21
79.710576502716307
 31
0.0
  0
LINE
  5
1FA3
  8
TITLE
 10
297.93032967464569
 20
76.626825079476447
 30
0.0
 11
301.01408109787093
 21
79.710576502716307
 31
0.0
  0
LINE
  5
1FA4
  8
TITLE
 10
298.02208631680242
 20
76.89315146692752
 30
0.0
 11
300.83951135257678
 21
79.710576502716307
 31
0.0
  0
LINE
  5
1FA5
  8
TITLE
 10
297.1045198952296
 20
74.229887592440036
 30
0.0
 11
300.98178630125773
 21
78.107153998454336
 31
0.0
  0
LINE
  5
1FA6
  8
TITLE
 10
297.1962765373874
 20
74.496213979885169
 30
0.0
 11
301.0735429434153
 21
78.373480385906078
 31
0.0
  0
LINE
  5
1FA7
  8
TITLE
 10
297.28803317954311
 20
74.762540367329848
 30
0.0
 11
301.16529958557197
 21
78.639806773357563
 31
0.0
  0
LINE
  5
1FA8
  8
TITLE
 10
297.3797898217008
 20
75.028866754780211
 30
0.0
 11
301.25705622773057
 21
78.906133160809546
 31
0.0
  0
LINE
  5
1FA9
  8
TITLE
 10
297.47154646385837
 20
75.295193142232833
 30
0.0
 11
301.3488128698873
 21
79.172459548260349
 31
0.0
  0
LINE
  5
1FAA
  8
TITLE
 10
297.56330310601612
 20
75.561519529683892
 30
0.0
 11
301.44056951204402
 21
79.438785935705255
 31
0.0
  0
LINE
  5
1FAB
  8
TITLE
 10
297.65505974817279
 20
75.827845917135392
 30
0.0
 11
301.5323261541871
 21
79.705112323156513
 31
0.0
  0
LINE
  5
1FAC
  8
TITLE
 10
297.74681639033042
 20
76.094172304580297
 30
0.0
 11
301.36322058845963
 21
79.710576502716307
 31
0.0
  0
LINE
  5
1FAD
  8
TITLE
 10
297.01276325307208
 20
73.963561204988991
 30
0.0
 11
300.89002965909998
 21
77.840827611010582
 31
0.0
  0
LINE
  5
1FAE
  8
TITLE
 10
296.92100661091541
 20
73.697234817537264
 30
0.0
 11
300.79827301694331
 21
77.574501223566386
 31
0.0
  0
LINE
  5
1FAF
  8
TITLE
 10
296.73749332660009
 20
73.164582042634052
 30
0.0
 11
300.61475973262901
 21
77.041848448663146
 31
0.0
  0
LINE
  5
1FB0
  8
TITLE
 10
296.82924996875778
 20
73.430908430085509
 30
0.0
 11
300.70651637478568
 21
77.308174836113949
 31
0.0
  0
LINE
  5
1FB1
  8
TITLE
 10
287.32406524958418
 20
75.098187409648062
 30
0.0
 11
291.93645434263902
 21
79.710576502716307
 31
0.0
  0
LINE
  5
1FB2
  8
TITLE
 10
287.32406524958418
 20
75.272757154942383
 30
0.0
 11
291.76188459734482
 21
79.710576502716307
 31
0.0
  0
LINE
  5
1FB3
  8
TITLE
 10
287.32406524958418
 20
75.447326900236447
 30
0.0
 11
291.58731485206408
 21
79.710576502716307
 31
0.0
  0
LINE
  5
1FB4
  8
TITLE
 10
287.32406524958418
 20
75.621896645531478
 30
0.0
 11
291.41274510676971
 21
79.710576502716307
 31
0.0
  0
LINE
  5
1FB5
  8
TITLE
 10
287.32406524958418
 20
75.796466390825572
 30
0.0
 11
291.23817536147629
 21
79.710576502716307
 31
0.0
  0
LINE
  5
1FB6
  8
TITLE
 10
287.32406524958418
 20
75.971036136119181
 30
0.0
 11
291.06360561618197
 21
79.710576502716307
 31
0.0
  0
LINE
  5
1FB7
  8
TITLE
 10
287.32406524958418
 20
76.145605881413985
 30
0.0
 11
290.88903587088771
 21
79.710576502716307
 31
0.0
  0
LINE
  5
1FB8
  8
TITLE
 10
287.32406524958418
 20
76.32017562670147
 30
0.0
 11
290.71446612559339
 21
79.710576502716307
 31
0.0
  0
LINE
  5
1FB9
  8
TITLE
 10
287.32406524958418
 20
76.49474537199535
 30
0.0
 11
290.53989638029822
 21
79.710576502716307
 31
0.0
  0
LINE
  5
1FBA
  8
TITLE
 10
287.32406524958418
 20
76.669315117290111
 30
0.0
 11
290.36532663500481
 21
79.710576502716307
 31
0.0
  0
LINE
  5
1FBB
  8
TITLE
 10
287.32406524958418
 20
76.843884862576701
 30
0.0
 11
290.19075688971043
 21
79.710576502716307
 31
0.0
  0
LINE
  5
1FBC
  8
TITLE
 10
287.32406524958418
 20
74.574478173771922
 30
0.0
 11
289.81260457541708
 21
77.063017499611774
 31
0.0
  0
LINE
  5
1FBD
  8
TITLE
 10
287.32406524958418
 20
74.749047919067152
 30
0.0
 11
289.81260457541708
 21
77.237587244905626
 31
0.0
  0
LINE
  5
1FBE
  8
TITLE
 10
287.32406524958418
 20
74.923617664354197
 30
0.0
 11
289.81260457541708
 21
77.412156990200188
 31
0.0
  0
LINE
  5
1FBF
  8
TITLE
 10
275.55231712714891
 20
74.149763495372312
 30
0.0
 11
280.53169895083101
 21
79.129145319070403
 31
0.0
  0
LINE
  5
1FC0
  8
TITLE
 10
275.8493716076718
 20
74.272248230609421
 30
0.0
 11
280.79794743473758
 21
79.220824057681071
 31
0.0
  0
LINE
  5
1FC1
  8
TITLE
 10
276.35671693497898
 20
74.255884322039265
 30
0.0
 11
281.5427609510316
 21
79.441928338092566
 31
0.0
  0
LINE
  5
1FC2
  8
TITLE
 10
276.35671693497898
 20
74.430454067326323
 30
0.0
 11
281.30242381826611
 21
79.376160950622079
 31
0.0
  0
LINE
  5
1FC3
  8
TITLE
 10
276.16451839785719
 20
74.412825275506989
 30
0.0
 11
281.0544664804238
 21
79.302773358081581
 31
0.0
  0
LINE
  5
1FC4
  8
TITLE
 10
280.73576522611711
 20
76.889235160249896
 30
0.0
 11
282.7202674967649
 21
78.873737430904839
 31
0.0
  0
LINE
  5
1FC5
  8
TITLE
 10
279.5820994246061
 20
76.433848339916494
 30
0.0
 11
282.7202674967649
 21
79.572016412074589
 31
0.0
  0
LINE
  5
1FC6
  8
TITLE
 10
279.25125277694769
 20
76.27757143755116
 30
0.0
 11
282.65320284941208
 21
79.67952151001667
 31
0.0
  0
LINE
  5
1FC7
  8
TITLE
 10
280.46700756443443
 20
76.795047243854484
 30
0.0
 11
282.7202674967649
 21
79.048307176191656
 31
0.0
  0
LINE
  5
1FC8
  8
TITLE
 10
280.18663259105409
 20
76.689242015775548
 30
0.0
 11
282.7202674967649
 21
79.222876921485764
 31
0.0
  0
LINE
  5
1FC9
  8
TITLE
 10
279.89258800051272
 20
76.56976717052838
 30
0.0
 11
282.7202674967649
 21
79.397446666780297
 31
0.0
  0
LINE
  5
1FCA
  8
TITLE
 10
273.78764394236521
 20
73.607078527657649
 30
0.0
 11
278.16767902006808
 21
77.987113605359568
 31
0.0
  0
LINE
  5
1FCB
  8
TITLE
 10
273.56589038422408
 20
73.55989471480278
 30
0.0
 11
277.65759440068541
 21
77.651598731264343
 31
0.0
  0
LINE
  5
1FCC
  8
TITLE
 10
274.49133142396391
 20
73.787056773365961
 30
0.0
 11
279.33178542497728
 21
78.627510774393613
 31
0.0
  0
LINE
  5
1FCD
  8
TITLE
 10
274.24969706143747
 20
73.719992156139568
 30
0.0
 11
278.98162541103471
 21
78.451920505744511
 31
0.0
  0
LINE
  5
1FCE
  8
TITLE
 10
274.01537705461209
 20
73.660241894601981
 30
0.0
 11
278.59852131639673
 21
78.243386156387487
 31
0.0
  0
LINE
  5
1FCF
  8
TITLE
 10
275.27007865525411
 20
74.04209476878691
 30
0.0
 11
280.25424225562352
 21
79.026258369156011
 31
0.0
  0
LINE
  5
1FD0
  8
TITLE
 10
275.00028740234848
 20
73.946873261168989
 30
0.0
 11
279.96365671037262
 21
78.910242569185101
 31
0.0
  0
LINE
  5
1FD1
  8
TITLE
 10
274.7411640861983
 20
73.862319690320192
 30
0.0
 11
279.65736816481513
 21
78.778523768937021
 31
0.0
  0
LINE
  5
1FD2
  8
TITLE
 10
276.35671693497898
 20
73.557605340862423
 30
0.0
 11
282.44158097820849
 21
79.642469384107699
 31
0.0
  0
LINE
  5
1FD3
  8
TITLE
 10
276.35671693497898
 20
73.732175086156985
 30
0.0
 11
282.22515783847763
 21
79.600615989670118
 31
0.0
  0
LINE
  5
1FD4
  8
TITLE
 10
276.35671693497898
 20
73.906744831451064
 30
0.0
 11
282.00353514077318
 21
79.553563037245553
 31
0.0
  0
LINE
  5
1FD5
  8
TITLE
 10
276.35671693497898
 20
74.081314576745626
 30
0.0
 11
281.77625032548349
 21
79.50084796725173
 31
0.0
  0
LINE
  5
1FD6
  8
TITLE
 10
267.64682929452192
 20
76.19475114444981
 30
0.0
 11
270.27757086755992
 21
78.825492717488032
 31
0.0
  0
LINE
  5
1FD7
  8
TITLE
 10
267.64682929452192
 20
76.369320889744344
 30
0.0
 11
270.27757086755992
 21
79.000062462782779
 31
0.0
  0
LINE
  5
1FD8
  8
TITLE
 10
267.64682929452192
 20
76.543890635038906
 30
0.0
 11
270.27757086755992
 21
79.174632208076446
 31
0.0
  0
LINE
  5
1FD9
  8
TITLE
 10
267.64682929452192
 20
76.718460380333013
 30
0.0
 11
270.27757086755992
 21
79.349201953370297
 31
0.0
  0
LINE
  5
1FDA
  8
TITLE
 10
267.64682929452192
 20
76.893030125627547
 30
0.0
 11
270.27757086755992
 21
79.523771698665101
 31
0.0
  0
LINE
  5
1FDB
  8
TITLE
 10
267.64682929452192
 20
75.147332672698653
 30
0.0
 11
270.27757086755992
 21
77.778074245736192
 31
0.0
  0
LINE
  5
1FDC
  8
TITLE
 10
267.64682929452192
 20
75.321902417992973
 30
0.0
 11
270.27757086755992
 21
77.952643991023706
 31
0.0
  0
LINE
  5
1FDD
  8
TITLE
 10
267.64682929452192
 20
74.972762927404133
 30
0.0
 11
270.27757086755992
 21
77.603504500441659
 31
0.0
  0
LINE
  5
1FDE
  8
TITLE
 10
267.64682929452192
 20
74.44905369152184
 30
0.0
 11
270.27757086755992
 21
77.079795264559593
 31
0.0
  0
LINE
  5
1FDF
  8
TITLE
 10
267.64682929452192
 20
74.623623436816374
 30
0.0
 11
270.27757086755992
 21
77.254365009853245
 31
0.0
  0
LINE
  5
1FE0
  8
TITLE
 10
267.64682929452192
 20
74.798193182109813
 30
0.0
 11
270.27757086755992
 21
77.428934755147537
 31
0.0
  0
LINE
  5
1FE1
  8
TITLE
 10
267.64682929452192
 20
75.496472163286853
 30
0.0
 11
270.27757086755992
 21
78.127213736318268
 31
0.0
  0
LINE
  5
1FE2
  8
TITLE
 10
267.64682929452192
 20
75.671041908581174
 30
0.0
 11
270.27757086755992
 21
78.301783481605284
 31
0.0
  0
LINE
  5
1FE3
  8
TITLE
 10
267.64682929452192
 20
75.84561165386846
 30
0.0
 11
270.27757086755992
 21
78.476353226899846
 31
0.0
  0
LINE
  5
1FE4
  8
TITLE
 10
267.64682929452192
 20
76.020181399162993
 30
0.0
 11
270.27757086755992
 21
78.65092297219347
 31
0.0
  0
LINE
  5
1FE5
  8
TITLE
 10
259.18579558665721
 20
76.462204701236033
 30
0.0
 11
262.41406125407502
 21
79.690470368661622
 31
0.0
  0
LINE
  5
1FE6
  8
TITLE
 10
259.18579558665721
 20
76.636774446530339
 30
0.0
 11
262.23949150878059
 21
79.690470368661622
 31
0.0
  0
LINE
  5
1FE7
  8
TITLE
 10
259.18579558665721
 20
76.811344191817625
 30
0.0
 11
262.06492176348638
 21
79.690470368661622
 31
0.0
  0
LINE
  5
1FE8
  8
TITLE
 10
259.18579558665721
 20
74.36736775772647
 30
0.0
 11
261.74543603609987
 21
76.92700820716162
 31
0.0
  0
LINE
  5
1FE9
  8
TITLE
 10
259.18579558665721
 20
74.5419375030135
 30
0.0
 11
261.74543603609987
 21
77.10157795244865
 31
0.0
  0
LINE
  5
1FEA
  8
TITLE
 10
259.18579558665721
 20
74.716507248307593
 30
0.0
 11
261.74543603609987
 21
77.276147697742303
 31
0.0
  0
LINE
  5
1FEB
  8
TITLE
 10
259.18579558665721
 20
76.287634955941471
 30
0.0
 11
262.58863099936929
 21
79.690470368661622
 31
0.0
  0
LINE
  5
1FEC
  8
TITLE
 10
259.18579558665721
 20
76.113065210654909
 30
0.0
 11
262.76320074466372
 21
79.690470368661622
 31
0.0
  0
LINE
  5
1FED
  8
TITLE
 10
259.18579558665721
 20
74.8910769936017
 30
0.0
 11
263.98518896171032
 21
79.690470368661622
 31
0.0
  0
LINE
  5
1FEE
  8
TITLE
 10
259.18579558665721
 20
75.065646738888518
 30
0.0
 11
263.81061921641589
 21
79.690470368661622
 31
0.0
  0
LINE
  5
1FEF
  8
TITLE
 10
259.18579558665721
 20
75.240216484183065
 30
0.0
 11
263.63604947113532
 21
79.690470368661622
 31
0.0
  0
LINE
  5
1FF0
  8
TITLE
 10
259.18579558665721
 20
75.414786229477627
 30
0.0
 11
263.4614797258418
 21
79.690470368661622
 31
0.0
  0
LINE
  5
1FF1
  8
TITLE
 10
259.18579558665721
 20
75.589355974771706
 30
0.0
 11
263.28690998054662
 21
79.690470368661622
 31
0.0
  0
LINE
  5
1FF2
  8
TITLE
 10
259.18579558665721
 20
75.763925720066268
 30
0.0
 11
263.1123402352523
 21
79.690470368661622
 31
0.0
  0
LINE
  5
1FF3
  8
TITLE
 10
259.18579558665721
 20
75.938495465360575
 30
0.0
 11
262.93777048995798
 21
79.690470368661622
 31
0.0
  0
LINE
  5
1FF4
  8
TITLE
 10
273.13834317885357
 20
73.48148700001434
 30
0.0
 11
276.58672279661818
 21
76.929866617785578
 31
0.0
  0
LINE
  5
1FF5
  8
TITLE
 10
273.34960301011142
 20
73.518177085984902
 30
0.0
 11
276.9670881792336
 21
77.135662255106809
 31
0.0
  0
LINE
  5
1FF6
  8
TITLE
 10
249.19627765223959
 20
74.916077029977458
 30
0.0
 11
251.25452615429731
 21
76.974325532035422
 31
0.0
  0
LINE
  5
1FF7
  8
TITLE
 10
249.17062783053461
 20
75.064996953567061
 30
0.0
 11
251.0799564090039
 21
76.974325532035422
 31
0.0
  0
LINE
  5
1FF8
  8
TITLE
 10
249.13771136803371
 20
75.206650236332266
 30
0.0
 11
250.9053866637496
 21
76.974325532034982
 31
0.0
  0
LINE
  5
1FF9
  8
TITLE
 10
249.09826212400091
 20
75.341770737606339
 30
0.0
 11
250.73081691842981
 21
76.974325532034982
 31
0.0
  0
LINE
  5
1FFA
  8
TITLE
 10
248.94578939027809
 20
75.713007239768785
 30
0.0
 11
250.20710768254591
 21
76.974325532035422
 31
0.0
  0
LINE
  5
1FFB
  8
TITLE
 10
249.0528458749632
 20
75.47092423386357
 30
0.0
 11
250.55624717313549
 21
76.974325532035422
 31
0.0
  0
LINE
  5
1FFC
  8
TITLE
 10
249.00190521125111
 20
75.594553315446305
 30
0.0
 11
250.3816774278412
 21
76.974325532035422
 31
0.0
  0
LINE
  5
1FFD
  8
TITLE
 10
248.88477478579171
 20
75.826562380576192
 30
0.0
 11
250.03253793725159
 21
76.974325532035422
 31
0.0
  0
LINE
  5
1FFE
  8
TITLE
 10
248.5953999514613
 20
76.23546652742084
 30
0.0
 11
249.3342589560751
 21
76.974325532035422
 31
0.0
  0
LINE
  5
1FFF
  8
TITLE
 10
248.51228679039289
 20
76.326923111679662
 30
0.0
 11
249.15968921074361
 21
76.974325532035422
 31
0.0
  0
LINE
  5
2000
  8
TITLE
 10
248.67428157355701
 20
76.139778404223762
 30
0.0
 11
249.50882870136959
 21
76.974325532035422
 31
0.0
  0
LINE
  5
2001
  8
TITLE
 10
248.8190792054138
 20
75.935436545491712
 30
0.0
 11
249.8579681919573
 21
76.974325532035422
 31
0.0
  0
LINE
  5
2002
  8
TITLE
 10
248.74887205369581
 20
76.039799139067782
 30
0.0
 11
249.6833984466648
 21
76.974325532035422
 31
0.0
  0
LINE
  5
2003
  8
TITLE
 10
248.7538949581558
 20
73.077136373553444
 30
0.0
 11
252.65108411661191
 21
76.974325532035422
 31
0.0
  0
LINE
  5
2004
  8
TITLE
 10
248.9891738330098
 20
73.486984993687656
 30
0.0
 11
252.47651437135761
 21
76.974325532034982
 31
0.0
  0
LINE
  5
2005
  8
TITLE
 10
249.0994866982592
 20
73.771867604231844
 30
0.0
 11
252.30194462606411
 21
76.974325532034982
 31
0.0
  0
LINE
  5
2006
  8
TITLE
 10
249.2215355912104
 20
74.592195478360296
 30
0.0
 11
251.60366564488581
 21
76.974325532035422
 31
0.0
  0
LINE
  5
2007
  8
TITLE
 10
249.16339043139209
 20
74.010341082657987
 30
0.0
 11
252.12737488076971
 21
76.974325532035422
 31
0.0
  0
LINE
  5
2008
  8
TITLE
 10
249.2000794247742
 20
74.221599821334848
 30
0.0
 11
251.95280513547459
 21
76.974325532035422
 31
0.0
  0
LINE
  5
2009
  8
TITLE
 10
249.21793814904871
 20
74.414028290904071
 30
0.0
 11
251.7782353901803
 21
76.974325532035422
 31
0.0
  0
LINE
  5
200A
  8
TITLE
 10
249.21368873159651
 20
74.758918364041619
 30
0.0
 11
251.42909589959069
 21
76.974325532035422
 31
0.0
  0
LINE
  5
200B
  8
TITLE
 10
290.93225179509682
 20
68.581328728176459
 30
0.0
 11
293.18930354793429
 21
70.838380481013942
 31
0.0
  0
LINE
  5
200C
  8
TITLE
 10
290.7576820498025
 20
68.581328728176459
 30
0.0
 11
293.01473380263991
 21
70.838380481013942
 31
0.0
  0
LINE
  5
200D
  8
TITLE
 10
290.58311230450818
 20
68.581328728176459
 30
0.0
 11
292.84016405734559
 21
70.838380481013942
 31
0.0
  0
LINE
  5
200E
  8
TITLE
 10
290.40854255921391
 20
68.581328728176459
 30
0.0
 11
292.66559431205133
 21
70.838380481013942
 31
0.0
  0
LINE
  5
200F
  8
TITLE
 10
292.32880975743689
 20
68.581328728176459
 30
0.0
 11
294.41640232823738
 21
70.668921298969735
 31
0.0
  0
LINE
  5
2010
  8
TITLE
 10
292.15424001214251
 20
68.581328728176459
 30
0.0
 11
294.41129176497998
 21
70.838380481013942
 31
0.0
  0
LINE
  5
2011
  8
TITLE
 10
291.97967026684819
 20
68.581328728176459
 30
0.0
 11
294.23672201968571
 21
70.838380481013942
 31
0.0
  0
LINE
  5
2012
  8
TITLE
 10
291.80510052155398
 20
68.581328728176459
 30
0.0
 11
294.06215227439139
 21
70.838380481013942
 31
0.0
  0
LINE
  5
2013
  8
TITLE
 10
291.6305307762741
 20
68.581328728176459
 30
0.0
 11
293.88758252911163
 21
70.838380481013942
 31
0.0
  0
LINE
  5
2014
  8
TITLE
 10
291.45596103097978
 20
68.581328728176459
 30
0.0
 11
293.71301278381821
 21
70.838380481013942
 31
0.0
  0
LINE
  5
2015
  8
TITLE
 10
291.2813912856854
 20
68.581328728176459
 30
0.0
 11
293.53844303852293
 21
70.838380481013942
 31
0.0
  0
LINE
  5
2016
  8
TITLE
 10
291.10682154039102
 20
68.581328728176459
 30
0.0
 11
293.36387329322861
 21
70.838380481013942
 31
0.0
  0
LINE
  5
2017
  8
TITLE
 10
292.50337950273121
 20
68.581328728176459
 30
0.0
 11
294.41640232823738
 21
70.494351553682691
 31
0.0
  0
LINE
  5
2018
  8
TITLE
 10
259.18579558665721
 20
74.192798012432149
 30
0.0
 11
261.74543603609987
 21
76.752438461867982
 31
0.0
  0
LINE
  5
2019
  8
TITLE
 10
259.41561866942169
 20
74.073481604607665
 30
0.0
 11
261.74543603609987
 21
76.40329897128548
 31
0.0
  0
LINE
  5
201A
  8
TITLE
 10
259.24104892412743
 20
74.073481604607665
 30
0.0
 11
261.74543603609987
 21
76.577868716572539
 31
0.0
  0
LINE
  5
201B
  8
TITLE
 10
249.9654486736863
 20
67.655039767944345
 30
0.0
 11
253.55413825579669
 21
71.243729350053172
 31
0.0
  0
LINE
  5
201C
  8
TITLE
 10
249.3554838271275
 20
67.394214411974417
 30
0.0
 11
253.81496361176599
 21
71.853694196611514
 31
0.0
  0
LINE
  5
201D
  8
TITLE
 10
249.64684197161111
 20
67.511002811170783
 30
0.0
 11
253.6981752125748
 21
71.56233605214085
 31
0.0
  0
LINE
  5
201E
  8
TITLE
 10
248.8294028136379
 20
67.217272889072547
 30
0.0
 11
253.9919051346678
 21
72.379775210102935
 31
0.0
  0
LINE
  5
201F
  8
TITLE
 10
248.58739388418141
 20
67.149833704910407
 30
0.0
 11
254.05934431883
 21
72.621784139559622
 31
0.0
  0
LINE
  5
2020
  8
TITLE
 10
249.08445227762789
 20
67.297752607775692
 30
0.0
 11
253.91142541596491
 21
72.124725746113199
 31
0.0
  0
LINE
  5
2021
  8
TITLE
 10
250.74833737596691
 20
68.088788979642899
 30
0.0
 11
253.1203890440984
 21
70.460840647774589
 31
0.0
  0
LINE
  5
2022
  8
TITLE
 10
251.3307838724221
 20
68.496665730803898
 30
0.0
 11
252.71251229293739
 21
69.878394151318162
 31
0.0
  0
LINE
  5
2023
  8
TITLE
 10
250.32366640914191
 20
67.838687758107881
 30
0.0
 11
253.37049026562821
 21
70.885511614591678
 31
0.0
  0
LINE
  5
2024
  8
TITLE
 10
267.64682929452192
 20
74.099914200939551
 30
0.0
 11
270.27757086755992
 21
76.73065577397027
 31
0.0
  0
LINE
  5
2025
  8
TITLE
 10
267.64682929452192
 20
74.274483946234113
 30
0.0
 11
270.27757086755992
 21
76.905225519265045
 31
0.0
  0
LINE
  5
2026
  8
TITLE
 10
266.32501125293771
 20
68.762992017615034
 30
0.0
 11
270.0959075781148
 21
72.533888342798946
 31
0.0
  0
LINE
  5
2027
  8
TITLE
 10
266.09404939078098
 20
68.706599900760466
 30
0.0
 11
270.15229969497619
 21
72.764850204948303
 31
0.0
  0
LINE
  5
2028
  8
TITLE
 10
265.87613373636208
 20
68.663253991620635
 30
0.0
 11
270.19564560411533
 21
72.982765859373785
 31
0.0
  0
LINE
  5
2029
  8
TITLE
 10
265.6690203602393
 20
68.630710360799853
 30
0.0
 11
270.22818923492918
 21
73.189879235496377
 31
0.0
  0
LINE
  5
202A
  8
TITLE
 10
265.47108407422462
 20
68.607343820072629
 30
0.0
 11
270.2515557756642
 21
73.387815521511342
 31
0.0
  0
LINE
  5
202B
  8
TITLE
 10
265.2811025744295
 20
68.591932065578249
 30
0.0
 11
270.2669675301504
 21
73.577797021299588
 31
0.0
  0
LINE
  5
202C
  8
TITLE
 10
265.09812893306213
 20
68.583528169498777
 30
0.0
 11
270.27537142623709
 21
73.760770662673821
 31
0.0
  0
LINE
  5
202D
  8
TITLE
 10
264.92135974644589
 20
68.581328728176459
 30
0.0
 11
270.27757086755992
 21
73.93753984929026
 31
0.0
  0
LINE
  5
202E
  8
TITLE
 10
263.00109254822291
 20
68.581328728176459
 30
0.0
 11
265.2664249468462
 21
70.846661126799958
 31
0.0
  0
LINE
  5
202F
  8
TITLE
 10
262.82652280292859
 20
68.581328728176459
 30
0.0
 11
265.02753631709771
 21
70.782342242345749
 31
0.0
  0
LINE
  5
2030
  8
TITLE
 10
262.65195305763427
 20
68.581328728176459
 30
0.0
 11
264.81039319024973
 21
70.739768860791614
 31
0.0
  0
LINE
  5
2031
  8
TITLE
 10
262.4773833123545
 20
68.581328728176459
 30
0.0
 11
264.60937542228839
 21
70.71332083812581
 31
0.0
  0
LINE
  5
2032
  8
TITLE
 10
263.35023203881161
 20
68.581328728176459
 30
0.0
 11
265.86651420364711
 21
71.097610893012416
 31
0.0
  0
LINE
  5
2033
  8
TITLE
 10
263.17566229351718
 20
68.581328728176459
 30
0.0
 11
265.53762169966922
 21
70.943288134329578
 31
0.0
  0
LINE
  5
2034
  8
TITLE
 10
263.52480178410588
 20
68.581328728176459
 30
0.0
 11
266.38138321965738
 21
71.437910163727793
 31
0.0
  0
LINE
  5
2035
  8
TITLE
 10
267.13957675298929
 20
69.053848281791502
 30
0.0
 11
269.80505131394511
 21
71.719322842746337
 31
0.0
  0
LINE
  5
2036
  8
TITLE
 10
267.48591116854919
 20
69.225612952056494
 30
0.0
 11
269.63328664367867
 21
71.372988427186556
 31
0.0
  0
LINE
  5
2037
  8
TITLE
 10
266.8409000658994
 20
68.929741339996568
 30
0.0
 11
269.92915825573988
 21
72.017999529836516
 31
0.0
  0
LINE
  5
2038
  8
TITLE
 10
266.57227526012048
 20
68.835686279496485
 30
0.0
 11
270.02321331623989
 21
72.286624335616125
 31
0.0
  0
LINE
  5
2039
  8
TITLE
 10
267.92981700445119
 20
69.494949042663833
 30
0.0
 11
269.36395055307167
 21
70.929082591285805
 31
0.0
  0
LINE
  5
203A
  8
TITLE
 10
260.32341356418692
 20
68.696765668821172
 30
0.0
 11
262.3228261291888
 21
70.696178233822593
 31
0.0
  0
LINE
  5
203B
  8
TITLE
 10
260.32341356418692
 20
70.442463121750052
 30
0.0
 11
260.57712867626009
 21
70.696178233822593
 31
0.0
  0
LINE
  5
203C
  8
TITLE
 10
260.32341356418692
 20
70.617032867044372
 30
0.0
 11
260.40255893096582
 21
70.696178233822593
 31
0.0
  0
LINE
  5
203D
  8
TITLE
 10
260.32341356418692
 20
69.918753885873684
 30
0.0
 11
261.1008379121285
 21
70.696178233822593
 31
0.0
  0
LINE
  5
203E
  8
TITLE
 10
260.32341356418692
 20
70.093323631168218
 30
0.0
 11
260.92626816684879
 21
70.696178233822593
 31
0.0
  0
LINE
  5
203F
  8
TITLE
 10
260.32341356418692
 20
70.267893376462325
 30
0.0
 11
260.75169842155452
 21
70.696178233822593
 31
0.0
  0
LINE
  5
2040
  8
TITLE
 10
260.32341356418692
 20
68.871335414115038
 30
0.0
 11
262.14825638389448
 21
70.696178233822593
 31
0.0
  0
LINE
  5
2041
  8
TITLE
 10
260.32341356418692
 20
69.045905159409344
 30
0.0
 11
261.97368663860021
 21
70.696178233822593
 31
0.0
  0
LINE
  5
2042
  8
TITLE
 10
260.32341356418692
 20
69.220474904703906
 30
0.0
 11
261.79911689330589
 21
70.696178233822593
 31
0.0
  0
LINE
  5
2043
  8
TITLE
 10
260.32341356418692
 20
69.395044649998681
 30
0.0
 11
261.62454714801152
 21
70.696178233822593
 31
0.0
  0
LINE
  5
2044
  8
TITLE
 10
260.32341356418692
 20
69.569614395292319
 30
0.0
 11
261.4499774027172
 21
70.696178233822593
 31
0.0
  0
LINE
  5
2045
  8
TITLE
 10
260.32341356418692
 20
69.74418414058664
 30
0.0
 11
261.27540765742287
 21
70.696178233822593
 31
0.0
  0
LINE
  5
2046
  8
TITLE
 10
261.95367407647058
 20
68.581328728176459
 30
0.0
 11
264.06852358211842
 21
70.696178233822593
 31
0.0
  0
LINE
  5
2047
  8
TITLE
 10
261.25539509529432
 20
68.581328728176459
 30
0.0
 11
263.37024460094023
 21
70.696178233822593
 31
0.0
  0
LINE
  5
2048
  8
TITLE
 10
261.08082535
 20
68.581328728176459
 30
0.0
 11
263.19567485564568
 21
70.696178233822593
 31
0.0
  0
LINE
  5
2049
  8
TITLE
 10
260.90625560470562
 20
68.581328728176459
 30
0.0
 11
263.02110511035249
 21
70.696178233822593
 31
0.0
  0
LINE
  5
204A
  8
TITLE
 10
260.7316858594113
 20
68.581328728176459
 30
0.0
 11
262.8465353650717
 21
70.696178233822593
 31
0.0
  0
LINE
  5
204B
  8
TITLE
 10
260.55711611413062
 20
68.581328728176459
 30
0.0
 11
262.67196561977738
 21
70.696178233822593
 31
0.0
  0
LINE
  5
204C
  8
TITLE
 10
260.38254636883721
 20
68.581328728176459
 30
0.0
 11
262.49739587448312
 21
70.696178233822593
 31
0.0
  0
LINE
  5
204D
  8
TITLE
 10
261.77910433117722
 20
68.581328728176459
 30
0.0
 11
263.89395383682307
 21
70.696178233822593
 31
0.0
  0
LINE
  5
204E
  8
TITLE
 10
261.6045345858829
 20
68.581328728176459
 30
0.0
 11
263.71938409152881
 21
70.696178233822593
 31
0.0
  0
LINE
  5
204F
  8
TITLE
 10
261.42996484058858
 20
68.581328728176459
 30
0.0
 11
263.54481434623449
 21
70.696178233822593
 31
0.0
  0
LINE
  5
2050
  8
TITLE
 10
262.12824382176581
 20
68.581328728176459
 30
0.0
 11
264.24309332741183
 21
70.696178233822593
 31
0.0
  0
LINE
  5
2051
  8
TITLE
 10
262.30281356706018
 20
68.581328728176459
 30
0.0
 11
264.42106453197539
 21
70.699579693092346
 31
0.0
  0
LINE
  5
2052
  8
TITLE
 10
264.74679000115162
 20
68.581328728176459
 30
0.0
 11
270.27757086755992
 21
74.112109594585021
 31
0.0
  0
LINE
  5
2053
  8
TITLE
 10
264.57222025585821
 20
68.581328728176459
 30
0.0
 11
270.27757086755992
 21
74.286679339871625
 31
0.0
  0
LINE
  5
2054
  8
TITLE
 10
264.39765051056293
 20
68.581328728176459
 30
0.0
 11
270.27757086755992
 21
74.461249085165946
 31
0.0
  0
LINE
  5
2055
  8
TITLE
 10
264.22308076528321
 20
68.581328728176459
 30
0.0
 11
270.27757086755992
 21
74.63581883045299
 31
0.0
  0
LINE
  5
2056
  8
TITLE
 10
264.04851101998798
 20
68.581328728176459
 30
0.0
 11
270.27757086755992
 21
74.810388575747993
 31
0.0
  0
LINE
  5
2057
  8
TITLE
 10
263.87394127469452
 20
68.581328728176459
 30
0.0
 11
270.27757086755992
 21
74.984958321041617
 31
0.0
  0
LINE
  5
2058
  8
TITLE
 10
263.6993715294002
 20
68.581328728176459
 30
0.0
 11
270.27757086755992
 21
75.159528066336179
 31
0.0
  0
LINE
  5
2059
  8
TITLE
 10
260.28846739589329
 20
74.073481604607665
 30
0.0
 11
261.74543603609987
 21
75.530450244814347
 31
0.0
  0
LINE
  5
205A
  8
TITLE
 10
260.11389765059897
 20
74.073481604607665
 30
0.0
 11
261.74543603609987
 21
75.705019990108426
 31
0.0
  0
LINE
  5
205B
  8
TITLE
 10
259.93932790530471
 20
74.073481604607665
 30
0.0
 11
261.74543603609987
 21
75.879589735402988
 31
0.0
  0
LINE
  5
205C
  8
TITLE
 10
259.76475816001039
 20
74.073481604607665
 30
0.0
 11
261.74543603609987
 21
76.054159480697095
 31
0.0
  0
LINE
  5
205D
  8
TITLE
 10
260.81217663177631
 20
74.073481604607665
 30
0.0
 11
261.74543603609987
 21
75.006741008938434
 31
0.0
  0
LINE
  5
205E
  8
TITLE
 10
260.63760688648108
 20
74.073481604607665
 30
0.0
 11
261.74543603609987
 21
75.181310754225478
 31
0.0
  0
LINE
  5
205F
  8
TITLE
 10
260.46303714118852
 20
74.073481604607665
 30
0.0
 11
261.74543603609987
 21
75.355880499519813
 31
0.0
  0
LINE
  5
2060
  8
TITLE
 10
261.33588586764472
 20
74.073481604607665
 30
0.0
 11
261.74543603609987
 21
74.483031773062294
 31
0.0
  0
LINE
  5
2061
  8
TITLE
 10
261.1613161223504
 20
74.073481604607665
 30
0.0
 11
261.74543603609987
 21
74.657601518350219
 31
0.0
  0
LINE
  5
2062
  8
TITLE
 10
260.98674637705523
 20
74.073481604607665
 30
0.0
 11
261.74543603609987
 21
74.832171263644582
 31
0.0
  0
LINE
  5
2063
  8
TITLE
 10
261.68502535823347
 20
74.073481604607665
 30
0.0
 11
261.74543603609987
 21
74.133892282474093
 31
0.0
  0
LINE
  5
2064
  8
TITLE
 10
261.5104556129391
 20
74.073481604607665
 30
0.0
 11
261.74543603609987
 21
74.308462027768428
 31
0.0
  0
LINE
  5
2065
  8
TITLE
 10
259.5901884147151
 20
74.073481604607665
 30
0.0
 11
261.74543603609987
 21
76.228729225991856
 31
0.0
  0
LINE
  5
2066
  8
TITLE
 10
267.24539663533142
 20
72.476493324704052
 30
0.0
 11
270.27757086755992
 21
75.508667556924124
 31
0.0
  0
LINE
  5
2067
  8
TITLE
 10
267.3997193940159
 20
72.805385828674616
 30
0.0
 11
270.27757086755992
 21
75.683237302218899
 31
0.0
  0
LINE
  5
2068
  8
TITLE
 10
267.49634640155813
 20
73.076582581504908
 30
0.0
 11
270.27757086755992
 21
75.857807047513901
 31
0.0
  0
LINE
  5
2069
  8
TITLE
 10
267.56066528599968
 20
73.315471211247981
 30
0.0
 11
270.27757086755992
 21
76.032376792800505
 31
0.0
  0
LINE
  5
206A
  8
TITLE
 10
266.90509736461632
 20
71.961624308694581
 30
0.0
 11
270.27757086755992
 21
75.3340978116305
 31
0.0
  0
LINE
  5
206B
  8
TITLE
 10
267.60323866756698
 20
73.532614338095058
 30
0.0
 11
270.27757086755992
 21
76.206946538095281
 31
0.0
  0
LINE
  5
206C
  8
TITLE
 10
267.62968669021939
 20
73.733632106055225
 30
0.0
 11
270.27757086755992
 21
76.381516283388692
 31
0.0
  0
LINE
  5
206D
  8
TITLE
 10
267.64342783525262
 20
73.921942996376416
 30
0.0
 11
270.27757086755992
 21
76.556086028676404
 31
0.0
  0
LINE
  5
206E
  8
TITLE
 10
278.53779987930187
 20
68.581328728176459
 30
0.0
 11
278.98745850800151
 21
69.030987356891728
 31
0.0
  0
LINE
  5
206F
  8
TITLE
 10
278.36323013400761
 20
68.581328728176459
 30
0.0
 11
278.98745850800151
 21
69.205557102178318
 31
0.0
  0
LINE
  5
2070
  8
TITLE
 10
278.18866038871238
 20
68.581328728176459
 30
0.0
 11
278.98745850800151
 21
69.380126847472624
 31
0.0
  0
LINE
  5
2071
  8
TITLE
 10
278.014090643418
 20
68.581328728176459
 30
0.0
 11
278.98745850800151
 21
69.554696592766717
 31
0.0
  0
LINE
  5
2072
  8
TITLE
 10
277.83952089812368
 20
68.581328728176459
 30
0.0
 11
278.98745850800151
 21
69.729266338053776
 31
0.0
  0
LINE
  5
2073
  8
TITLE
 10
276.79210242637242
 20
68.581328728176459
 30
0.0
 11
278.98745850800151
 21
70.776684809819685
 31
0.0
  0
LINE
  5
2074
  8
TITLE
 10
276.61753268107901
 20
68.581328728176459
 30
0.0
 11
278.98745850800151
 21
70.951254555114247
 31
0.0
  0
LINE
  5
2075
  8
TITLE
 10
276.96667217166669
 20
68.581328728176459
 30
0.0
 11
278.98745850800151
 21
70.60211506452562
 31
0.0
  0
LINE
  5
2076
  8
TITLE
 10
277.66495115282942
 20
68.581328728176459
 30
0.0
 11
278.98745850800151
 21
69.903836083348097
 31
0.0
  0
LINE
  5
2077
  8
TITLE
 10
277.4903814075351
 20
68.581328728176459
 30
0.0
 11
278.98745850800151
 21
70.078405828642431
 31
0.0
  0
LINE
  5
2078
  8
TITLE
 10
277.31581166224078
 20
68.581328728176459
 30
0.0
 11
278.98745850800151
 21
70.252975573937192
 31
0.0
  0
LINE
  5
2079
  8
TITLE
 10
277.14124191696101
 20
68.581328728176459
 30
0.0
 11
278.98745850800151
 21
70.427545319231044
 31
0.0
  0
LINE
  5
207A
  8
TITLE
 10
276.44296293578373
 20
68.581328728176459
 30
0.0
 11
278.98745850800151
 21
71.125824300401064
 31
0.0
  0
LINE
  5
207B
  8
TITLE
 10
276.35671693497898
 20
68.669652472664438
 30
0.0
 11
278.98745850800151
 21
71.300394045695356
 31
0.0
  0
LINE
  5
207C
  8
TITLE
 10
276.35671693497898
 20
68.844222217958972
 30
0.0
 11
278.98745850800151
 21
71.474963790989705
 31
0.0
  0
LINE
  5
207D
  8
TITLE
 10
276.35671693497898
 20
69.018791963246244
 30
0.0
 11
278.98745850800151
 21
71.649533536276735
 31
0.0
  0
LINE
  5
207E
  8
TITLE
 10
276.35671693497898
 20
69.193361708539896
 30
0.0
 11
278.98745850800151
 21
71.824103281571297
 31
0.0
  0
LINE
  5
207F
  8
TITLE
 10
276.35671693497898
 20
69.717070944416037
 30
0.0
 11
278.98745850800151
 21
72.347812517453562
 31
0.0
  0
LINE
  5
2080
  8
TITLE
 10
276.35671693497898
 20
69.891640689710357
 30
0.0
 11
278.98745850800151
 21
72.522382262748351
 31
0.0
  0
LINE
  5
2081
  8
TITLE
 10
276.35671693497898
 20
70.06621043500445
 30
0.0
 11
278.98745850800151
 21
72.696952008042445
 31
0.0
  0
LINE
  5
2082
  8
TITLE
 10
276.35671693497898
 20
70.240780180298998
 30
0.0
 11
278.98745850800151
 21
72.871521753329702
 31
0.0
  0
LINE
  5
2083
  8
TITLE
 10
276.35671693497898
 20
70.415349925593546
 30
0.0
 11
278.98745850800151
 21
73.046091498624023
 31
0.0
  0
LINE
  5
2084
  8
TITLE
 10
276.35671693497898
 20
70.589919670887184
 30
0.0
 11
278.98745850800151
 21
73.22066124391813
 31
0.0
  0
LINE
  5
2085
  8
TITLE
 10
276.35671693497898
 20
69.367931453834672
 30
0.0
 11
278.98745850800151
 21
71.99867302686539
 31
0.0
  0
LINE
  5
2086
  8
TITLE
 10
276.35671693497898
 20
69.542501199122171
 30
0.0
 11
278.98745850800151
 21
72.173242772159696
 31
0.0
  0
LINE
  5
2087
  8
TITLE
 10
276.35671693497898
 20
70.764489416181931
 30
0.0
 11
278.98745850800151
 21
73.395230989205629
 31
0.0
  0
LINE
  5
2088
  8
TITLE
 10
276.35671693497898
 20
70.939059161469444
 30
0.0
 11
278.98745850800151
 21
73.569800734500191
 31
0.0
  0
LINE
  5
2089
  8
TITLE
 10
276.35671693497898
 20
71.113628906763324
 30
0.0
 11
278.98745850800151
 21
73.744370479794497
 31
0.0
  0
LINE
  5
208A
  8
TITLE
 10
276.35671693497898
 20
71.288198652051278
 30
0.0
 11
278.98745850800151
 21
73.918940225088591
 31
0.0
  0
LINE
  5
208B
  8
TITLE
 10
278.88693936988972
 20
68.581328728176459
 30
0.0
 11
278.98745850800151
 21
68.681847866302405
 31
0.0
  0
LINE
  5
208C
  8
TITLE
 10
278.7123696245954
 20
68.581328728176459
 30
0.0
 11
278.98745850800151
 21
68.856417611597649
 31
0.0
  0
LINE
  5
208D
  8
TITLE
 10
276.35671693497898
 20
72.859326359692673
 30
0.0
 11
278.98745850800151
 21
75.490067932723605
 31
0.0
  0
LINE
  5
208E
  8
TITLE
 10
276.35671693497898
 20
73.033896104986539
 30
0.0
 11
278.98745850800151
 21
75.664637678017698
 31
0.0
  0
LINE
  5
208F
  8
TITLE
 10
276.35671693497898
 20
73.208465850273583
 30
0.0
 11
278.98745850800151
 21
75.839207423311791
 31
0.0
  0
LINE
  5
2090
  8
TITLE
 10
276.35671693497898
 20
73.383035595568117
 30
0.0
 11
278.98745850800151
 21
76.013777168605657
 31
0.0
  0
LINE
  5
2091
  8
TITLE
 10
276.35671693497898
 20
72.335617123816732
 30
0.0
 11
278.98745850800151
 21
74.966358696847465
 31
0.0
  0
LINE
  5
2092
  8
TITLE
 10
276.35671693497898
 20
72.51018686911037
 30
0.0
 11
278.98745850800151
 21
75.140928442134495
 31
0.0
  0
LINE
  5
2093
  8
TITLE
 10
276.35671693497898
 20
72.684756614398353
 30
0.0
 11
278.98745850800151
 21
75.315498187429071
 31
0.0
  0
LINE
  5
2094
  8
TITLE
 10
276.35671693497898
 20
71.986477633227651
 30
0.0
 11
278.98745850800151
 21
74.617219206266313
 31
0.0
  0
LINE
  5
2095
  8
TITLE
 10
276.35671693497898
 20
72.161047378522184
 30
0.0
 11
278.98745850800151
 21
74.791788951552903
 31
0.0
  0
LINE
  5
2096
  8
TITLE
 10
276.35671693497898
 20
71.462768397345585
 30
0.0
 11
278.98745850800151
 21
74.093509970382684
 31
0.0
  0
LINE
  5
2097
  8
TITLE
 10
276.35671693497898
 20
71.637338142639237
 30
0.0
 11
278.98745850800151
 21
74.268079715676762
 31
0.0
  0
LINE
  5
2098
  8
TITLE
 10
276.35671693497898
 20
71.811907887933785
 30
0.0
 11
278.98745850800151
 21
74.442649460971325
 31
0.0
  0
LINE
  5
2099
  8
TITLE
 10
271.20188547430371
 20
75.210993946614266
 30
0.0
 11
271.63511114366798
 21
75.644219615986913
 31
0.0
  0
LINE
  5
209A
  8
TITLE
 10
271.20188547430371
 20
75.385563691902703
 30
0.0
 11
271.45590011567668
 21
75.639578333289577
 31
0.0
  0
LINE
  5
209B
  8
TITLE
 10
271.20188547430371
 20
74.512714965444275
 30
0.0
 11
272.38247207059248
 21
75.693301561733279
 31
0.0
  0
LINE
  5
209C
  8
TITLE
 10
271.20188547430371
 20
74.687284710738794
 30
0.0
 11
272.19071910940789
 21
75.676118345844543
 31
0.0
  0
LINE
  5
209D
  8
TITLE
 10
271.20188547430371
 20
74.861854456033143
 30
0.0
 11
272.00236180762022
 21
75.66233078935079
 31
0.0
  0
LINE
  5
209E
  8
TITLE
 10
271.20188547430371
 20
75.036424201320187
 30
0.0
 11
271.8172147710693
 21
75.651753498093498
 31
0.0
  0
LINE
  5
209F
  8
TITLE
 10
271.20188547430371
 20
75.560133437196313
 30
0.0
 11
271.27944484892402
 21
75.637692811832054
 31
0.0
  0
LINE
  5
20A0
  8
TITLE
 10
271.20188547430371
 20
74.16357547485562
 30
0.0
 11
272.7770180000316
 21
75.738708000584424
 31
0.0
  0
LINE
  5
20A1
  8
TITLE
 10
271.20188547430371
 20
74.338145220150182
 30
0.0
 11
272.57782763935938
 21
75.714087385207648
 31
0.0
  0
LINE
  5
20A2
  8
TITLE
 10
271.20188547430371
 20
73.639866238973582
 30
0.0
 11
273.40040164964739
 21
75.838382414332926
 31
0.0
  0
LINE
  5
20A3
  8
TITLE
 10
271.20188547430371
 20
73.814435984267661
 30
0.0
 11
273.18798635320491
 21
75.800536863176831
 31
0.0
  0
LINE
  5
20A4
  8
TITLE
 10
271.20188547430371
 20
73.98900572956174
 30
0.0
 11
272.98030511064741
 21
75.767425365920417
 31
0.0
  0
LINE
  5
20A5
  8
TITLE
 10
272.93173253545052
 20
73.44944610191169
 30
0.0
 11
276.24235078142192
 21
76.760064347883812
 31
0.0
  0
LINE
  5
20A6
  8
TITLE
 10
272.72944197949988
 20
73.421725291255584
 30
0.0
 11
275.92229029338893
 21
76.614573605137821
 31
0.0
  0
LINE
  5
20A7
  8
TITLE
 10
272.53118310778967
 20
73.39803616482574
 30
0.0
 11
275.62128668923469
 21
76.488139746278193
 31
0.0
  0
LINE
  5
20A8
  8
TITLE
 10
272.33670148424062
 20
73.378124286585489
 30
0.0
 11
275.33577774360128
 21
76.377200545931601
 31
0.0
  0
LINE
  5
20A9
  8
TITLE
 10
272.14577128128258
 20
73.361763828921312
 30
0.0
 11
275.06321511927672
 21
76.279207666908633
 31
0.0
  0
LINE
  5
20AA
  8
TITLE
 10
271.95819096527612
 20
73.348753258195501
 30
0.0
 11
274.80170030758381
 21
76.192262600503
 31
0.0
  0
LINE
  5
20AB
  8
TITLE
 10
271.59237490345731
 20
73.332076686970822
 30
0.0
 11
274.30628234015057
 21
76.045984123658187
 31
0.0
  0
LINE
  5
20AC
  8
TITLE
 10
271.41382898941902
 20
73.328100518220481
 30
0.0
 11
274.0702994724079
 21
75.984571001209588
 31
0.0
  0
LINE
  5
20AD
  8
TITLE
 10
271.23800825273241
 20
73.326849526828269
 30
0.0
 11
273.8410639165113
 21
75.929905190600934
 31
0.0
  0
LINE
  5
20AE
  8
TITLE
 10
271.20188547430371
 20
73.465296493685855
 30
0.0
 11
273.61794253845261
 21
75.881353557842431
 31
0.0
  0
LINE
  5
20AF
  8
TITLE
 10
271.77377978741612
 20
73.33891182563616
 30
0.0
 11
274.54977331270038
 21
76.114905350913887
 31
0.0
  0
LINE
  5
20B0
  8
TITLE
 10
287.32406524958418
 20
74.22533868319033
 30
0.0
 11
289.81260457541708
 21
76.713878009030367
 31
0.0
  0
LINE
  5
20B1
  8
TITLE
 10
287.32406524958418
 20
74.399908428484864
 30
0.0
 11
289.81260457541708
 21
76.888447754317653
 31
0.0
  0
LINE
  5
20B2
  8
TITLE
 10
290.23397281391959
 20
68.581328728176459
 30
0.0
 11
292.49102456675791
 21
70.838380481013942
 31
0.0
  0
LINE
  5
20B3
  8
TITLE
 10
290.05940306862522
 20
68.581328728176459
 30
0.0
 11
292.31645482146268
 21
70.838380481013942
 31
0.0
  0
LINE
  5
20B4
  8
TITLE
 10
289.88483332332999
 20
68.581328728176459
 30
0.0
 11
292.14188507616842
 21
70.838380481013942
 31
0.0
  0
LINE
  5
20B5
  8
TITLE
 10
289.71026357805118
 20
68.581328728176459
 30
0.0
 11
291.9673153308886
 21
70.838380481013942
 31
0.0
  0
LINE
  5
20B6
  8
TITLE
 10
289.53569383275681
 20
68.581328728176459
 30
0.0
 11
291.79274558559428
 21
70.838380481013942
 31
0.0
  0
LINE
  5
20B7
  8
TITLE
 10
289.36112408746339
 20
68.581328728176459
 30
0.0
 11
291.6181758402999
 21
70.838380481013942
 31
0.0
  0
LINE
  5
20B8
  8
TITLE
 10
289.18655434216822
 20
68.581328728176459
 30
0.0
 11
291.44360609500558
 21
70.838380481013942
 31
0.0
  0
LINE
  5
20B9
  8
TITLE
 10
289.01198459687367
 20
68.581328728176459
 30
0.0
 11
291.2690363497112
 21
70.838380481013942
 31
0.0
  0
LINE
  5
20BA
  8
TITLE
 10
288.83741485157952
 20
68.581328728176459
 30
0.0
 11
291.09446660441688
 21
70.838380481013942
 31
0.0
  0
LINE
  5
20BB
  8
TITLE
 10
284.99688045513358
 20
68.581328728176459
 30
0.0
 11
287.2539322079711
 21
70.838380481013942
 31
0.0
  0
LINE
  5
20BC
  8
TITLE
 10
284.82231070983818
 20
68.581328728176459
 30
0.0
 11
287.07936246267582
 21
70.838380481013942
 31
0.0
  0
LINE
  5
20BD
  8
TITLE
 10
286.74257790806229
 20
68.581328728176459
 30
0.0
 11
289.81260457541708
 21
71.651355395531013
 31
0.0
  0
LINE
  5
20BE
  8
TITLE
 10
286.56800816276791
 20
68.581328728176459
 30
0.0
 11
289.81260457541708
 21
71.825925140825575
 31
0.0
  0
LINE
  5
20BF
  8
TITLE
 10
286.39343841747359
 20
68.581328728176459
 30
0.0
 11
289.81260457541708
 21
72.000494886119654
 31
0.0
  0
LINE
  5
20C0
  8
TITLE
 10
286.21886867218018
 20
68.581328728176459
 30
0.0
 11
289.81260457541708
 21
72.175064631414202
 31
0.0
  0
LINE
  5
20C1
  8
TITLE
 10
286.0442989268995
 20
68.581328728176459
 30
0.0
 11
289.81260457541708
 21
72.349634376707627
 31
0.0
  0
LINE
  5
20C2
  8
TITLE
 10
285.86972918160438
 20
68.581328728176459
 30
0.0
 11
289.81260457541708
 21
72.524204122002416
 31
0.0
  0
LINE
  5
20C3
  8
TITLE
 10
285.6951594363108
 20
68.581328728176459
 30
0.0
 11
289.81260457541708
 21
72.698773867297618
 31
0.0
  0
LINE
  5
20C4
  8
TITLE
 10
285.52058969101648
 20
68.581328728176459
 30
0.0
 11
289.81260457541708
 21
72.873343612584662
 31
0.0
  0
LINE
  5
20C5
  8
TITLE
 10
285.34601994572222
 20
68.581328728176459
 30
0.0
 11
289.81260457541708
 21
73.047913357878301
 31
0.0
  0
LINE
  5
20C6
  8
TITLE
 10
285.17145020042778
 20
68.581328728176459
 30
0.0
 11
289.81260457541708
 21
73.222483103172621
 31
0.0
  0
LINE
  5
20C7
  8
TITLE
 10
284.47317121925062
 20
68.581328728176459
 30
0.0
 11
286.73022297210173
 21
70.838380481013942
 31
0.0
  0
LINE
  5
20C8
  8
TITLE
 10
284.64774096454488
 20
68.581328728176459
 30
0.0
 11
286.90479271738241
 21
70.838380481013942
 31
0.0
  0
LINE
  5
20C9
  8
TITLE
 10
287.78999637982719
 20
68.581328728176459
 30
0.0
 11
290.04704813266562
 21
70.838380481013942
 31
0.0
  0
LINE
  5
20CA
  8
TITLE
 10
287.61542663453292
 20
68.581328728176459
 30
0.0
 11
289.8724783873713
 21
70.838380481013942
 31
0.0
  0
LINE
  5
20CB
  8
TITLE
 10
287.44085688923951
 20
68.581328728176459
 30
0.0
 11
289.81260457541708
 21
70.953076414368525
 31
0.0
  0
LINE
  5
20CC
  8
TITLE
 10
287.26628714394519
 20
68.581328728176459
 30
0.0
 11
289.81260457541708
 21
71.127646159655129
 31
0.0
  0
LINE
  5
20CD
  8
TITLE
 10
287.09171739865093
 20
68.581328728176459
 30
0.0
 11
289.81260457541708
 21
71.302215904949435
 31
0.0
  0
LINE
  5
20CE
  8
TITLE
 10
286.91714765335661
 20
68.581328728176459
 30
0.0
 11
289.81260457541708
 21
71.476785650236479
 31
0.0
  0
LINE
  5
20CF
  8
TITLE
 10
287.32406524958418
 20
70.908513522620524
 30
0.0
 11
289.81260457541708
 21
73.397052848459694
 31
0.0
  0
LINE
  5
20D0
  8
TITLE
 10
287.32406524958418
 20
71.083083267915541
 30
0.0
 11
289.81260457541708
 21
73.571622593754228
 31
0.0
  0
LINE
  5
20D1
  8
TITLE
 10
287.32406524958418
 20
71.257653013208483
 30
0.0
 11
289.81260457541708
 21
73.746192339048989
 31
0.0
  0
LINE
  5
20D2
  8
TITLE
 10
287.32406524958418
 20
71.432222758495513
 30
0.0
 11
289.81260457541708
 21
73.920762084342869
 31
0.0
  0
LINE
  5
20D3
  8
TITLE
 10
288.66284510628509
 20
68.581328728176459
 30
0.0
 11
290.9198968591237
 21
70.838380481013942
 31
0.0
  0
LINE
  5
20D4
  8
TITLE
 10
288.48827536099088
 20
68.581328728176459
 30
0.0
 11
290.74532711382921
 21
70.838380481013942
 31
0.0
  0
LINE
  5
20D5
  8
TITLE
 10
288.31370561569662
 20
68.581328728176459
 30
0.0
 11
290.57075736853398
 21
70.838380481013942
 31
0.0
  0
LINE
  5
20D6
  8
TITLE
 10
288.13913587040219
 20
68.581328728176459
 30
0.0
 11
290.39618762323971
 21
70.838380481013942
 31
0.0
  0
LINE
  5
20D7
  8
TITLE
 10
287.96456612512247
 20
68.581328728176459
 30
0.0
 11
290.22161787796
 21
70.838380481013942
 31
0.0
  0
LINE
  5
20D8
  8
TITLE
 10
282.7202674967649
 20
69.272401439796539
 30
0.0
 11
284.28624653799659
 21
70.838380481013942
 31
0.0
  0
LINE
  5
20D9
  8
TITLE
 10
282.7202674967649
 20
70.494389656842486
 30
0.0
 11
283.0642583209364
 21
70.838380481013942
 31
0.0
  0
LINE
  5
20DA
  8
TITLE
 10
282.7202674967649
 20
70.668959402136579
 30
0.0
 11
282.88968857565669
 21
70.838380481013942
 31
0.0
  0
LINE
  5
20DB
  8
TITLE
 10
282.7202674967649
 20
69.970680420959525
 30
0.0
 11
283.58796755681942
 21
70.838380481013942
 31
0.0
  0
LINE
  5
20DC
  8
TITLE
 10
282.7202674967649
 20
70.145250166253859
 30
0.0
 11
283.4133978115251
 21
70.838380481013942
 31
0.0
  0
LINE
  5
20DD
  8
TITLE
 10
282.7202674967649
 20
70.319819911547924
 30
0.0
 11
283.23882806622981
 21
70.838380481013942
 31
0.0
  0
LINE
  5
20DE
  8
TITLE
 10
282.7202674967649
 20
69.796110675672026
 30
0.0
 11
283.7625373021138
 21
70.838380481013942
 31
0.0
  0
LINE
  5
20DF
  8
TITLE
 10
282.7202674967649
 20
69.446971185090661
 30
0.0
 11
284.11167679270147
 21
70.838380481013942
 31
0.0
  0
LINE
  5
20E0
  8
TITLE
 10
282.7202674967649
 20
69.621540930377478
 30
0.0
 11
283.93710704740812
 21
70.838380481013942
 31
0.0
  0
LINE
  5
20E1
  8
TITLE
 10
282.72747376632202
 20
68.581328728176459
 30
0.0
 11
284.98452551915938
 21
70.838380481013942
 31
0.0
  0
LINE
  5
20E2
  8
TITLE
 10
282.7202674967649
 20
68.748692203914061
 30
0.0
 11
284.80995577386511
 21
70.838380481013942
 31
0.0
  0
LINE
  5
20E3
  8
TITLE
 10
282.7202674967649
 20
68.923261949207472
 30
0.0
 11
284.63538602858517
 21
70.838380481013942
 31
0.0
  0
LINE
  5
20E4
  8
TITLE
 10
282.7202674967649
 20
69.097831694502247
 30
0.0
 11
284.46081628329108
 21
70.838380481013942
 31
0.0
  0
LINE
  5
20E5
  8
TITLE
 10
284.12403172867653
 20
68.581328728176459
 30
0.0
 11
286.381083481514
 21
70.838380481013942
 31
0.0
  0
LINE
  5
20E6
  8
TITLE
 10
283.9494619833813
 20
68.581328728176459
 30
0.0
 11
286.20651373621968
 21
70.838380481013942
 31
0.0
  0
LINE
  5
20E7
  8
TITLE
 10
283.77489223808789
 20
68.581328728176459
 30
0.0
 11
286.03194399092541
 21
70.838380481013942
 31
0.0
  0
LINE
  5
20E8
  8
TITLE
 10
283.60032249279362
 20
68.581328728176459
 30
0.0
 11
285.85737424563013
 21
70.838380481013942
 31
0.0
  0
LINE
  5
20E9
  8
TITLE
 10
283.42575274749919
 20
68.581328728176459
 30
0.0
 11
285.68280450033677
 21
70.838380481013942
 31
0.0
  0
LINE
  5
20EA
  8
TITLE
 10
283.25118300220493
 20
68.581328728176459
 30
0.0
 11
285.50823475504149
 21
70.838380481013942
 31
0.0
  0
LINE
  5
20EB
  8
TITLE
 10
283.0766132569097
 20
68.581328728176459
 30
0.0
 11
285.33366500974807
 21
70.838380481013942
 31
0.0
  0
LINE
  5
20EC
  8
TITLE
 10
282.90204351161537
 20
68.581328728176459
 30
0.0
 11
285.15909526445381
 21
70.838380481013942
 31
0.0
  0
LINE
  5
20ED
  8
TITLE
 10
284.29860147397079
 20
68.581328728176459
 30
0.0
 11
286.55565322680832
 21
70.838380481013942
 31
0.0
  0
LINE
  5
20EE
  8
TITLE
 10
287.32406524958418
 20
74.05076893789645
 30
0.0
 11
289.81260457541708
 21
76.539308263735848
 31
0.0
  0
LINE
  5
20EF
  8
TITLE
 10
287.32406524958418
 20
73.003350466138045
 30
0.0
 11
289.81260457541708
 21
75.491889791977655
 31
0.0
  0
LINE
  5
20F0
  8
TITLE
 10
287.32406524958418
 20
73.17792021142462
 30
0.0
 11
289.81260457541708
 21
75.666459537271734
 31
0.0
  0
LINE
  5
20F1
  8
TITLE
 10
287.32406524958418
 20
73.352489956718941
 30
0.0
 11
289.81260457541708
 21
75.841029282566296
 31
0.0
  0
LINE
  5
20F2
  8
TITLE
 10
287.32406524958418
 20
73.527059702013943
 30
0.0
 11
289.81260457541708
 21
76.015599027860617
 31
0.0
  0
LINE
  5
20F3
  8
TITLE
 10
287.32406524958418
 20
72.47964123026145
 30
0.0
 11
289.81260457541708
 21
74.968180556101728
 31
0.0
  0
LINE
  5
20F4
  8
TITLE
 10
287.32406524958418
 20
72.654210975549404
 30
0.0
 11
289.81260457541708
 21
75.142750301388773
 31
0.0
  0
LINE
  5
20F5
  8
TITLE
 10
287.32406524958418
 20
72.82878072084371
 30
0.0
 11
289.81260457541708
 21
75.317320046683093
 31
0.0
  0
LINE
  5
20F6
  8
TITLE
 10
287.32406524958418
 20
72.130501739673477
 30
0.0
 11
289.81260457541708
 21
74.619041065513542
 31
0.0
  0
LINE
  5
20F7
  8
TITLE
 10
287.32406524958418
 20
72.30507148496757
 30
0.0
 11
289.81260457541708
 21
74.79361081080809
 31
0.0
  0
LINE
  5
20F8
  8
TITLE
 10
287.32406524958418
 20
71.606792503790288
 30
0.0
 11
289.81260457541708
 21
74.095331829637203
 31
0.0
  0
LINE
  5
20F9
  8
TITLE
 10
287.32406524958418
 20
71.781362249085078
 30
0.0
 11
289.81260457541708
 21
74.269901574931282
 31
0.0
  0
LINE
  5
20FA
  8
TITLE
 10
287.32406524958418
 20
71.955931994379839
 30
0.0
 11
289.81260457541708
 21
74.444471320225588
 31
0.0
  0
LINE
  5
20FB
  8
TITLE
 10
287.32406524958418
 20
73.701629447307582
 30
0.0
 11
289.81260457541708
 21
76.190168773154483
 31
0.0
  0
LINE
  5
20FC
  8
TITLE
 10
287.32406524958418
 20
73.876199192602812
 30
0.0
 11
289.81260457541708
 21
76.364738518449244
 31
0.0
  0
LINE
  5
20FD
  8
TITLE
 10
313.97545817375982
 20
68.581328728176459
 30
0.0
 11
315.68032230049891
 21
70.286192854909586
 31
0.0
  0
LINE
  5
20FE
  8
TITLE
 10
314.49916740964181
 20
68.581328728176459
 30
0.0
 11
316.20403153636738
 21
70.286192854909586
 31
0.0
  0
LINE
  5
20FF
  8
TITLE
 10
314.32459766434749
 20
68.581328728176459
 30
0.0
 11
316.02946179107312
 21
70.286192854909586
 31
0.0
  0
LINE
  5
2100
  8
TITLE
 10
314.15002791905317
 20
68.581328728176459
 30
0.0
 11
315.85489204577971
 21
70.286192854909586
 31
0.0
  0
LINE
  5
2101
  8
TITLE
 10
313.80088842846448
 20
68.581328728176459
 30
0.0
 11
315.50575255520471
 21
70.286192854909586
 31
0.0
  0
LINE
  5
2102
  8
TITLE
 10
313.62631868317021
 20
68.581328728176459
 30
0.0
 11
315.3311828099113
 21
70.286192854909586
 31
0.0
  0
LINE
  5
2103
  8
TITLE
 10
313.45174893789039
 20
68.581328728176459
 30
0.0
 11
315.15661306461612
 21
70.286192854909586
 31
0.0
  0
LINE
  5
2104
  8
TITLE
 10
313.27717919259612
 20
68.581328728176459
 30
0.0
 11
314.98204331932169
 21
70.286192854909586
 31
0.0
  0
LINE
  5
2105
  8
TITLE
 10
313.1026094473018
 20
68.581328728176459
 30
0.0
 11
314.80747357402743
 21
70.286192854909586
 31
0.0
  0
LINE
  5
2106
  8
TITLE
 10
312.92803970200748
 20
68.581328728176459
 30
0.0
 11
314.63290382873322
 21
70.286192854909586
 31
0.0
  0
LINE
  5
2107
  8
TITLE
 10
303.28494584027612
 20
74.300372452229794
 30
0.0
 11
304.41798972829838
 21
75.433416340251384
 31
0.0
  0
LINE
  5
2108
  8
TITLE
 10
303.22022286633091
 20
74.584788968872772
 30
0.0
 11
304.06885023770968
 21
75.433416340251384
 31
0.0
  0
LINE
  5
2109
  8
TITLE
 10
303.18786137935882
 20
74.726997227194502
 30
0.0
 11
303.89428049241542
 21
75.433416340251384
 31
0.0
  0
LINE
  5
210A
  8
TITLE
 10
303.15549989238559
 20
74.869205485516645
 30
0.0
 11
303.7197107471211
 21
75.433416340251384
 31
0.0
  0
LINE
  5
210B
  8
TITLE
 10
303.25258435330397
 20
74.442580710551695
 30
0.0
 11
304.24341998300412
 21
75.433416340251384
 31
0.0
  0
LINE
  5
210C
  8
TITLE
 10
303.31730732724918
 20
74.158164193907623
 30
0.0
 11
304.59255947359179
 21
75.433416340251384
 31
0.0
  0
LINE
  5
210D
  8
TITLE
 10
301.75557600325823
 20
68.581328728176459
 30
0.0
 11
303.9751625276931
 21
70.800915252611503
 31
0.0
  0
LINE
  5
210E
  8
TITLE
 10
301.581006257963
 20
68.581328728176459
 30
0.0
 11
303.80059278239878
 21
70.800915252611503
 31
0.0
  0
LINE
  5
210F
  8
TITLE
 10
301.40643651266868
 20
68.581328728176459
 30
0.0
 11
303.62602303710452
 21
70.800915252611503
 31
0.0
  0
LINE
  5
2110
  8
TITLE
 10
303.1521339655983
 20
68.581328728176459
 30
0.0
 11
306.3262095875898
 21
71.755404350167737
 31
0.0
  0
LINE
  5
2111
  8
TITLE
 10
302.97756422030398
 20
68.581328728176459
 30
0.0
 11
306.29384810063118
 21
71.897612608489453
 31
0.0
  0
LINE
  5
2112
  8
TITLE
 10
302.8029944750096
 20
68.581328728176459
 30
0.0
 11
306.26148661365818
 21
72.039820866818886
 31
0.0
  0
LINE
  5
2113
  8
TITLE
 10
302.62842472972892
 20
68.581328728176459
 30
0.0
 11
306.22912512668609
 21
72.182029125139252
 31
0.0
  0
LINE
  5
2114
  8
TITLE
 10
302.45385498443471
 20
68.581328728176459
 30
0.0
 11
306.19676363971308
 21
72.32423738346165
 31
0.0
  0
LINE
  5
2115
  8
TITLE
 10
302.27928523914039
 20
68.581328728176459
 30
0.0
 11
306.16440215274002
 21
72.466445641783366
 31
0.0
  0
LINE
  5
2116
  8
TITLE
 10
302.10471549384602
 20
68.581328728176459
 30
0.0
 11
306.13204066576691
 21
72.608653900104414
 31
0.0
  0
LINE
  5
2117
  8
TITLE
 10
301.9301457485526
 20
68.581328728176459
 30
0.0
 11
306.0996791787947
 21
72.75086215842542
 31
0.0
  0
LINE
  5
2118
  8
TITLE
 10
303.50127345618608
 20
68.581328728176459
 30
0.0
 11
306.39093256153501
 21
71.470987833524532
 31
0.0
  0
LINE
  5
2119
  8
TITLE
 10
303.32670371089171
 20
68.581328728176459
 30
0.0
 11
306.35857107456189
 21
71.61319609184649
 31
0.0
  0
LINE
  5
211A
  8
TITLE
 10
303.41439178816739
 20
73.731539418943626
 30
0.0
 11
305.11626870946111
 21
75.433416340251384
 31
0.0
  0
LINE
  5
211B
  8
TITLE
 10
303.3820303011953
 20
73.873747677265087
 30
0.0
 11
304.94169896416679
 21
75.433416340251384
 31
0.0
  0
LINE
  5
211C
  8
TITLE
 10
303.34966881422218
 20
74.015955935586817
 30
0.0
 11
304.76712921888708
 21
75.433416340251384
 31
0.0
  0
LINE
  5
211D
  8
TITLE
 10
303.54383773604508
 20
73.162706385658112
 30
0.0
 11
305.54953390028641
 21
75.168402549898943
 31
0.0
  0
LINE
  5
211E
  8
TITLE
 10
303.51147624907111
 20
73.304914643979146
 30
0.0
 11
305.51717241331409
 21
75.310610808220858
 31
0.0
  0
LINE
  5
211F
  8
TITLE
 10
303.47911476209907
 20
73.447122902300862
 30
0.0
 11
305.46540820004981
 21
75.433416340251384
 31
0.0
  0
LINE
  5
2120
  8
TITLE
 10
303.44675327512692
 20
73.589331160622564
 30
0.0
 11
305.29083845475537
 21
75.433416340251384
 31
0.0
  0
LINE
  5
2121
  8
TITLE
 10
303.09077691845408
 20
75.153622002158713
 30
0.0
 11
303.37057125653251
 21
75.433416340251384
 31
0.0
  0
LINE
  5
2122
  8
TITLE
 10
303.12313840542708
 20
75.011413743837451
 30
0.0
 11
303.54514100182678
 21
75.433416340251384
 31
0.0
  0
LINE
  5
2123
  8
TITLE
 10
303.05841543148199
 20
75.295830260481353
 30
0.0
 11
303.19600151123808
 21
75.433416340251384
 31
0.0
  0
LINE
  5
2124
  8
TITLE
 10
299.13702982385797
 20
68.581328728176459
 30
0.0
 11
301.35661634829279
 21
70.800915252611503
 31
0.0
  0
LINE
  5
2125
  8
TITLE
 10
298.96246007857741
 20
68.581328728176459
 30
0.0
 11
301.18204660299938
 21
70.800915252611503
 31
0.0
  0
LINE
  5
2126
  8
TITLE
 10
298.78789033328309
 20
68.581328728176459
 30
0.0
 11
301.00747685770421
 21
70.800915252611503
 31
0.0
  0
LINE
  5
2127
  8
TITLE
 10
298.61332058798871
 20
68.581328728176459
 30
0.0
 11
300.83290711240988
 21
70.800915252611503
 31
0.0
  0
LINE
  5
2128
  8
TITLE
 10
298.4387508426953
 20
68.581328728176459
 30
0.0
 11
300.65833736711562
 21
70.800915252611503
 31
0.0
  0
LINE
  5
2129
  8
TITLE
 10
298.26418109740013
 20
68.581328728176459
 30
0.0
 11
300.48376762183682
 21
70.800915252611503
 31
0.0
  0
LINE
  5
212A
  8
TITLE
 10
298.08961135210672
 20
68.581328728176459
 30
0.0
 11
300.30919787654148
 21
70.800915252611503
 31
0.0
  0
LINE
  5
212B
  8
TITLE
 10
297.91504160681143
 20
68.581328728176459
 30
0.0
 11
300.13462813124721
 21
70.800915252611503
 31
0.0
  0
LINE
  5
212C
  8
TITLE
 10
297.74047186151722
 20
68.581328728176459
 30
0.0
 11
299.9600583859538
 21
70.800915252611503
 31
0.0
  0
LINE
  5
212D
  8
TITLE
 10
297.5659021162237
 20
68.581328728176459
 30
0.0
 11
299.78548864065851
 21
70.800915252611503
 31
0.0
  0
LINE
  5
212E
  8
TITLE
 10
297.39133237092932
 20
68.581328728176459
 30
0.0
 11
299.61091889536419
 21
70.800915252611503
 31
0.0
  0
LINE
  5
212F
  8
TITLE
 10
297.2167626256342
 20
68.581328728176459
 30
0.0
 11
299.43634915006987
 21
70.800915252611503
 31
0.0
  0
LINE
  5
2130
  8
TITLE
 10
297.04219288035438
 20
68.581328728176459
 30
0.0
 11
299.26177940477652
 21
70.800915252611503
 31
0.0
  0
LINE
  5
2131
  8
TITLE
 10
296.34391389917721
 20
68.581328728176459
 30
0.0
 11
298.56350042361282
 21
70.800915252611503
 31
0.0
  0
LINE
  5
2132
  8
TITLE
 10
296.16934415388278
 20
68.581328728176459
 30
0.0
 11
298.504356963026
 21
70.91634153731934
 31
0.0
  0
LINE
  5
2133
  8
TITLE
 10
295.99477440858851
 20
68.581328728176459
 30
0.0
 11
298.59611360518289
 21
71.182667924770612
 31
0.0
  0
LINE
  5
2134
  8
TITLE
 10
296.86762313506011
 20
68.581328728176459
 30
0.0
 11
299.08720965948208
 21
70.800915252611503
 31
0.0
  0
LINE
  5
2135
  8
TITLE
 10
296.69305338976568
 20
68.581328728176459
 30
0.0
 11
298.9126399141868
 21
70.800915252611503
 31
0.0
  0
LINE
  5
2136
  8
TITLE
 10
296.51848364447142
 20
68.581328728176459
 30
0.0
 11
298.7380701689072
 21
70.800915252611503
 31
0.0
  0
LINE
  5
2137
  8
TITLE
 10
295.82020466329408
 20
68.581328728176459
 30
0.0
 11
298.68787024734053
 21
71.448994312222112
 31
0.0
  0
LINE
  5
2138
  8
TITLE
 10
295.64563491799981
 20
68.581328728176459
 30
0.0
 11
298.77962688949719
 21
71.715320699673612
 31
0.0
  0
LINE
  5
2139
  8
TITLE
 10
301.23186676737532
 20
68.581328728176459
 30
0.0
 11
303.45145329181008
 21
70.800915252611503
 31
0.0
  0
LINE
  5
213A
  8
TITLE
 10
300.18444829562287
 20
68.581328728176459
 30
0.0
 11
302.40403482004427
 21
70.800915252611503
 31
0.0
  0
LINE
  5
213B
  8
TITLE
 10
300.00987855032969
 20
68.581328728176459
 30
0.0
 11
302.22946507476541
 21
70.800915252611503
 31
0.0
  0
LINE
  5
213C
  8
TITLE
 10
299.8353088050344
 20
68.581328728176459
 30
0.0
 11
302.05489532947013
 21
70.800915252611503
 31
0.0
  0
LINE
  5
213D
  8
TITLE
 10
299.66073905974008
 20
68.581328728176459
 30
0.0
 11
301.88032558417581
 21
70.800915252611503
 31
0.0
  0
LINE
  5
213E
  8
TITLE
 10
299.4861693144457
 20
68.581328728176459
 30
0.0
 11
301.7057558388824
 21
70.800915252611503
 31
0.0
  0
LINE
  5
213F
  8
TITLE
 10
299.31159956915229
 20
68.581328728176459
 30
0.0
 11
301.53118609358722
 21
70.800915252611503
 31
0.0
  0
LINE
  5
2140
  8
TITLE
 10
300.53358778621168
 20
68.581328728176459
 30
0.0
 11
302.75317431063371
 21
70.800915252611503
 31
0.0
  0
LINE
  5
2141
  8
TITLE
 10
300.35901804091822
 20
68.581328728176459
 30
0.0
 11
302.57860456533859
 21
70.800915252611503
 31
0.0
  0
LINE
  5
2142
  8
TITLE
 10
301.05729702208009
 20
68.581328728176459
 30
0.0
 11
303.27688354651582
 21
70.800915252611503
 31
0.0
  0
LINE
  5
2143
  8
TITLE
 10
300.88272727678572
 20
68.581328728176459
 30
0.0
 11
303.10231380122241
 21
70.800915252611503
 31
0.0
  0
LINE
  5
2144
  8
TITLE
 10
300.708157531506
 20
68.581328728176459
 30
0.0
 11
302.92774405592718
 21
70.800915252611503
 31
0.0
  0
LINE
  5
2145
  8
TITLE
 10
296.37046675798598
 20
72.099276492841696
 30
0.0
 11
300.24773316400018
 21
75.976542898863954
 31
0.0
  0
LINE
  5
2146
  8
TITLE
 10
296.16721242521999
 20
71.721452414789155
 30
0.0
 11
300.1559765218426
 21
75.710216511419262
 31
0.0
  0
LINE
  5
2147
  8
TITLE
 10
296.64573668444342
 20
72.898255655182538
 30
0.0
 11
300.52300309047132
 21
76.775522061210495
 31
0.0
  0
LINE
  5
2148
  8
TITLE
 10
296.46222340012821
 20
72.365602880293622
 30
0.0
 11
300.33948980615708
 21
76.242869286315226
 31
0.0
  0
LINE
  5
2149
  8
TITLE
 10
296.55398004228579
 20
72.63192926773786
 30
0.0
 11
300.43124644831471
 21
76.509195673759663
 31
0.0
  0
LINE
  5
214A
  8
TITLE
 10
294.2490769556598
 20
68.581328728176459
 30
0.0
 11
294.41640232823738
 21
68.748654100746293
 31
0.0
  0
LINE
  5
214B
  8
TITLE
 10
294.07450721036548
 20
68.581328728176459
 30
0.0
 11
294.41640232823738
 21
68.923223846040628
 31
0.0
  0
LINE
  5
214C
  8
TITLE
 10
293.89993746507122
 20
68.581328728176459
 30
0.0
 11
294.41640232823738
 21
69.097793591335403
 31
0.0
  0
LINE
  5
214D
  8
TITLE
 10
293.7253677197769
 20
68.581328728176459
 30
0.0
 11
294.41640232823738
 21
69.272363336621993
 31
0.0
  0
LINE
  5
214E
  8
TITLE
 10
293.55079797448337
 20
68.581328728176459
 30
0.0
 11
294.41640232823738
 21
69.4469330819161
 31
0.0
  0
LINE
  5
214F
  8
TITLE
 10
293.3762282292036
 20
68.581328728176459
 30
0.0
 11
294.41640232823738
 21
69.621502827210406
 31
0.0
  0
LINE
  5
2150
  8
TITLE
 10
293.20165848390837
 20
68.581328728176459
 30
0.0
 11
294.41640232823738
 21
69.796072572504954
 31
0.0
  0
LINE
  5
2151
  8
TITLE
 10
293.02708873861411
 20
68.581328728176459
 30
0.0
 11
294.41640232823738
 21
69.970642317799957
 31
0.0
  0
LINE
  5
2152
  8
TITLE
 10
292.85251899331968
 20
68.581328728176459
 30
0.0
 11
294.41640232823738
 21
70.145212063093595
 31
0.0
  0
LINE
  5
2153
  8
TITLE
 10
292.67794924802553
 20
68.581328728176459
 30
0.0
 11
294.41640232823738
 21
70.319781808388143
 31
0.0
  0
LINE
  5
2154
  8
TITLE
 10
295.29637492826532
 20
70.850614917826306
 30
0.0
 11
295.32342616440019
 21
70.877666153963446
 31
0.0
  0
LINE
  5
2155
  8
TITLE
 10
295.29637492826532
 20
69.803196446075603
 30
0.0
 11
299.60543666891328
 21
74.11225818671619
 31
0.0
  0
LINE
  5
2156
  8
TITLE
 10
295.29637492826532
 20
69.977766191362207
 30
0.0
 11
299.6971933110699
 21
74.378584574168599
 31
0.0
  0
LINE
  5
2157
  8
TITLE
 10
295.29637492826532
 20
70.152335936656755
 30
0.0
 11
299.78894995321292
 21
74.64491096161214
 31
0.0
  0
LINE
  5
2158
  8
TITLE
 10
295.29637492826532
 20
70.326905681951743
 30
0.0
 11
299.88070659537061
 21
74.911237349064294
 31
0.0
  0
LINE
  5
2159
  8
TITLE
 10
295.29637492826532
 20
70.50147542723812
 30
0.0
 11
299.97246323752739
 21
75.177563736515353
 31
0.0
  0
LINE
  5
215A
  8
TITLE
 10
295.29637492826532
 20
70.676045172532895
 30
0.0
 11
300.06421987968508
 21
75.443890123966852
 31
0.0
  0
LINE
  5
215B
  8
TITLE
 10
295.29637492826532
 20
69.279487210192428
 30
0.0
 11
299.33016674244118
 21
73.313279024369422
 31
0.0
  0
LINE
  5
215C
  8
TITLE
 10
295.29637492826532
 20
69.454056955486976
 30
0.0
 11
299.4219233845979
 21
73.579605411820694
 31
0.0
  0
LINE
  5
215D
  8
TITLE
 10
295.29637492826532
 20
69.628626700781524
 30
0.0
 11
299.5136800267565
 21
73.845931799271739
 31
0.0
  0
LINE
  5
215E
  8
TITLE
 10
295.29637492826532
 20
69.104917464898563
 30
0.0
 11
299.23841010028451
 21
73.046952636916785
 31
0.0
  0
LINE
  5
215F
  8
TITLE
 10
295.47106517270549
 20
68.581328728176459
 30
0.0
 11
298.87138353165483
 21
71.981647087125552
 31
0.0
  0
LINE
  5
2160
  8
TITLE
 10
295.29649542742578
 20
68.581328728176459
 30
0.0
 11
298.96314017381252
 21
72.247973474569562
 31
0.0
  0
LINE
  5
2161
  8
TITLE
 10
295.29637492826532
 20
68.755777974309467
 30
0.0
 11
299.05489681596919
 21
72.514299862021289
 31
0.0
  0
LINE
  5
2162
  8
TITLE
 10
295.29637492826532
 20
68.930347719603773
 30
0.0
 11
299.14665345812602
 21
72.780626249466195
 31
0.0
  0
LINE
  5
2163
  8
TITLE
 10
312.51453102872711
 20
74.103191394866144
 30
0.0
 11
314.50536248940438
 21
76.094022855536181
 31
0.0
  0
LINE
  5
2164
  8
TITLE
 10
312.51453102872711
 20
74.626900630741602
 30
0.0
 11
314.50536248940438
 21
76.617732091418929
 31
0.0
  0
LINE
  5
2165
  8
TITLE
 10
312.51453102872711
 20
74.801470376035695
 30
0.0
 11
314.50536248940438
 21
76.792301836713705
 31
0.0
  0
LINE
  5
2166
  8
TITLE
 10
312.51453102872711
 20
74.277761140152947
 30
0.0
 11
314.50536248940438
 21
76.268592600830516
 31
0.0
  0
LINE
  5
2167
  8
TITLE
 10
312.51453102872711
 20
74.452330885447736
 30
0.0
 11
314.50536248940438
 21
76.44316234612414
 31
0.0
  0
LINE
  5
2168
  8
TITLE
 10
306.9926683620443
 20
68.581328728176459
 30
0.0
 11
307.03816230096169
 21
68.626822667094302
 31
0.0
  0
LINE
  5
2169
  8
TITLE
 10
306.81809861674998
 20
68.581328728176459
 30
0.0
 11
307.00580081398948
 21
68.769030925416246
 31
0.0
  0
LINE
  5
216A
  8
TITLE
 10
306.6435288714556
 20
68.581328728176459
 30
0.0
 11
306.97343932701727
 21
68.91123918373772
 31
0.0
  0
LINE
  5
216B
  8
TITLE
 10
311.35691199437298
 20
68.581328728176459
 30
0.0
 11
314.50536248940438
 21
71.729779223214095
 31
0.0
  0
LINE
  5
216C
  8
TITLE
 10
311.18234224907877
 20
68.581328728176459
 30
0.0
 11
314.50536248940438
 21
71.90434896850843
 31
0.0
  0
LINE
  5
216D
  8
TITLE
 10
311.0077725037836
 20
68.581328728176459
 30
0.0
 11
314.50536248940438
 21
72.078918713803418
 31
0.0
  0
LINE
  5
216E
  8
TITLE
 10
310.83320275849019
 20
68.581328728176459
 30
0.0
 11
314.50536248940438
 21
72.253488459089795
 31
0.0
  0
LINE
  5
216F
  8
TITLE
 10
310.65863301319598
 20
68.581328728176459
 30
0.0
 11
312.36349713992149
 21
70.286192854909586
 31
0.0
  0
LINE
  5
2170
  8
TITLE
 10
310.4840632679016
 20
68.581328728176459
 30
0.0
 11
312.18892739464172
 21
70.286192854909586
 31
0.0
  0
LINE
  5
2171
  8
TITLE
 10
310.30949352260723
 20
68.581328728176459
 30
0.0
 11
312.0143576493474
 21
70.286192854909586
 31
0.0
  0
LINE
  5
2172
  8
TITLE
 10
310.13492377731291
 20
68.581328728176459
 30
0.0
 11
311.83978790405308
 21
70.286192854909586
 31
0.0
  0
LINE
  5
2173
  8
TITLE
 10
309.96035403201768
 20
68.581328728176459
 30
0.0
 11
311.66521815875979
 21
70.286192854909586
 31
0.0
  0
LINE
  5
2174
  8
TITLE
 10
308.0521588589371
 20
68.767970498598274
 30
0.0
 11
309.57038121524153
 21
70.286192854909586
 31
0.0
  0
LINE
  5
2175
  8
TITLE
 10
308.0521588589371
 20
68.942540243891685
 30
0.0
 11
309.39581146994709
 21
70.286192854909586
 31
0.0
  0
LINE
  5
2176
  8
TITLE
 10
308.0521588589371
 20
69.117109989186019
 30
0.0
 11
309.22124172465283
 21
70.286192854909586
 31
0.0
  0
LINE
  5
2177
  8
TITLE
 10
308.0521588589371
 20
69.29167973448034
 30
0.0
 11
309.04667197935851
 21
70.286192854909586
 31
0.0
  0
LINE
  5
2178
  8
TITLE
 10
308.0521588589371
 20
68.593400753310561
 30
0.0
 11
309.74495096053579
 21
70.286192854909586
 31
0.0
  0
LINE
  5
2179
  8
TITLE
 10
308.73836581497289
 20
68.581328728176459
 30
0.0
 11
310.44322994169852
 21
70.286192854909586
 31
0.0
  0
LINE
  5
217A
  8
TITLE
 10
308.56379606967761
 20
68.581328728176459
 30
0.0
 11
310.26866019641881
 21
70.286192854909586
 31
0.0
  0
LINE
  5
217B
  8
TITLE
 10
308.38922632438431
 20
68.581328728176459
 30
0.0
 11
310.09409045112437
 21
70.286192854909586
 31
0.0
  0
LINE
  5
217C
  8
TITLE
 10
308.21465657908988
 20
68.581328728176459
 30
0.0
 11
309.91952070583011
 21
70.286192854909586
 31
0.0
  0
LINE
  5
217D
  8
TITLE
 10
308.0521588589371
 20
69.989958715657849
 30
0.0
 11
308.34839299819578
 21
70.286192854909586
 31
0.0
  0
LINE
  5
217E
  8
TITLE
 10
308.0521588589371
 20
70.164528460945576
 30
0.0
 11
308.17382325290151
 21
70.286192854909586
 31
0.0
  0
LINE
  5
217F
  8
TITLE
 10
308.0521588589371
 20
69.815388970363529
 30
0.0
 11
308.5229627434756
 21
70.286192854909586
 31
0.0
  0
LINE
  5
2180
  8
TITLE
 10
308.0521588589371
 20
69.466249479774888
 30
0.0
 11
308.87210223406328
 21
70.286192854909586
 31
0.0
  0
LINE
  5
2181
  8
TITLE
 10
308.0521588589371
 20
69.640819225068981
 30
0.0
 11
308.69753248876992
 21
70.286192854909586
 31
0.0
  0
LINE
  5
2182
  8
TITLE
 10
309.6112145414437
 20
68.581328728176459
 30
0.0
 11
311.3160786681691
 21
70.286192854909586
 31
0.0
  0
LINE
  5
2183
  8
TITLE
 10
309.43664479615018
 20
68.581328728176459
 30
0.0
 11
311.1415089228758
 21
70.286192854909586
 31
0.0
  0
LINE
  5
2184
  8
TITLE
 10
309.26207505085603
 20
68.581328728176459
 30
0.0
 11
310.96693917758148
 21
70.286192854909586
 31
0.0
  0
LINE
  5
2185
  8
TITLE
 10
309.08750530556148
 20
68.581328728176459
 30
0.0
 11
310.79236943228722
 21
70.286192854909586
 31
0.0
  0
LINE
  5
2186
  8
TITLE
 10
308.9129355602671
 20
68.581328728176459
 30
0.0
 11
310.6177996869929
 21
70.286192854909586
 31
0.0
  0
LINE
  5
2187
  8
TITLE
 10
309.78578428673882
 20
68.581328728176459
 30
0.0
 11
311.49064841346438
 21
70.286192854909586
 31
0.0
  0
LINE
  5
2188
  8
TITLE
 10
312.51453102872711
 20
72.008354451348623
 30
0.0
 11
314.50536248940438
 21
73.999185912018675
 31
0.0
  0
LINE
  5
2189
  8
TITLE
 10
312.75346995671413
 20
68.581328728176459
 30
0.0
 11
314.50536248940438
 21
70.333221260866821
 31
0.0
  0
LINE
  5
218A
  8
TITLE
 10
312.57890021141878
 20
68.581328728176459
 30
0.0
 11
314.50536248940438
 21
70.507791006161597
 31
0.0
  0
LINE
  5
218B
  8
TITLE
 10
312.40433046612452
 20
68.581328728176459
 30
0.0
 11
314.50536248940438
 21
70.682360751455903
 31
0.0
  0
LINE
  5
218C
  8
TITLE
 10
312.2297607208302
 20
68.581328728176459
 30
0.0
 11
314.50536248940438
 21
70.856930496750692
 31
0.0
  0
LINE
  5
218D
  8
TITLE
 10
312.05519097553588
 20
68.581328728176459
 30
0.0
 11
314.50536248940438
 21
71.031500242044331
 31
0.0
  0
LINE
  5
218E
  8
TITLE
 10
311.88062123024162
 20
68.581328728176459
 30
0.0
 11
314.50536248940438
 21
71.206069987338878
 31
0.0
  0
LINE
  5
218F
  8
TITLE
 10
311.70605148496168
 20
68.581328728176459
 30
0.0
 11
314.50536248940438
 21
71.380639732632972
 31
0.0
  0
LINE
  5
2190
  8
TITLE
 10
311.53148173966753
 20
68.581328728176459
 30
0.0
 11
314.50536248940438
 21
71.555209477927505
 31
0.0
  0
LINE
  5
2191
  8
TITLE
 10
312.51453102872711
 20
71.31007547017839
 30
0.0
 11
314.50536248940438
 21
73.300906930855703
 31
0.0
  0
LINE
  5
2192
  8
TITLE
 10
312.51453102872711
 20
71.484645215472923
 30
0.0
 11
314.50536248940438
 21
73.47547667615072
 31
0.0
  0
LINE
  5
2193
  8
TITLE
 10
312.51453102872711
 20
71.659214960767713
 30
0.0
 11
314.50536248940438
 21
73.650046421437096
 31
0.0
  0
LINE
  5
2194
  8
TITLE
 10
312.51453102872711
 20
71.833784706061564
 30
0.0
 11
314.50536248940438
 21
73.824616166732284
 31
0.0
  0
LINE
  5
2195
  8
TITLE
 10
312.51453102872711
 20
70.437226743714291
 30
0.0
 11
314.50536248940438
 21
72.42805820438501
 31
0.0
  0
LINE
  5
2196
  8
TITLE
 10
312.51453102872711
 20
70.611796489001804
 30
0.0
 11
314.50536248940438
 21
72.602627949678435
 31
0.0
  0
LINE
  5
2197
  8
TITLE
 10
312.51453102872711
 20
70.786366234295429
 30
0.0
 11
314.50536248940438
 21
72.777197694972983
 31
0.0
  0
LINE
  5
2198
  8
TITLE
 10
312.51453102872711
 20
70.960935979590204
 30
0.0
 11
314.50536248940438
 21
72.95176744026773
 31
0.0
  0
LINE
  5
2199
  8
TITLE
 10
312.51453102872711
 20
71.135505724884297
 30
0.0
 11
314.50536248940438
 21
73.126337185561397
 31
0.0
  0
LINE
  5
219A
  8
TITLE
 10
304.02498269206887
 20
68.581328728176459
 30
0.0
 11
306.48801702245419
 21
71.044363058560521
 31
0.0
  0
LINE
  5
219B
  8
TITLE
 10
303.85041294677569
 20
68.581328728176459
 30
0.0
 11
306.45565553548118
 21
71.186571316881782
 31
0.0
  0
LINE
  5
219C
  8
TITLE
 10
303.67584320148131
 20
68.581328728176459
 30
0.0
 11
306.42329404850801
 21
71.32877957520374
 31
0.0
  0
LINE
  5
219D
  8
TITLE
 10
303.96453706667683
 20
71.313999027470544
 30
0.0
 11
305.97023323091798
 21
73.319695191712299
 31
0.0
  0
LINE
  5
219E
  8
TITLE
 10
303.93217557970371
 20
71.456207285792289
 30
0.0
 11
305.93787174394572
 21
73.461903450034015
 31
0.0
  0
LINE
  5
219F
  8
TITLE
 10
303.89981409273048
 20
71.598415544114019
 30
0.0
 11
305.90551025697289
 21
73.60411170835502
 31
0.0
  0
LINE
  5
21A0
  8
TITLE
 10
303.86745260575839
 20
71.740623802435039
 30
0.0
 11
305.87314876999972
 21
73.74631996667631
 31
0.0
  0
LINE
  5
21A1
  8
TITLE
 10
303.83509111878539
 20
71.882832060756513
 30
0.0
 11
305.84078728302671
 21
73.888528224998012
 31
0.0
  0
LINE
  5
21A2
  8
TITLE
 10
304.06162152758043
 20
70.887374252505651
 30
0.0
 11
306.06731769182159
 21
72.89307041674806
 31
0.0
  0
LINE
  5
21A3
  8
TITLE
 10
304.02926004060743
 20
71.029582510827595
 30
0.0
 11
306.03495620484961
 21
73.035278675068426
 31
0.0
  0
LINE
  5
21A4
  8
TITLE
 10
303.99689855364892
 20
71.171790769149553
 30
0.0
 11
306.00259471789008
 21
73.177486933390341
 31
0.0
  0
LINE
  5
21A5
  8
TITLE
 10
303.80272963181238
 20
72.025040319085292
 30
0.0
 11
305.8084257960536
 21
74.030736483319956
 31
0.0
  0
LINE
  5
21A6
  8
TITLE
 10
306.46895912616122
 20
68.581328728176459
 30
0.0
 11
306.94107784004427
 21
69.053447442058996
 31
0.0
  0
LINE
  5
21A7
  8
TITLE
 10
306.2943893808669
 20
68.581328728176459
 30
0.0
 11
306.90871635307121
 21
69.195655700380257
 31
0.0
  0
LINE
  5
21A8
  8
TITLE
 10
306.11981963558719
 20
68.581328728176459
 30
0.0
 11
306.87635486609901
 21
69.337863958701973
 31
0.0
  0
LINE
  5
21A9
  8
TITLE
 10
305.94524989029293
 20
68.581328728176459
 30
0.0
 11
306.84399337913959
 21
69.480072217023675
 31
0.0
  0
LINE
  5
21AA
  8
TITLE
 10
305.77068014499849
 20
68.581328728176459
 30
0.0
 11
306.81163189216647
 21
69.622280475345633
 31
0.0
  0
LINE
  5
21AB
  8
TITLE
 10
305.59611039970417
 20
68.581328728176459
 30
0.0
 11
306.7792704051945
 21
69.764488733666653
 31
0.0
  0
LINE
  5
21AC
  8
TITLE
 10
305.42154065441002
 20
68.581328728176459
 30
0.0
 11
306.74690891822218
 21
69.906696991988156
 31
0.0
  0
LINE
  5
21AD
  8
TITLE
 10
305.24697090911559
 20
68.581328728176459
 30
0.0
 11
306.71454743124832
 21
70.048905250309645
 31
0.0
  0
LINE
  5
21AE
  8
TITLE
 10
305.07240116382133
 20
68.581328728176459
 30
0.0
 11
306.68218594427623
 21
70.191113508630892
 31
0.0
  0
LINE
  5
21AF
  8
TITLE
 10
304.89783141852701
 20
68.581328728176459
 30
0.0
 11
306.64982445730311
 21
70.333321766953077
 31
0.0
  0
LINE
  5
21B0
  8
TITLE
 10
304.72326167323172
 20
68.581328728176459
 30
0.0
 11
306.61746297033011
 21
70.475530025274566
 31
0.0
  0
LINE
  5
21B1
  8
TITLE
 10
304.54869192793831
 20
68.581328728176459
 30
0.0
 11
306.5851014833579
 21
70.617738283595585
 31
0.0
  0
LINE
  5
21B2
  8
TITLE
 10
304.37412218265848
 20
68.581328728176459
 30
0.0
 11
306.5527399963994
 21
70.759946541917756
 31
0.0
  0
LINE
  5
21B3
  8
TITLE
 10
304.19955243736422
 20
68.581328728176459
 30
0.0
 11
306.52037850942622
 21
70.902154800238804
 31
0.0
  0
LINE
  5
21B4
  8
TITLE
 10
303.77036814484018
 20
72.167248577406994
 30
0.0
 11
305.77606430908048
 21
74.172944741641686
 31
0.0
  0
LINE
  5
21B5
  8
TITLE
 10
303.73800665786712
 20
72.309456835728255
 30
0.0
 11
305.74370282210839
 21
74.315152999969783
 31
0.0
  0
LINE
  5
21B6
  8
TITLE
 10
303.70564517090861
 20
72.451665094049986
 30
0.0
 11
305.71134133514988
 21
74.457361258291698
 31
0.0
  0
LINE
  5
21B7
  8
TITLE
 10
303.67328368393561
 20
72.593873352371702
 30
0.0
 11
305.67897984817682
 21
74.599569516612988
 31
0.0
  0
LINE
  5
21B8
  8
TITLE
 10
303.64092219696249
 20
72.736081610693631
 30
0.0
 11
305.64661836120467
 21
74.74177777493469
 31
0.0
  0
LINE
  5
21B9
  8
TITLE
 10
303.6085607099904
 20
72.87828986901421
 30
0.0
 11
305.61425687423173
 21
74.883986033255695
 31
0.0
  0
LINE
  5
21BA
  8
TITLE
 10
303.57619922301723
 20
73.020498127335699
 30
0.0
 11
305.58189538725861
 21
75.026194291577653
 31
0.0
  0
LINE
  5
21BB
  8
TITLE
 10
312.51453102872711
 20
73.579482158990004
 30
0.0
 11
314.50536248940438
 21
75.57031361966051
 31
0.0
  0
LINE
  5
21BC
  8
TITLE
 10
312.51453102872711
 20
73.754051904277731
 30
0.0
 11
314.50536248940438
 21
75.744883364954589
 31
0.0
  0
LINE
  5
21BD
  8
TITLE
 10
312.51453102872711
 20
73.92862164957134
 30
0.0
 11
314.50536248940438
 21
75.91945311024142
 31
0.0
  0
LINE
  5
21BE
  8
TITLE
 10
312.51453102872711
 20
72.182924196642702
 30
0.0
 11
314.50536248940438
 21
74.17375565731345
 31
0.0
  0
LINE
  5
21BF
  8
TITLE
 10
312.51453102872711
 20
72.357493941937491
 30
0.0
 11
314.50536248940438
 21
74.34832540260777
 31
0.0
  0
LINE
  5
21C0
  8
TITLE
 10
312.51453102872711
 20
72.532063687224067
 30
0.0
 11
314.50536248940438
 21
74.522895147901423
 31
0.0
  0
LINE
  5
21C1
  8
TITLE
 10
312.51453102872711
 20
72.70663343251951
 30
0.0
 11
314.50536248940438
 21
74.697464893195502
 31
0.0
  0
LINE
  5
21C2
  8
TITLE
 10
312.51453102872711
 20
72.881203177813163
 30
0.0
 11
314.50536248940438
 21
74.872034638490064
 31
0.0
  0
LINE
  5
21C3
  8
TITLE
 10
312.51453102872711
 20
73.055772923107696
 30
0.0
 11
314.50536248940438
 21
75.04660438378481
 31
0.0
  0
LINE
  5
21C4
  8
TITLE
 10
312.51453102872711
 20
73.230342668401789
 30
0.0
 11
314.50536248940438
 21
75.221174129079586
 31
0.0
  0
LINE
  5
21C5
  8
TITLE
 10
312.51453102872711
 20
73.404912413695456
 30
0.0
 11
314.50536248940438
 21
75.395743874365934
 31
0.0
  0
LINE
  5
21C6
  8
TITLE
 10
324.80478421422782
 20
75.395550626904196
 30
0.0
 11
326.09962770018592
 21
76.690394112862577
 31
0.0
  0
LINE
  5
21C7
  8
TITLE
 10
324.77728238226882
 20
75.542618540239346
 30
0.0
 11
325.92505795489069
 21
76.690394112862577
 31
0.0
  0
LINE
  5
21C8
  8
TITLE
 10
324.60271263697359
 20
75.542618540239346
 30
0.0
 11
325.75048820959643
 21
76.690394112862577
 31
0.0
  0
LINE
  5
21C9
  8
TITLE
 10
324.80478421422782
 20
74.697271645741921
 30
0.0
 11
326.79790668134768
 21
76.690394112862577
 31
0.0
  0
LINE
  5
21CA
  8
TITLE
 10
324.80478421422782
 20
74.871841391035559
 30
0.0
 11
326.62333693605342
 21
76.690394112862577
 31
0.0
  0
LINE
  5
21CB
  8
TITLE
 10
324.80478421422782
 20
75.046411136322831
 30
0.0
 11
326.44876719076001
 21
76.690394112862577
 31
0.0
  0
LINE
  5
21CC
  8
TITLE
 10
324.80478421422782
 20
75.220980881617152
 30
0.0
 11
326.27419744548018
 21
76.690394112862577
 31
0.0
  0
LINE
  5
21CD
  8
TITLE
 10
322.51449125770608
 20
69.090153528641849
 30
0.0
 11
326.58231230411718
 21
73.15797457506163
 31
0.0
  0
LINE
  5
21CE
  8
TITLE
 10
322.20151505770542
 20
68.951747073943579
 30
0.0
 11
326.58231230411718
 21
73.332544320349143
 31
0.0
  0
LINE
  5
21CF
  8
TITLE
 10
321.92452177689393
 20
68.849323538419185
 30
0.0
 11
326.58231230411718
 21
73.50711406564298
 31
0.0
  0
LINE
  5
21D0
  8
TITLE
 10
324.80478421422782
 20
69.634749032242325
 30
0.0
 11
327.73887163500791
 21
72.568836453023096
 31
0.0
  0
LINE
  5
21D1
  8
TITLE
 10
325.14792187250799
 20
68.581328728176459
 30
0.0
 11
326.58231230411718
 21
70.015719159785476
 31
0.0
  0
LINE
  5
21D2
  8
TITLE
 10
324.97335212721453
 20
68.581328728176459
 30
0.0
 11
326.58231230411718
 21
70.190288905080251
 31
0.0
  0
LINE
  5
21D3
  8
TITLE
 10
324.80478421422782
 20
68.587330560483451
 30
0.0
 11
326.58231230411718
 21
70.36485865037389
 31
0.0
  0
LINE
  5
21D4
  8
TITLE
 10
324.80478421422782
 20
68.761900305777544
 30
0.0
 11
326.58231230411718
 21
70.539428395668665
 31
0.0
  0
LINE
  5
21D5
  8
TITLE
 10
324.80478421422782
 20
68.936470051072092
 30
0.0
 11
326.58231230411718
 21
70.713998140962289
 31
0.0
  0
LINE
  5
21D6
  8
TITLE
 10
324.80478421422782
 20
69.11103979636664
 30
0.0
 11
326.58231230411718
 21
70.888567886249803
 31
0.0
  0
LINE
  5
21D7
  8
TITLE
 10
324.80478421422782
 20
69.285609541661429
 30
0.0
 11
326.58231230411718
 21
71.063137631544336
 31
0.0
  0
LINE
  5
21D8
  8
TITLE
 10
324.80478421422782
 20
69.460179286955736
 30
0.0
 11
326.58231230411718
 21
71.237707376838429
 31
0.0
  0
LINE
  5
21D9
  8
TITLE
 10
324.80478421422782
 20
70.158458268118238
 30
0.0
 11
327.2151623991395
 21
72.568836453023096
 31
0.0
  0
LINE
  5
21DA
  8
TITLE
 10
324.80478421422782
 20
70.333028013412331
 30
0.0
 11
327.04059265384512
 21
72.568836453023096
 31
0.0
  0
LINE
  5
21DB
  8
TITLE
 10
324.80478421422782
 20
70.50759775870597
 30
0.0
 11
326.8660229085508
 21
72.568836453023096
 31
0.0
  0
LINE
  5
21DC
  8
TITLE
 10
324.80478421422782
 20
70.682167504000731
 30
0.0
 11
326.69145316325557
 21
72.568836453023096
 31
0.0
  0
LINE
  5
21DD
  8
TITLE
 10
324.80478421422782
 20
70.856737249295506
 30
0.0
 11
326.58231230411718
 21
72.634265339185731
 31
0.0
  0
LINE
  5
21DE
  8
TITLE
 10
324.80478421422782
 20
71.031306994589144
 30
0.0
 11
326.58231230411718
 21
72.808835084472548
 31
0.0
  0
LINE
  5
21DF
  8
TITLE
 10
324.80478421422782
 20
71.205876739883706
 30
0.0
 11
326.58231230411718
 21
72.983404829767096
 31
0.0
  0
LINE
  5
21E0
  8
TITLE
 10
324.80478421422782
 20
69.809318777536419
 30
0.0
 11
327.56430188971348
 21
72.568836453023096
 31
0.0
  0
LINE
  5
21E1
  8
TITLE
 10
324.80478421422782
 20
69.98388852282369
 30
0.0
 11
327.3897321444191
 21
72.568836453023096
 31
0.0
  0
LINE
  5
21E2
  8
TITLE
 10
325.4970613630976
 20
68.581328728176459
 30
0.0
 11
326.58231230411718
 21
69.666579669197503
 31
0.0
  0
LINE
  5
21E3
  8
TITLE
 10
325.32249161780328
 20
68.581328728176459
 30
0.0
 11
326.58231230411718
 21
69.841149414490914
 31
0.0
  0
LINE
  5
21E4
  8
TITLE
 10
321.67193381918878
 20
68.77130532600836
 30
0.0
 11
327.45198650156181
 21
74.551358008388192
 31
0.0
  0
LINE
  5
21E5
  8
TITLE
 10
321.43744325825452
 20
68.711384510367679
 30
0.0
 11
327.27741675628209
 21
74.551358008388192
 31
0.0
  0
LINE
  5
21E6
  8
TITLE
 10
321.21715696544931
 20
68.665667962857015
 30
0.0
 11
327.10284701098681
 21
74.551358008388192
 31
0.0
  0
LINE
  5
21E7
  8
TITLE
 10
321.00846907452438
 20
68.631549817219366
 30
0.0
 11
326.9282772656934
 21
74.551358008388192
 31
0.0
  0
LINE
  5
21E8
  8
TITLE
 10
323.7900080281288
 20
73.507925714333865
 30
0.0
 11
326.97247642664212
 21
76.690394112862577
 31
0.0
  0
LINE
  5
21E9
  8
TITLE
 10
324.80478421422782
 20
72.602434702223704
 30
0.0
 11
326.75370752039908
 21
74.551358008388192
 31
0.0
  0
LINE
  5
21EA
  8
TITLE
 10
324.80478421422782
 20
72.777004447518721
 30
0.0
 11
326.58231230411718
 21
74.554532537401201
 31
0.0
  0
LINE
  5
21EB
  8
TITLE
 10
324.80478421422782
 20
72.951574192812373
 30
0.0
 11
326.58231230411718
 21
74.729102282695507
 31
0.0
  0
LINE
  5
21EC
  8
TITLE
 10
324.80478421422782
 20
73.126143938099872
 30
0.0
 11
326.58231230411718
 21
74.903672027990297
 31
0.0
  0
LINE
  5
21ED
  8
TITLE
 10
324.80478421422782
 20
73.300713683393482
 30
0.0
 11
326.58231230411718
 21
75.078241773277554
 31
0.0
  0
LINE
  5
21EE
  8
TITLE
 10
324.80478421422782
 20
73.475283428688272
 30
0.0
 11
326.58231230411718
 21
75.252811518572116
 31
0.0
  0
LINE
  5
21EF
  8
TITLE
 10
324.6628567545859
 20
73.507925714333865
 30
0.0
 11
326.58231230411718
 21
75.42738126386574
 31
0.0
  0
LINE
  5
21F0
  8
TITLE
 10
324.13914751870288
 20
73.507925714333865
 30
0.0
 11
327.3216159172307
 21
76.690394112862577
 31
0.0
  0
LINE
  5
21F1
  8
TITLE
 10
323.96457777342221
 20
73.507925714333865
 30
0.0
 11
327.14704617193638
 21
76.690394112862577
 31
0.0
  0
LINE
  5
21F2
  8
TITLE
 10
323.7298639105029
 20
75.542618540239346
 30
0.0
 11
324.87763948312568
 21
76.690394112862577
 31
0.0
  0
LINE
  5
21F3
  8
TITLE
 10
323.55529416520773
 20
75.542618540239346
 30
0.0
 11
324.70306973782959
 21
76.690394112862577
 31
0.0
  0
LINE
  5
21F4
  8
TITLE
 10
323.38072441991432
 20
75.542618540239346
 30
0.0
 11
324.52849999255068
 21
76.690394112862577
 31
0.0
  0
LINE
  5
21F5
  8
TITLE
 10
323.20615467463358
 20
75.542618540239346
 30
0.0
 11
324.35393024725641
 21
76.690394112862577
 31
0.0
  0
LINE
  5
21F6
  8
TITLE
 10
323.0315849293392
 20
75.542618540239346
 30
0.0
 11
324.17936050196289
 21
76.690394112862577
 31
0.0
  0
LINE
  5
21F7
  8
TITLE
 10
322.85701518404488
 20
75.542618540239346
 30
0.0
 11
324.04270610857202
 21
76.728309464766212
 31
0.0
  0
LINE
  5
21F8
  8
TITLE
 10
322.68244543875062
 20
75.542618540239346
 30
0.0
 11
324.01358007787258
 21
76.873753179353344
 31
0.0
  0
LINE
  5
21F9
  8
TITLE
 10
320.3851132070713
 20
76.387541723829131
 30
0.0
 11
320.68796559610468
 21
76.690394112862577
 31
0.0
  0
LINE
  5
21FA
  8
TITLE
 10
320.3851132070713
 20
76.562111469123707
 30
0.0
 11
320.51339585081041
 21
76.690394112862577
 31
0.0
  0
LINE
  5
21FB
  8
TITLE
 10
320.3851132070713
 20
76.212971978535066
 30
0.0
 11
320.8625353413845
 21
76.690394112862577
 31
0.0
  0
LINE
  5
21FC
  8
TITLE
 10
320.3851132070713
 20
74.292704780311624
 30
0.0
 11
320.64376643514152
 21
74.551358008388192
 31
0.0
  0
LINE
  5
21FD
  8
TITLE
 10
320.3851132070713
 20
74.467274525605703
 30
0.0
 11
320.46919668984719
 21
74.551358008388192
 31
0.0
  0
LINE
  5
21FE
  8
TITLE
 10
320.3851132070713
 20
74.118135035017744
 30
0.0
 11
320.81833618043493
 21
74.551358008388192
 31
0.0
  0
LINE
  5
21FF
  8
TITLE
 10
320.41303874993901
 20
75.542618540239346
 30
0.0
 11
321.56081432256178
 21
76.690394112862577
 31
0.0
  0
LINE
  5
2200
  8
TITLE
 10
320.3851132070713
 20
75.689262742652545
 30
0.0
 11
321.38624457726843
 21
76.690394112862577
 31
0.0
  0
LINE
  5
2201
  8
TITLE
 10
320.3851132070713
 20
75.863832487946183
 30
0.0
 11
321.21167483197308
 21
76.690394112862577
 31
0.0
  0
LINE
  5
2202
  8
TITLE
 10
320.3851132070713
 20
76.038402233240731
 30
0.0
 11
321.03710508667967
 21
76.690394112862577
 31
0.0
  0
LINE
  5
2203
  8
TITLE
 10
321.28588747641152
 20
75.542618540239346
 30
0.0
 11
322.43366304903338
 21
76.690394112862577
 31
0.0
  0
LINE
  5
2204
  8
TITLE
 10
321.11131773111617
 20
75.542618540239346
 30
0.0
 11
322.25909330373912
 21
76.690394112862577
 31
0.0
  0
LINE
  5
2205
  8
TITLE
 10
320.93674798582202
 20
75.542618540239346
 30
0.0
 11
322.08452355844571
 21
76.690394112862577
 31
0.0
  0
LINE
  5
2206
  8
TITLE
 10
320.7621782405277
 20
75.542618540239346
 30
0.0
 11
321.90995381315042
 21
76.690394112862577
 31
0.0
  0
LINE
  5
2207
  8
TITLE
 10
320.58760849523333
 20
75.542618540239346
 30
0.0
 11
321.73538406785701
 21
76.690394112862577
 31
0.0
  0
LINE
  5
2208
  8
TITLE
 10
324.42814289168018
 20
75.542618540239346
 30
0.0
 11
325.57591846430307
 21
76.690394112862577
 31
0.0
  0
LINE
  5
2209
  8
TITLE
 10
324.2535731463858
 20
75.542618540239346
 30
0.0
 11
325.40134871900767
 21
76.690394112862577
 31
0.0
  0
LINE
  5
220A
  8
TITLE
 10
324.07900340109148
 20
75.542618540239346
 30
0.0
 11
325.22677897371341
 21
76.690394112862577
 31
0.0
  0
LINE
  5
220B
  8
TITLE
 10
323.90443365579631
 20
75.542618540239346
 30
0.0
 11
325.05220922841909
 21
76.690394112862577
 31
0.0
  0
LINE
  5
220C
  8
TITLE
 10
323.4357368185257
 20
69.662259598873561
 30
0.0
 11
324.33021501715029
 21
70.556737797498727
 31
0.0
  0
LINE
  5
220D
  8
TITLE
 10
322.88996124722962
 20
69.291053772880105
 30
0.0
 11
324.70142084315103
 21
71.10251336879378
 31
0.0
  0
LINE
  5
220E
  8
TITLE
 10
322.30322070042621
 20
70.799150169585801
 30
0.0
 11
324.07290698385623
 21
72.568836453023096
 31
0.0
  0
LINE
  5
220F
  8
TITLE
 10
322.60471129769928
 20
71.275210512153762
 30
0.0
 11
323.89833723856191
 21
72.568836453023096
 31
0.0
  0
LINE
  5
2210
  8
TITLE
 10
320.80953248260721
 20
68.60718297059725
 30
0.0
 11
324.77118596503351
 21
72.568836453023096
 31
0.0
  0
LINE
  5
2211
  8
TITLE
 10
320.61898082360398
 20
68.591201056880195
 30
0.0
 11
324.59661621973919
 21
72.568836453023096
 31
0.0
  0
LINE
  5
2212
  8
TITLE
 10
320.4357694152514
 20
68.582559393821612
 30
0.0
 11
324.42204647444493
 21
72.568836453023096
 31
0.0
  0
LINE
  5
2213
  8
TITLE
 10
320.25996869010572
 20
68.581328413985602
 30
0.0
 11
324.24747672915049
 21
72.568836453023096
 31
0.0
  0
LINE
  5
2214
  8
TITLE
 10
318.86341104197157
 20
68.581328728176459
 30
0.0
 11
318.96773465920802
 21
68.685652345414383
 31
0.0
  0
LINE
  5
2215
  8
TITLE
 10
318.6888412966764
 20
68.581328728176459
 30
0.0
 11
318.96773465920802
 21
68.860222090707794
 31
0.0
  0
LINE
  5
2216
  8
TITLE
 10
318.51427155138208
 20
68.581328728176459
 30
0.0
 11
318.96773465920802
 21
69.034791836002341
 31
0.0
  0
LINE
  5
2217
  8
TITLE
 10
318.3397018060877
 20
68.581328728176459
 30
0.0
 11
318.96773465920802
 21
69.209361581296221
 31
0.0
  0
LINE
  5
2218
  8
TITLE
 10
318.16513206079338
 20
68.581328728176459
 30
0.0
 11
318.96773465920802
 21
69.383931326590528
 31
0.0
  0
LINE
  5
2219
  8
TITLE
 10
317.99056231549997
 20
68.581328728176459
 30
0.0
 11
318.96773465920802
 21
69.558501071884848
 31
0.0
  0
LINE
  5
221A
  8
TITLE
 10
317.8159925702048
 20
68.581328728176459
 30
0.0
 11
318.96773465920802
 21
69.733070817179396
 31
0.0
  0
LINE
  5
221B
  8
TITLE
 10
317.64142282491048
 20
68.581328728176459
 30
0.0
 11
318.96773465920802
 21
69.907640562466653
 31
0.0
  0
LINE
  5
221C
  8
TITLE
 10
322.71795540750639
 20
71.563024367255139
 30
0.0
 11
323.72376749328203
 21
72.568836453023096
 31
0.0
  0
LINE
  5
221D
  8
TITLE
 10
322.55793721613009
 20
71.577575921171729
 30
0.0
 11
323.54919774798782
 21
72.568836453023096
 31
0.0
  0
LINE
  5
221E
  8
TITLE
 10
322.38336747083491
 20
71.577575921171729
 30
0.0
 11
323.37462800269259
 21
72.568836453023096
 31
0.0
  0
LINE
  5
221F
  8
TITLE
 10
322.20879772555509
 20
71.577575921171729
 30
0.0
 11
323.20005825739918
 21
72.568836453023096
 31
0.0
  0
LINE
  5
2220
  8
TITLE
 10
322.03422798026082
 20
71.577575921171729
 30
0.0
 11
323.02548851210491
 21
72.568836453023096
 31
0.0
  0
LINE
  5
2221
  8
TITLE
 10
321.8596582349665
 20
71.577575921171729
 30
0.0
 11
322.85091876680963
 21
72.568836453023096
 31
0.0
  0
LINE
  5
2222
  8
TITLE
 10
321.68508848967213
 20
71.577575921171729
 30
0.0
 11
322.67634902151627
 21
72.568836453023096
 31
0.0
  0
LINE
  5
2223
  8
TITLE
 10
320.46310027262638
 20
71.577575921171729
 30
0.0
 11
321.45436080446962
 21
72.568836453023096
 31
0.0
  0
LINE
  5
2224
  8
TITLE
 10
321.5105187443778
 20
71.577575921171729
 30
0.0
 11
322.5017792762219
 21
72.568836453023096
 31
0.0
  0
LINE
  5
2225
  8
TITLE
 10
321.33594899908348
 20
71.577575921171729
 30
0.0
 11
322.32720953092769
 21
72.568836453023096
 31
0.0
  0
LINE
  5
2226
  8
TITLE
 10
321.16137925378922
 20
71.577575921171729
 30
0.0
 11
322.15263978563411
 21
72.568836453023096
 31
0.0
  0
LINE
  5
2227
  8
TITLE
 10
320.98680950849479
 20
71.577575921171729
 30
0.0
 11
321.97807004033899
 21
72.568836453023096
 31
0.0
  0
LINE
  5
2228
  8
TITLE
 10
320.81223976320052
 20
71.577575921171729
 30
0.0
 11
321.80350029505922
 21
72.568836453023096
 31
0.0
  0
LINE
  5
2229
  8
TITLE
 10
320.6376700179062
 20
71.577575921171729
 30
0.0
 11
321.62893054976388
 21
72.568836453023096
 31
0.0
  0
LINE
  5
222A
  8
TITLE
 10
320.02960758909279
 20
72.540641199993615
 30
0.0
 11
320.0578028421296
 21
72.568836453023096
 31
0.0
  0
LINE
  5
222B
  8
TITLE
 10
320.02960758909279
 20
72.366071454699295
 30
0.0
 11
320.23237258741023
 21
72.568836453023096
 31
0.0
  0
LINE
  5
222C
  8
TITLE
 10
320.02960758909279
 20
69.922095020593602
 30
0.0
 11
320.06776828638982
 21
69.960255717897553
 31
0.0
  0
LINE
  5
222D
  8
TITLE
 10
320.02960758909279
 20
69.747525275306089
 30
0.0
 11
320.24233803168499
 21
69.960255717897553
 31
0.0
  0
LINE
  5
222E
  8
TITLE
 10
320.02960758909279
 20
72.016931964110427
 30
0.0
 11
320.58151207799881
 21
72.568836453023096
 31
0.0
  0
LINE
  5
222F
  8
TITLE
 10
320.02960758909279
 20
72.191501709405443
 30
0.0
 11
320.40694233270369
 21
72.568836453023096
 31
0.0
  0
LINE
  5
2230
  8
TITLE
 10
320.02960758909279
 20
69.223816039430403
 30
0.0
 11
320.7761506082515
 21
69.970359058588883
 31
0.0
  0
LINE
  5
2231
  8
TITLE
 10
320.02960758909279
 20
69.398385784717689
 30
0.0
 11
320.58842691552758
 21
69.957205111158814
 31
0.0
  0
LINE
  5
2232
  8
TITLE
 10
320.02960758909279
 20
69.572955530012223
 30
0.0
 11
320.41531818672769
 21
69.958666127653245
 31
0.0
  0
LINE
  5
2233
  8
TITLE
 10
320.02960758909279
 20
68.700106803547897
 30
0.0
 11
321.50723776929487
 21
70.177736983749583
 31
0.0
  0
LINE
  5
2234
  8
TITLE
 10
320.02960758909279
 20
68.874676548841535
 30
0.0
 11
321.21942391419361
 21
70.064492873942527
 31
0.0
  0
LINE
  5
2235
  8
TITLE
 10
320.02960758909279
 20
69.04924629413631
 30
0.0
 11
320.98337974185768
 21
70.003018446900796
 31
0.0
  0
LINE
  5
2236
  8
TITLE
 10
320.28853052733211
 20
71.577575921171729
 30
0.0
 11
321.2797910591762
 21
72.568836453023096
 31
0.0
  0
LINE
  5
2237
  8
TITLE
 10
320.11396078203768
 20
71.577575921171729
 30
0.0
 11
321.10522131388092
 21
72.568836453023096
 31
0.0
  0
LINE
  5
2238
  8
TITLE
 10
320.02960758909279
 20
71.667792473522468
 30
0.0
 11
320.93065156858671
 21
72.568836453023096
 31
0.0
  0
LINE
  5
2239
  8
TITLE
 10
320.02960758909279
 20
71.842362218816092
 30
0.0
 11
320.75608182329319
 21
72.568836453023096
 31
0.0
  0
LINE
  5
223A
  8
TITLE
 10
320.08539918291171
 20
68.581328652086086
 30
0.0
 11
321.98329811186341
 21
70.479227581022769
 31
0.0
  0
LINE
  5
223B
  8
TITLE
 10
323.61543828283448
 20
73.507925714333865
 30
0.0
 11
324.65887057688172
 21
74.551358008388192
 31
0.0
  0
LINE
  5
223C
  8
TITLE
 10
323.4408685375393
 20
73.507925714333865
 30
0.0
 11
324.48430083158661
 21
74.551358008388192
 31
0.0
  0
LINE
  5
223D
  8
TITLE
 10
323.26629879224578
 20
73.507925714333865
 30
0.0
 11
324.30973108629308
 21
74.551358008388192
 31
0.0
  0
LINE
  5
223E
  8
TITLE
 10
323.0917290469514
 20
73.507925714333865
 30
0.0
 11
324.13516134099882
 21
74.551358008388192
 31
0.0
  0
LINE
  5
223F
  8
TITLE
 10
322.91715930165719
 20
73.507925714333865
 30
0.0
 11
323.9605915957045
 21
74.551358008388192
 31
0.0
  0
LINE
  5
2240
  8
TITLE
 10
322.74258955636287
 20
73.507925714333865
 30
0.0
 11
323.78602185041018
 21
74.551358008388192
 31
0.0
  0
LINE
  5
2241
  8
TITLE
 10
322.56801981106759
 20
73.507925714333865
 30
0.0
 11
323.6114521051295
 21
74.551358008388192
 31
0.0
  0
LINE
  5
2242
  8
TITLE
 10
322.39345006577332
 20
73.507925714333865
 30
0.0
 11
323.43688235983598
 21
74.551358008388192
 31
0.0
  0
LINE
  5
2243
  8
TITLE
 10
322.2188803204935
 20
73.507925714333865
 30
0.0
 11
323.26231261454092
 21
74.551358008388192
 31
0.0
  0
LINE
  5
2244
  8
TITLE
 10
322.04431057520009
 20
73.507925714333865
 30
0.0
 11
323.08774286924728
 21
74.551358008388192
 31
0.0
  0
LINE
  5
2245
  8
TITLE
 10
321.8697408299048
 20
73.507925714333865
 30
0.0
 11
322.91317312395307
 21
74.551358008388192
 31
0.0
  0
LINE
  5
2246
  8
TITLE
 10
321.69517108461048
 20
73.507925714333865
 30
0.0
 11
322.7386033786579
 21
74.551358008388192
 31
0.0
  0
LINE
  5
2247
  8
TITLE
 10
320.47318286755132
 20
73.507925714333865
 30
0.0
 11
321.51661516161221
 21
74.551358008388192
 31
0.0
  0
LINE
  5
2248
  8
TITLE
 10
320.3851132070713
 20
73.594425799141632
 30
0.0
 11
321.34204541631789
 21
74.551358008388192
 31
0.0
  0
LINE
  5
2249
  8
TITLE
 10
320.3851132070713
 20
73.768995544429345
 30
0.0
 11
321.16747567102448
 21
74.551358008388192
 31
0.0
  0
LINE
  5
224A
  8
TITLE
 10
320.3851132070713
 20
73.943565289723651
 30
0.0
 11
320.9929059257293
 21
74.551358008388192
 31
0.0
  0
LINE
  5
224B
  8
TITLE
 10
321.52060133931627
 20
73.507925714333865
 30
0.0
 11
322.56403363336449
 21
74.551358008388192
 31
0.0
  0
LINE
  5
224C
  8
TITLE
 10
321.34603159402201
 20
73.507925714333865
 30
0.0
 11
322.38946388807028
 21
74.551358008388192
 31
0.0
  0
LINE
  5
224D
  8
TITLE
 10
321.17146184872757
 20
73.507925714333865
 30
0.0
 11
322.21489414277488
 21
74.551358008388192
 31
0.0
  0
LINE
  5
224E
  8
TITLE
 10
320.99689210343428
 20
73.507925714333865
 30
0.0
 11
322.04032439748158
 21
74.551358008388192
 31
0.0
  0
LINE
  5
224F
  8
TITLE
 10
320.8223223581399
 20
73.507925714333865
 30
0.0
 11
321.86575465220182
 21
74.551358008388192
 31
0.0
  0
LINE
  5
2250
  8
TITLE
 10
320.64775261284558
 20
73.507925714333865
 30
0.0
 11
321.69118490690738
 21
74.551358008388192
 31
0.0
  0
LINE
  5
2251
  8
TITLE
 10
315.54658588139318
 20
68.581328728176459
 30
0.0
 11
317.25145000813342
 21
70.286192854909586
 31
0.0
  0
LINE
  5
2252
  8
TITLE
 10
315.37201613609972
 20
68.581328728176459
 30
0.0
 11
317.07688026283921
 21
70.286192854909586
 31
0.0
  0
LINE
  5
2253
  8
TITLE
 10
315.1974463908191
 20
68.581328728176459
 30
0.0
 11
316.90231051754557
 21
70.286192854909586
 31
0.0
  0
LINE
  5
2254
  8
TITLE
 10
315.02287664552568
 20
68.581328728176459
 30
0.0
 11
316.7277407722504
 21
70.286192854909586
 31
0.0
  0
LINE
  5
2255
  8
TITLE
 10
314.8483069002304
 20
68.581328728176459
 30
0.0
 11
316.55317102695687
 21
70.286192854909586
 31
0.0
  0
LINE
  5
2256
  8
TITLE
 10
314.67373715493608
 20
68.581328728176459
 30
0.0
 11
316.3786012816617
 21
70.286192854909586
 31
0.0
  0
LINE
  5
2257
  8
TITLE
 10
315.7211556266875
 20
68.581328728176459
 30
0.0
 11
317.42601975342768
 21
70.286192854909586
 31
0.0
  0
LINE
  5
2258
  8
TITLE
 10
316.59400435315922
 20
68.581328728176459
 30
0.0
 11
318.29886847988467
 21
70.286192854909586
 31
0.0
  0
LINE
  5
2259
  8
TITLE
 10
316.41943460786479
 20
68.581328728176459
 30
0.0
 11
318.12429873459041
 21
70.286192854909586
 31
0.0
  0
LINE
  5
225A
  8
TITLE
 10
316.24486486257052
 20
68.581328728176459
 30
0.0
 11
317.94972898929609
 21
70.286192854909586
 31
0.0
  0
LINE
  5
225B
  8
TITLE
 10
316.0702951172762
 20
68.581328728176459
 30
0.0
 11
317.77515924400183
 21
70.286192854909586
 31
0.0
  0
LINE
  5
225C
  8
TITLE
 10
315.89572537198183
 20
68.581328728176459
 30
0.0
 11
317.60058949872098
 21
70.286192854909586
 31
0.0
  0
LINE
  5
225D
  8
TITLE
 10
316.94314384374781
 20
68.581328728176459
 30
0.0
 11
318.64800797047337
 21
70.286192854909586
 31
0.0
  0
LINE
  5
225E
  8
TITLE
 10
316.76857409845343
 20
68.581328728176459
 30
0.0
 11
318.47343822518002
 21
70.286192854909586
 31
0.0
  0
LINE
  5
225F
  8
TITLE
 10
317.46685307961621
 20
68.581328728176459
 30
0.0
 11
318.96773465920802
 21
70.082210307760533
 31
0.0
  0
LINE
  5
2260
  8
TITLE
 10
317.29228333432172
 20
68.581328728176459
 30
0.0
 11
318.96773465920802
 21
70.256780053055081
 31
0.0
  0
LINE
  5
2261
  8
TITLE
 10
317.11771358904213
 20
68.581328728176459
 30
0.0
 11
318.82257771576769
 21
70.286192854909586
 31
0.0
  0
LINE
  5
2262
  8
TITLE
 10
330.88722346751177
 20
75.542618540239346
 30
0.0
 11
331.00198331128831
 21
75.657378384001063
 31
0.0
  0
LINE
  5
2263
  8
TITLE
 10
330.71265372221751
 20
75.542618540239346
 30
0.0
 11
331.00198331128831
 21
75.831948129295583
 31
0.0
  0
LINE
  5
2264
  8
TITLE
 10
330.5380839769378
 20
75.542618540239346
 30
0.0
 11
331.00198331128831
 21
76.006517874589235
 31
0.0
  0
LINE
  5
2265
  8
TITLE
 10
330.36351423164251
 20
75.542618540239346
 30
0.0
 11
331.00198331128831
 21
76.181087619883783
 31
0.0
  0
LINE
  5
2266
  8
TITLE
 10
329.83980499576052
 20
75.542618540239346
 30
0.0
 11
330.98758056838318
 21
76.690394112862577
 31
0.0
  0
LINE
  5
2267
  8
TITLE
 10
330.1889444863491
 20
75.542618540239346
 30
0.0
 11
331.00198331128831
 21
76.355657365171481
 31
0.0
  0
LINE
  5
2268
  8
TITLE
 10
330.01437474105393
 20
75.542618540239346
 30
0.0
 11
331.00198331128831
 21
76.530227110466257
 31
0.0
  0
LINE
  5
2269
  8
TITLE
 10
328.61781677871483
 20
75.542618540239346
 30
0.0
 11
329.76559235133749
 21
76.690394112862577
 31
0.0
  0
LINE
  5
226A
  8
TITLE
 10
329.66523525046517
 20
75.542618540239346
 30
0.0
 11
330.81301082308801
 21
76.690394112862577
 31
0.0
  0
LINE
  5
226B
  8
TITLE
 10
329.49066550517182
 20
75.542618540239346
 30
0.0
 11
330.63844107779369
 21
76.690394112862577
 31
0.0
  0
LINE
  5
226C
  8
TITLE
 10
329.31609575987648
 20
75.542618540239346
 30
0.0
 11
330.46387133250028
 21
76.690394112862577
 31
0.0
  0
LINE
  5
226D
  8
TITLE
 10
329.14152601458318
 20
75.542618540239346
 30
0.0
 11
330.28930158720601
 21
76.690394112862577
 31
0.0
  0
LINE
  5
226E
  8
TITLE
 10
328.96695626928891
 20
75.542618540239346
 30
0.0
 11
330.11473184191158
 21
76.690394112862577
 31
0.0
  0
LINE
  5
226F
  8
TITLE
 10
328.79238652400818
 20
75.542618540239346
 30
0.0
 11
329.9401620966309
 21
76.690394112862577
 31
0.0
  0
LINE
  5
2270
  8
TITLE
 10
336.08621308258358
 20
76.377364522974844
 30
0.0
 11
336.37241702639949
 21
76.663568466791503
 31
0.0
  0
LINE
  5
2271
  8
TITLE
 10
335.91164333728921
 20
76.377364522974844
 30
0.0
 11
336.37241702639949
 21
76.838138212086051
 31
0.0
  0
LINE
  5
2272
  8
TITLE
 10
336.2607828278779
 20
76.37736452298212
 30
0.0
 11
336.37241702639949
 21
76.488998721498547
 31
0.0
  0
LINE
  5
2273
  8
TITLE
 10
327.91953779753652
 20
75.542618540239346
 30
0.0
 11
329.06731337015941
 21
76.690394112862577
 31
0.0
  0
LINE
  5
2274
  8
TITLE
 10
327.57039830694879
 20
75.542618540239346
 30
0.0
 11
328.91131387226591
 21
76.883534105542367
 31
0.0
  0
LINE
  5
2275
  8
TITLE
 10
327.74496805224322
 20
75.542618540239346
 30
0.0
 11
328.892743624866
 21
76.690394112862577
 31
0.0
  0
LINE
  5
2276
  8
TITLE
 10
328.44324703341948
 20
75.542618540239346
 30
0.0
 11
329.59102260604232
 21
76.690394112862577
 31
0.0
  0
LINE
  5
2277
  8
TITLE
 10
328.26867728812613
 20
75.542618540239346
 30
0.0
 11
329.4164528607489
 21
76.690394112862577
 31
0.0
  0
LINE
  5
2278
  8
TITLE
 10
328.0941075428309
 20
75.542618540239346
 30
0.0
 11
329.24188311545458
 21
76.690394112862577
 31
0.0
  0
LINE
  5
2279
  8
TITLE
 10
330.94736758513773
 20
73.507925714333865
 30
0.0
 11
331.00198331128831
 21
73.562541440483727
 31
0.0
  0
LINE
  5
227A
  8
TITLE
 10
330.77279783984341
 20
73.507925714333865
 30
0.0
 11
331.00198331128831
 21
73.737111185777621
 31
0.0
  0
LINE
  5
227B
  8
TITLE
 10
330.59822809454909
 20
73.507925714333865
 30
0.0
 11
331.00198331128831
 21
73.911680931072183
 31
0.0
  0
LINE
  5
227C
  8
TITLE
 10
331.2864244807879
 20
71.577575921171729
 30
0.0
 11
331.35748892926591
 21
71.648640369649911
 31
0.0
  0
LINE
  5
227D
  8
TITLE
 10
331.11185473549358
 20
71.577575921171729
 30
0.0
 11
331.35748892926591
 21
71.823210114944445
 31
0.0
  0
LINE
  5
227E
  8
TITLE
 10
331.25786295776652
 20
68.581328728176459
 30
0.0
 11
331.35748892926591
 21
68.680954699675567
 31
0.0
  0
LINE
  5
227F
  8
TITLE
 10
331.0832932124722
 20
68.581328728176459
 30
0.0
 11
331.35748892926591
 21
68.85552444497057
 31
0.0
  0
LINE
  5
2280
  8
TITLE
 10
330.91128259583547
 20
68.583887856833584
 30
0.0
 11
331.35748892926591
 21
69.030094190264435
 31
0.0
  0
LINE
  5
2281
  8
TITLE
 10
330.74554620099212
 20
68.592721207285422
 30
0.0
 11
331.35748892926591
 21
69.204663935558301
 31
0.0
  0
LINE
  5
2282
  8
TITLE
 10
330.58471000191912
 20
68.60645475351339
 30
0.0
 11
331.35748892926591
 21
69.37923368084536
 31
0.0
  0
LINE
  5
2283
  8
TITLE
 10
330.42839819380151
 20
68.624712690683495
 30
0.0
 11
331.35748892926591
 21
69.553803426140121
 31
0.0
  0
LINE
  5
2284
  8
TITLE
 10
330.2762923150467
 20
68.647176557221655
 30
0.0
 11
331.35748892926591
 21
69.728373171426483
 31
0.0
  0
LINE
  5
2285
  8
TITLE
 10
330.1281199975229
 20
68.673573984984841
 30
0.0
 11
331.35748892926591
 21
69.902942916721258
 31
0.0
  0
LINE
  5
2286
  8
TITLE
 10
329.98364644207049
 20
68.703670174834997
 30
0.0
 11
331.24023198513993
 21
69.960255717897553
 31
0.0
  0
LINE
  5
2287
  8
TITLE
 10
329.84266785398182
 20
68.737261332026492
 30
0.0
 11
331.06566223984561
 21
69.960255717897553
 31
0.0
  0
LINE
  5
2288
  8
TITLE
 10
330.93728499019841
 20
71.577575921171729
 30
0.0
 11
331.35748892926591
 21
71.997779860238339
 31
0.0
  0
LINE
  5
2289
  8
TITLE
 10
330.76271524490397
 20
71.577575921171729
 30
0.0
 11
331.35748892926591
 21
72.1723496055331
 31
0.0
  0
LINE
  5
228A
  8
TITLE
 10
330.58814549960971
 20
71.577575921171729
 30
0.0
 11
331.35748892926591
 21
72.346919350827633
 31
0.0
  0
LINE
  5
228B
  8
TITLE
 10
330.41357575431539
 20
71.577575921171729
 30
0.0
 11
331.35748892926591
 21
72.521489096121499
 31
0.0
  0
LINE
  5
228C
  8
TITLE
 10
330.23900600902198
 20
71.577575921171729
 30
0.0
 11
331.23026654086522
 21
72.568836453023096
 31
0.0
  0
LINE
  5
228D
  8
TITLE
 10
330.06443626372771
 20
71.577575921171729
 30
0.0
 11
331.05569679557078
 21
72.568836453023096
 31
0.0
  0
LINE
  5
228E
  8
TITLE
 10
329.88986651843243
 20
71.577575921171729
 30
0.0
 11
330.88112705029198
 21
72.568836453023096
 31
0.0
  0
LINE
  5
228F
  8
TITLE
 10
328.70772528699217
 20
69.173446472685782
 30
0.0
 11
329.76847099199591
 21
70.234192177681052
 31
0.0
  0
LINE
  5
2290
  8
TITLE
 10
328.59467357024278
 20
69.234964501222748
 30
0.0
 11
329.6578274937001
 21
70.298118424687573
 31
0.0
  0
LINE
  5
2291
  8
TITLE
 10
328.66787830138668
 20
71.577575921171729
 30
0.0
 11
329.65913883323083
 21
72.568836453023096
 31
0.0
  0
LINE
  5
2292
  8
TITLE
 10
329.70500631462619
 20
68.774169537965008
 30
0.0
 11
330.88716414520701
 21
69.956327368545544
 31
0.0
  0
LINE
  5
2293
  8
TITLE
 10
329.57050572434667
 20
68.814238692979643
 30
0.0
 11
330.7172840840613
 21
69.961017052694373
 31
0.0
  0
LINE
  5
2294
  8
TITLE
 10
329.4390285561048
 20
68.857331270032319
 30
0.0
 11
330.55850059699969
 21
69.976803310927608
 31
0.0
  0
LINE
  5
2295
  8
TITLE
 10
329.31045323193757
 20
68.903325691167993
 30
0.0
 11
330.40905980513082
 21
70.001932264352703
 31
0.0
  0
LINE
  5
2296
  8
TITLE
 10
329.18467198365761
 20
68.952114188166206
 30
0.0
 11
330.26772739039552
 21
70.035169594910485
 31
0.0
  0
LINE
  5
2297
  8
TITLE
 10
329.06158909446168
 20
69.003601044271818
 30
0.0
 11
330.13360187798111
 21
70.075613827791599
 31
0.0
  0
LINE
  5
2298
  8
TITLE
 10
328.94111944391091
 20
69.05770113901599
 30
0.0
 11
330.00600758689222
 21
70.122589281988439
 31
0.0
  0
LINE
  5
2299
  8
TITLE
 10
328.82318729633971
 20
69.114338736732648
 30
0.0
 11
329.8844293789798
 21
70.175580819378411
 31
0.0
  0
LINE
  5
229A
  8
TITLE
 10
329.71529677313799
 20
71.577575921171729
 30
0.0
 11
330.7065573049976
 21
72.568836453023096
 31
0.0
  0
LINE
  5
229B
  8
TITLE
 10
329.54072702785822
 20
71.577575921171729
 30
0.0
 11
330.53198755970152
 21
72.568836453023096
 31
0.0
  0
LINE
  5
229C
  8
TITLE
 10
329.36615728256402
 20
71.577575921171729
 30
0.0
 11
330.35741781440811
 21
72.568836453023096
 31
0.0
  0
LINE
  5
229D
  8
TITLE
 10
329.19158753726958
 20
71.577575921171729
 30
0.0
 11
330.18284806911367
 21
72.568836453023096
 31
0.0
  0
LINE
  5
229E
  8
TITLE
 10
329.01701779197538
 20
71.577575921171729
 30
0.0
 11
330.00827832381952
 21
72.568836453023096
 31
0.0
  0
LINE
  5
229F
  8
TITLE
 10
328.84244804668111
 20
71.577575921171729
 30
0.0
 11
329.83370857852611
 21
72.568836453023096
 31
0.0
  0
LINE
  5
22A0
  8
TITLE
 10
336.11737521210222
 20
73.26627123721731
 30
0.0
 11
336.37241702639949
 21
73.521313051516458
 31
0.0
  0
LINE
  5
22A1
  8
TITLE
 10
336.01021144748938
 20
73.333677217899535
 30
0.0
 11
336.37241702639949
 21
73.695882796810338
 31
0.0
  0
LINE
  5
22A2
  8
TITLE
 10
335.90506476381319
 20
73.403100279525646
 30
0.0
 11
336.37241702639949
 21
73.870452542104672
 31
0.0
  0
LINE
  5
22A3
  8
TITLE
 10
335.8019080570711
 20
73.47451331807018
 30
0.0
 11
336.37241702639949
 21
74.045022287399419
 31
0.0
  0
LINE
  5
22A4
  8
TITLE
 10
332.297815333416
 20
73.287245754984042
 30
0.0
 11
332.4906980951755
 21
73.480128516737523
 31
0.0
  0
LINE
  5
22A5
  8
TITLE
 10
333.76049275645801
 20
69.861970309823619
 30
0.0
 11
335.43212436394151
 21
71.533601917305305
 31
0.0
  0
LINE
  5
22A6
  8
TITLE
 10
333.76049275645801
 20
70.036540055117257
 30
0.0
 11
335.43212436394151
 21
71.708171662599824
 31
0.0
  0
LINE
  5
22A7
  8
TITLE
 10
333.76049275645801
 20
70.211109800411563
 30
0.0
 11
335.43212436394151
 21
71.8827414078944
 31
0.0
  0
LINE
  5
22A8
  8
TITLE
 10
335.27296709950679
 20
68.581328728176459
 30
0.0
 11
335.43212436394151
 21
68.740485992618929
 31
0.0
  0
LINE
  5
22A9
  8
TITLE
 10
335.09839735421241
 20
68.581328728176459
 30
0.0
 11
335.43212436394151
 21
68.915055737912326
 31
0.0
  0
LINE
  5
22AA
  8
TITLE
 10
334.92382760891809
 20
68.581328728176459
 30
0.0
 11
335.43212436394151
 21
69.089625483199825
 31
0.0
  0
LINE
  5
22AB
  8
TITLE
 10
334.74925786362382
 20
68.581328728176459
 30
0.0
 11
335.43212436394151
 21
69.264195228493691
 31
0.0
  0
LINE
  5
22AC
  8
TITLE
 10
334.5746881183295
 20
68.581328728176459
 30
0.0
 11
335.43212436394151
 21
69.438764973787997
 31
0.0
  0
LINE
  5
22AD
  8
TITLE
 10
334.40011837303518
 20
68.581328728176459
 30
0.0
 11
335.43212436394151
 21
69.613334719082999
 31
0.0
  0
LINE
  5
22AE
  8
TITLE
 10
334.22554862774092
 20
68.581328728176459
 30
0.0
 11
335.43212436394151
 21
69.787904464376652
 31
0.0
  0
LINE
  5
22AF
  8
TITLE
 10
334.05097888244671
 20
68.581328728176459
 30
0.0
 11
335.43212436394151
 21
69.9624742096712
 31
0.0
  0
LINE
  5
22B0
  8
TITLE
 10
333.87640913715228
 20
68.581328728176459
 30
0.0
 11
335.43212436394151
 21
70.137043954965719
 31
0.0
  0
LINE
  5
22B1
  8
TITLE
 10
333.76049275645801
 20
68.639982092769742
 30
0.0
 11
335.43212436394151
 21
70.311613700260523
 31
0.0
  0
LINE
  5
22B2
  8
TITLE
 10
333.76049275645801
 20
68.81455183806429
 30
0.0
 11
335.43212436394151
 21
70.486183445547567
 31
0.0
  0
LINE
  5
22B3
  8
TITLE
 10
333.76049275645801
 20
68.98912158335132
 30
0.0
 11
335.43212436394151
 21
70.66075319084166
 31
0.0
  0
LINE
  5
22B4
  8
TITLE
 10
333.76049275645801
 20
69.163691328645655
 30
0.0
 11
335.43212436394151
 21
70.835322936135285
 31
0.0
  0
LINE
  5
22B5
  8
TITLE
 10
333.76049275645801
 20
69.338261073940203
 30
0.0
 11
335.43212436394151
 21
71.009892681422343
 31
0.0
  0
LINE
  5
22B6
  8
TITLE
 10
333.76049275645801
 20
69.51283081923404
 30
0.0
 11
335.43212436394151
 21
71.184462426716649
 31
0.0
  0
LINE
  5
22B7
  8
TITLE
 10
333.76049275645801
 20
69.687400564528389
 30
0.0
 11
335.43212436394151
 21
71.359032172011666
 31
0.0
  0
LINE
  5
22B8
  8
TITLE
 10
333.76049275645801
 20
71.607667762752271
 30
0.0
 11
335.43212436394151
 21
73.279299370234185
 31
0.0
  0
LINE
  5
22B9
  8
TITLE
 10
333.76049275645801
 20
71.782237508046379
 30
0.0
 11
335.43212436394151
 21
73.453869115528491
 31
0.0
  0
LINE
  5
22BA
  8
TITLE
 10
333.76049275645801
 20
71.956807253340457
 30
0.0
 11
335.43212436394151
 21
73.628438860822371
 31
0.0
  0
LINE
  5
22BB
  8
TITLE
 10
333.76049275645801
 20
70.385679545698622
 30
0.0
 11
335.43212436394151
 21
72.057311153188465
 31
0.0
  0
LINE
  5
22BC
  8
TITLE
 10
333.76049275645801
 20
70.560249290992942
 30
0.0
 11
335.43212436394151
 21
72.231880898483482
 31
0.0
  0
LINE
  5
22BD
  8
TITLE
 10
333.76049275645801
 20
70.734819036287703
 30
0.0
 11
335.43212436394151
 21
72.406450643769631
 31
0.0
  0
LINE
  5
22BE
  8
TITLE
 10
333.76049275645801
 20
70.909388781574549
 30
0.0
 11
335.43212436394151
 21
72.581020389064406
 31
0.0
  0
LINE
  5
22BF
  8
TITLE
 10
333.76049275645801
 20
71.08395852686931
 30
0.0
 11
335.43212436394151
 21
72.755590134351195
 31
0.0
  0
LINE
  5
22C0
  8
TITLE
 10
333.76049275645801
 20
71.258528272162948
 30
0.0
 11
335.43212436394151
 21
72.930159879645544
 31
0.0
  0
LINE
  5
22C1
  8
TITLE
 10
333.76049275645801
 20
71.43309801745751
 30
0.0
 11
335.43212436394151
 21
73.104729624939623
 31
0.0
  0
LINE
  5
22C2
  8
TITLE
 10
336.33788086907123
 20
73.137637403612416
 30
0.0
 11
336.37241702639949
 21
73.172173560934652
 31
0.0
  0
LINE
  5
22C3
  8
TITLE
 10
336.22658680463883
 20
73.200913084473768
 30
0.0
 11
336.37241702639949
 21
73.346743306221711
 31
0.0
  0
LINE
  5
22C4
  8
TITLE
 10
326.66209435276397
 20
71.142919680196201
 30
0.0
 11
328.08801112559649
 21
72.568836453023096
 31
0.0
  0
LINE
  5
22C5
  8
TITLE
 10
326.79451719750722
 20
70.926203034337732
 30
0.0
 11
328.43715061618508
 21
72.568836453023096
 31
0.0
  0
LINE
  5
22C6
  8
TITLE
 10
326.72716148600563
 20
71.033417068144217
 30
0.0
 11
328.26258087089082
 21
72.568836453023096
 31
0.0
  0
LINE
  5
22C7
  8
TITLE
 10
326.54447983484903
 20
68.581328728176459
 30
0.0
 11
326.58231230411718
 21
68.619161197445464
 31
0.0
  0
LINE
  5
22C8
  8
TITLE
 10
326.36991008955459
 20
68.581328728176459
 30
0.0
 11
326.58231230411718
 21
68.793730942739529
 31
0.0
  0
LINE
  5
22C9
  8
TITLE
 10
326.19534034427488
 20
68.581328728176459
 30
0.0
 11
326.58231230411718
 21
68.968300688033651
 31
0.0
  0
LINE
  5
22CA
  8
TITLE
 10
326.02077059897971
 20
68.581328728176459
 30
0.0
 11
326.58231230411718
 21
69.142870433320923
 31
0.0
  0
LINE
  5
22CB
  8
TITLE
 10
325.84620085368527
 20
68.581328728176459
 30
0.0
 11
326.58231230411718
 21
69.317440178615939
 31
0.0
  0
LINE
  5
22CC
  8
TITLE
 10
325.67163110839198
 20
68.581328728176459
 30
0.0
 11
326.58231230411718
 21
69.492009923909563
 31
0.0
  0
LINE
  5
22CD
  8
TITLE
 10
326.59935967101228
 20
71.254754743732732
 30
0.0
 11
327.91344138030217
 21
72.568836453023096
 31
0.0
  0
LINE
  5
22CE
  8
TITLE
 10
327.67876003672518
 20
69.890178675332663
 30
0.0
 11
328.87983840109968
 21
71.091257039722223
 31
0.0
  0
LINE
  5
22CF
  8
TITLE
 10
327.58777921752318
 20
69.973767601439704
 30
0.0
 11
328.81773972023888
 21
71.203728104155061
 31
0.0
  0
LINE
  5
22D0
  8
TITLE
 10
327.49890341832179
 20
70.059461547524961
 30
0.0
 11
328.76105342292522
 21
71.321611552135892
 31
0.0
  0
LINE
  5
22D1
  8
TITLE
 10
327.41212986695598
 20
70.147257741453814
 30
0.0
 11
328.7101138631923
 21
71.445241737697884
 31
0.0
  0
LINE
  5
22D2
  8
TITLE
 10
327.32745945386341
 20
70.237157073655681
 30
0.0
 11
328.66535513314278
 21
71.57505275292759
 31
0.0
  0
LINE
  5
22D3
  8
TITLE
 10
327.24489673981589
 20
70.329164104909751
 30
0.0
 11
329.48456908793651
 21
72.568836453023096
 31
0.0
  0
LINE
  5
22D4
  8
TITLE
 10
327.16444999585019
 20
70.423287106223825
 30
0.0
 11
329.30999934264219
 21
72.568836453023096
 31
0.0
  0
LINE
  5
22D5
  8
TITLE
 10
327.08613127611528
 20
70.519538131775775
 30
0.0
 11
329.1354295973623
 21
72.568836453023096
 31
0.0
  0
LINE
  5
22D6
  8
TITLE
 10
327.00995652522852
 20
70.617933126191701
 30
0.0
 11
328.96085985206821
 21
72.568836453023096
 31
0.0
  0
LINE
  5
22D7
  8
TITLE
 10
326.93594572239908
 20
70.718492068648629
 30
0.0
 11
328.78629010677378
 21
72.568836453023096
 31
0.0
  0
LINE
  5
22D8
  8
TITLE
 10
326.8641230652193
 20
70.821239156769252
 30
0.0
 11
328.61172036147951
 21
72.568836453023096
 31
0.0
  0
LINE
  5
22D9
  8
TITLE
 10
327.8670663142475
 20
69.729345462273841
 30
0.0
 11
329.01931297649571
 21
70.881592124528424
 31
0.0
  0
LINE
  5
22DA
  8
TITLE
 10
327.77185233481941
 20
69.808701228146461
 30
0.0
 11
328.9470935210993
 21
70.983942414427702
 31
0.0
  0
LINE
  5
22DB
  8
TITLE
 10
328.48397910150021
 20
69.298839777781495
 30
0.0
 11
329.55226663528168
 21
70.367127311556033
 31
0.0
  0
LINE
  5
22DC
  8
TITLE
 10
328.37559503098061
 20
69.365025452549617
 30
0.0
 11
329.45161608329181
 21
70.441046504860424
 31
0.0
  0
LINE
  5
22DD
  8
TITLE
 10
328.26948019133027
 20
69.433480358200995
 30
0.0
 11
329.3557547235942
 21
70.519754890450713
 31
0.0
  0
LINE
  5
22DE
  8
TITLE
 10
328.16559866526131
 20
69.50416857741925
 30
0.0
 11
329.26460693732508
 21
70.603176849475616
 31
0.0
  0
LINE
  5
22DF
  8
TITLE
 10
328.06391942165561
 20
69.577059079100536
 30
0.0
 11
329.17813918659249
 21
70.691278844030194
 31
0.0
  0
LINE
  5
22E0
  8
TITLE
 10
327.96441601121751
 20
69.652125413955673
 30
0.0
 11
329.09635853896822
 21
70.78406794170769
 31
0.0
  0
LINE
  5
22E1
  8
TITLE
 10
330.42365834925567
 20
73.507925714333865
 30
0.0
 11
331.00198331128831
 21
74.086250676366447
 31
0.0
  0
LINE
  5
22E2
  8
TITLE
 10
330.24908860396039
 20
73.507925714333865
 30
0.0
 11
331.00198331128831
 21
74.260820421660341
 31
0.0
  0
LINE
  5
22E3
  8
TITLE
 10
330.07451885866601
 20
73.507925714333865
 30
0.0
 11
331.00198331128831
 21
74.435390166948309
 31
0.0
  0
LINE
  5
22E4
  8
TITLE
 10
329.8999491133718
 20
73.507925714333865
 30
0.0
 11
330.94338140743372
 21
74.551358008388192
 31
0.0
  0
LINE
  5
22E5
  8
TITLE
 10
328.67796089632611
 20
73.507925714333865
 30
0.0
 11
329.72139319037342
 21
74.551358008388192
 31
0.0
  0
LINE
  5
22E6
  8
TITLE
 10
328.50339115103168
 20
73.507925714333865
 30
0.0
 11
329.5468234450791
 21
74.551358008388192
 31
0.0
  0
LINE
  5
22E7
  8
TITLE
 10
328.32882140573747
 20
73.507925714333865
 30
0.0
 11
329.37225369978478
 21
74.551358008388192
 31
0.0
  0
LINE
  5
22E8
  8
TITLE
 10
329.72537936807748
 20
73.507925714333865
 30
0.0
 11
330.7688116621394
 21
74.551358008388192
 31
0.0
  0
LINE
  5
22E9
  8
TITLE
 10
329.55080962279771
 20
73.507925714333865
 30
0.0
 11
330.59424191684508
 21
74.551358008388192
 31
0.0
  0
LINE
  5
22EA
  8
TITLE
 10
329.37623987750328
 20
73.507925714333865
 30
0.0
 11
330.4196721715507
 21
74.551358008388192
 31
0.0
  0
LINE
  5
22EB
  8
TITLE
 10
329.20167013220907
 20
73.507925714333865
 30
0.0
 11
330.24510242625638
 21
74.551358008388192
 31
0.0
  0
LINE
  5
22EC
  8
TITLE
 10
329.0271003869147
 20
73.507925714333865
 30
0.0
 11
330.070532680962
 21
74.551358008388192
 31
0.0
  0
LINE
  5
22ED
  8
TITLE
 10
328.85253064161952
 20
73.507925714333865
 30
0.0
 11
329.89596293566768
 21
74.551358008388192
 31
0.0
  0
LINE
  5
22EE
  8
TITLE
 10
327.10683318869093
 20
73.507925714333865
 30
0.0
 11
328.15026548273909
 21
74.551358008388192
 31
0.0
  0
LINE
  5
22EF
  8
TITLE
 10
326.9322634433974
 20
73.507925714333865
 30
0.0
 11
327.97569573744482
 21
74.551358008388192
 31
0.0
  0
LINE
  5
22F0
  8
TITLE
 10
326.75769369810308
 20
73.507925714333865
 30
0.0
 11
327.80112599215039
 21
74.551358008388192
 31
0.0
  0
LINE
  5
22F1
  8
TITLE
 10
326.58312395280882
 20
73.507925714333865
 30
0.0
 11
327.62655624685613
 21
74.551358008388192
 31
0.0
  0
LINE
  5
22F2
  8
TITLE
 10
327.28140293398519
 20
73.507925714333865
 30
0.0
 11
328.32483522803341
 21
74.551358008388192
 31
0.0
  0
LINE
  5
22F3
  8
TITLE
 10
327.6305424245748
 20
73.507925714333865
 30
0.0
 11
328.67397471862211
 21
74.551358008388192
 31
0.0
  0
LINE
  5
22F4
  8
TITLE
 10
327.45597267928042
 20
73.507925714333865
 30
0.0
 11
328.49940497332773
 21
74.551358008388192
 31
0.0
  0
LINE
  5
22F5
  8
TITLE
 10
328.15425166044321
 20
73.507925714333865
 30
0.0
 11
329.19768395450501
 21
74.551358008388192
 31
0.0
  0
LINE
  5
22F6
  8
TITLE
 10
327.97968191514968
 20
73.507925714333865
 30
0.0
 11
329.02311420921069
 21
74.551358008388192
 31
0.0
  0
LINE
  5
22F7
  8
TITLE
 10
327.80511216985451
 20
73.507925714333865
 30
0.0
 11
328.84854446391643
 21
74.551358008388192
 31
0.0
  0
LINE
  5
22F8
  8
TITLE
 10
332.297815333416
 20
72.065257537931544
 30
0.0
 11
335.6918835394917
 21
75.459325744015814
 31
0.0
  0
LINE
  5
22F9
  8
TITLE
 10
332.297815333416
 20
72.239827283225623
 30
0.0
 11
335.61625780987572
 21
75.558269759678296
 31
0.0
  0
LINE
  5
22FA
  8
TITLE
 10
332.297815333416
 20
72.414397028519701
 30
0.0
 11
335.5479087219037
 21
75.664490417008437
 31
0.0
  0
LINE
  5
22FB
  8
TITLE
 10
332.297815333416
 20
72.588966773814036
 30
0.0
 11
335.48723542026619
 21
75.778386860651153
 31
0.0
  0
LINE
  5
22FC
  8
TITLE
 10
332.297815333416
 20
72.763536519107902
 30
0.0
 11
335.434850185784
 21
75.900571371463016
 31
0.0
  0
LINE
  5
22FD
  8
TITLE
 10
332.297815333416
 20
72.93810626440245
 30
0.0
 11
335.43212436394151
 21
76.072415294921697
 31
0.0
  0
LINE
  5
22FE
  8
TITLE
 10
332.297815333416
 20
71.716118047342434
 30
0.0
 11
335.8641798993649
 21
75.282482613306911
 31
0.0
  0
LINE
  5
22FF
  8
TITLE
 10
332.297815333416
 20
71.890687792636754
 30
0.0
 11
335.77455392678428
 21
75.3674263860064
 31
0.0
  0
LINE
  5
2300
  8
TITLE
 10
333.10757897869013
 20
71.827602711440491
 30
0.0
 11
336.29534888555918
 21
75.015372618316619
 31
0.0
  0
LINE
  5
2301
  8
TITLE
 10
332.62157149781348
 20
71.516164975872471
 30
0.0
 11
336.17595261806758
 21
75.070546096111457
 31
0.0
  0
LINE
  5
2302
  8
TITLE
 10
332.297815333416
 20
71.366978556761509
 30
0.0
 11
336.0646171040043
 21
75.133780327342507
 31
0.0
  0
LINE
  5
2303
  8
TITLE
 10
332.297815333416
 20
71.541548302055162
 30
0.0
 11
335.96080645678921
 21
75.204539425430298
 31
0.0
  0
LINE
  5
2304
  8
TITLE
 10
333.76049275645801
 20
72.131376998634749
 30
0.0
 11
336.37241702639949
 21
74.743301268568985
 31
0.0
  0
LINE
  5
2305
  8
TITLE
 10
333.76049275645801
 20
72.305946743921808
 30
0.0
 11
336.37241702639949
 21
74.91787101386376
 31
0.0
  0
LINE
  5
2306
  8
TITLE
 10
335.70071764909522
 20
73.547892655387841
 30
0.0
 11
336.37241702639949
 21
74.219592032693726
 31
0.0
  0
LINE
  5
2307
  8
TITLE
 10
335.60147310302818
 20
73.623217854622453
 30
0.0
 11
336.37241702639949
 21
74.394161777987591
 31
0.0
  0
LINE
  5
2308
  8
TITLE
 10
335.50415706792222
 20
73.700471564796985
 30
0.0
 11
336.37241702639949
 21
74.56873152328194
 31
0.0
  0
LINE
  5
2309
  8
TITLE
 10
332.297815333416
 20
73.11267600969019
 30
0.0
 11
335.43212436394151
 21
76.246985040216487
 31
0.0
  0
LINE
  5
230A
  8
TITLE
 10
290.75963184888587
 20
77.48633553719695
 30
0.0
 11
292.98387281440409
 21
79.710576502716307
 31
0.0
  0
LINE
  5
230B
  8
TITLE
 10
290.58506210359161
 20
77.48633553719695
 30
0.0
 11
292.80930306911068
 21
79.710576502716307
 31
0.0
  0
LINE
  5
230C
  8
TITLE
 10
290.41049235829729
 20
77.48633553719695
 30
0.0
 11
292.63473332381631
 21
79.710576502716307
 31
0.0
  0
LINE
  5
230D
  8
TITLE
 10
290.93420159418019
 20
77.48633553719695
 30
0.0
 11
293.15844255969932
 21
79.710576502716307
 31
0.0
  0
LINE
  5
230E
  8
TITLE
 10
292.33075955652021
 20
77.48633553719695
 30
0.0
 11
293.50986300238952
 21
78.665438983066679
 31
0.0
  0
LINE
  5
230F
  8
TITLE
 10
292.15618981122589
 20
77.48633553719695
 30
0.0
 11
293.50986300238952
 21
78.840008728360544
 31
0.0
  0
LINE
  5
2310
  8
TITLE
 10
291.9816200659306
 20
77.48633553719695
 30
0.0
 11
293.50986300238952
 21
79.014578473655092
 31
0.0
  0
LINE
  5
2311
  8
TITLE
 10
291.80705032063719
 20
77.48633553719695
 30
0.0
 11
293.50986300238952
 21
79.189148218949398
 31
0.0
  0
LINE
  5
2312
  8
TITLE
 10
291.63248057534202
 20
77.48633553719695
 30
0.0
 11
293.50986300238952
 21
79.363717964243492
 31
0.0
  0
LINE
  5
2313
  8
TITLE
 10
291.45791083004769
 20
77.48633553719695
 30
0.0
 11
293.50986300238952
 21
79.538287709531446
 31
0.0
  0
LINE
  5
2314
  8
TITLE
 10
291.28334108475337
 20
77.48633553719695
 30
0.0
 11
293.50758205028802
 21
79.710576502716307
 31
0.0
  0
LINE
  5
2315
  8
TITLE
 10
291.10877133946002
 20
77.48633553719695
 30
0.0
 11
293.33301230499268
 21
79.710576502716307
 31
0.0
  0
LINE
  5
2316
  8
TITLE
 10
292.50532930181362
 20
77.48633553719695
 30
0.0
 11
293.50986300238952
 21
78.490869237772586
 31
0.0
  0
LINE
  5
2318
  8
TITLE
 10
279.75
 20
105.0
 30
0.0
 11
279.75
 21
85.0
 31
0.0
  0
LINE
  5
231B
  8
TITLE
 10
259.18579558665721
 20
78.906181135335146
 30
0.0
 11
259.97008481996909
 21
79.690470368661622
 31
0.0
  0
LINE
  5
231C
  8
TITLE
 10
259.18579558665721
 20
79.080750880629452
 30
0.0
 11
259.79551507468932
 21
79.690470368661622
 31
0.0
  0
LINE
  5
231D
  8
TITLE
 10
259.18579558665721
 20
78.557041644747414
 30
0.0
 11
260.31922431055767
 21
79.690470368661622
 31
0.0
  0
LINE
  5
231E
  8
TITLE
 10
259.18579558665721
 20
78.731611390040811
 30
0.0
 11
260.14465456526432
 21
79.690470368661622
 31
0.0
  0
LINE
  5
231F
  8
TITLE
 10
259.18579558665721
 20
78.38247189945946
 30
0.0
 11
260.49379405585199
 21
79.690470368661622
 31
0.0
  0
LINE
  5
2320
  8
TITLE
 10
259.18579558665721
 20
78.207902154164913
 30
0.0
 11
260.66836380114643
 21
79.690470368661622
 31
0.0
  0
LINE
  5
2321
  8
TITLE
 10
259.18579558665721
 20
77.160483682406038
 30
0.0
 11
261.71578227291229
 21
79.690470368661622
 31
0.0
  0
LINE
  5
2322
  8
TITLE
 10
259.18579558665721
 20
77.335053427700572
 30
0.0
 11
261.54121252761797
 21
79.690470368661622
 31
0.0
  0
LINE
  5
2323
  8
TITLE
 10
259.18579558665721
 20
76.985913937111704
 30
0.0
 11
261.89035201819303
 21
79.690470368661622
 31
0.0
  0
LINE
  5
2324
  8
TITLE
 10
259.18579558665721
 20
77.509623172995362
 30
0.0
 11
261.36664278232371
 21
79.690470368661622
 31
0.0
  0
LINE
  5
2325
  8
TITLE
 10
259.18579558665721
 20
77.684192918288758
 30
0.0
 11
261.19207303702927
 21
79.690470368661622
 31
0.0
  0
LINE
  5
2326
  8
TITLE
 10
259.18579558665721
 20
77.85876266358332
 30
0.0
 11
261.01750329173592
 21
79.690470368661622
 31
0.0
  0
LINE
  5
2327
  8
TITLE
 10
259.18579558665721
 20
78.033332408877627
 30
0.0
 11
260.84293354644069
 21
79.690470368661622
 31
0.0
  0
LINE
  5
2328
  8
TITLE
 10
259.18579558665721
 20
79.255320625923773
 30
0.0
 11
259.620945329395
 21
79.690470368661622
 31
0.0
  0
LINE
  5
2329
  8
TITLE
 10
259.18579558665721
 20
79.429890371218349
 30
0.0
 11
259.44637558410068
 21
79.690470368661622
 31
0.0
  0
LINE
  5
232A
  8
TITLE
 10
259.18579558665721
 20
79.6044601165122
 30
0.0
 11
259.27180583880642
 21
79.690470368661622
 31
0.0
  0
LINE
  5
232B
  8
TITLE
 10
266.38778556776288
 20
77.379683851803733
 30
0.0
 11
268.69857208462781
 21
79.690470368661622
 31
0.0
  0
LINE
  5
232C
  8
TITLE
 10
266.2132158224822
 20
77.379683851803733
 30
0.0
 11
268.52400233933338
 21
79.690470368661622
 31
0.0
  0
LINE
  5
232D
  8
TITLE
 10
266.03864607718788
 20
77.379683851803733
 30
0.0
 11
268.34943259403917
 21
79.690470368661622
 31
0.0
  0
LINE
  5
232E
  8
TITLE
 10
265.86407633189361
 20
77.379683851803733
 30
0.0
 11
268.17486284874479
 21
79.690470368661622
 31
0.0
  0
LINE
  5
232F
  8
TITLE
 10
265.68950658659918
 20
77.379683851803733
 30
0.0
 11
268.00029310345047
 21
79.690470368661622
 31
0.0
  0
LINE
  5
2330
  8
TITLE
 10
265.51493684130492
 20
77.379683851803733
 30
0.0
 11
267.8257233581553
 21
79.690470368661622
 31
0.0
  0
LINE
  5
2331
  8
TITLE
 10
265.34036709601162
 20
77.379683851803733
 30
0.0
 11
267.65115361286189
 21
79.690470368661622
 31
0.0
  0
LINE
  5
2332
  8
TITLE
 10
265.16579735071628
 20
77.379683851803733
 30
0.0
 11
267.47658386756763
 21
79.690470368661622
 31
0.0
  0
LINE
  5
2333
  8
TITLE
 10
264.99122760542292
 20
77.379683851803733
 30
0.0
 11
267.30201412227319
 21
79.690470368661622
 31
0.0
  0
LINE
  5
2334
  8
TITLE
 10
264.81665786012758
 20
77.379683851803733
 30
0.0
 11
267.12744437699263
 21
79.690470368661622
 31
0.0
  0
LINE
  5
2335
  8
TITLE
 10
264.64208811483422
 20
77.379683851803733
 30
0.0
 11
266.95287463169831
 21
79.690470368661622
 31
0.0
  0
LINE
  5
2336
  8
TITLE
 10
264.4675183695544
 20
77.379683851803733
 30
0.0
 11
266.77830488640478
 21
79.690470368661622
 31
0.0
  0
LINE
  5
2337
  8
TITLE
 10
264.29294862426008
 20
77.379683851803733
 30
0.0
 11
266.60373514111052
 21
79.690470368661622
 31
0.0
  0
LINE
  5
2338
  8
TITLE
 10
264.1183788789649
 20
77.379683851803733
 30
0.0
 11
266.42916539581529
 21
79.690470368661622
 31
0.0
  0
LINE
  5
2339
  8
TITLE
 10
263.07096040719898
 20
77.379683851803733
 30
0.0
 11
265.38174692406392
 21
79.690470368661622
 31
0.0
  0
LINE
  5
233A
  8
TITLE
 10
262.89639066190472
 20
77.379683851803733
 30
0.0
 11
265.2071771787696
 21
79.690470368661622
 31
0.0
  0
LINE
  5
233B
  8
TITLE
 10
262.7218209166104
 20
77.379683851803733
 30
0.0
 11
265.03260743347607
 21
79.690470368661622
 31
0.0
  0
LINE
  5
233C
  8
TITLE
 10
262.54725117133057
 20
77.379683851803733
 30
0.0
 11
264.85803768818101
 21
79.690470368661622
 31
0.0
  0
LINE
  5
233D
  8
TITLE
 10
263.94380913367138
 20
77.379683851803733
 30
0.0
 11
266.25459565052188
 21
79.690470368661622
 31
0.0
  0
LINE
  5
233E
  8
TITLE
 10
263.76923938837632
 20
77.379683851803733
 30
0.0
 11
266.08002590522761
 21
79.690470368661622
 31
0.0
  0
LINE
  5
233F
  8
TITLE
 10
263.59466964308189
 20
77.379683851803733
 30
0.0
 11
265.90545615993329
 21
79.690470368661622
 31
0.0
  0
LINE
  5
2340
  8
TITLE
 10
263.42009989778762
 20
77.379683851803733
 30
0.0
 11
265.73088641463892
 21
79.690470368661622
 31
0.0
  0
LINE
  5
2341
  8
TITLE
 10
263.2455301524933
 20
77.379683851803733
 30
0.0
 11
265.5563166693446
 21
79.690470368661622
 31
0.0
  0
LINE
  5
2342
  8
TITLE
 10
267.43520403952789
 20
77.379683851803733
 30
0.0
 11
269.74599055637918
 21
79.690470368661622
 31
0.0
  0
LINE
  5
2343
  8
TITLE
 10
267.26063429423363
 20
77.379683851803733
 30
0.0
 11
269.57142081108492
 21
79.690470368661622
 31
0.0
  0
LINE
  5
2344
  8
TITLE
 10
267.08606454894021
 20
77.379683851803733
 30
0.0
 11
269.39685106578958
 21
79.690470368661622
 31
0.0
  0
LINE
  5
2345
  8
TITLE
 10
266.91149480364493
 20
77.379683851803733
 30
0.0
 11
269.22228132049531
 21
79.690470368661622
 31
0.0
  0
LINE
  5
2346
  8
TITLE
 10
266.73692505835152
 20
77.379683851803733
 30
0.0
 11
269.04771157521651
 21
79.690470368661622
 31
0.0
  0
LINE
  5
2347
  8
TITLE
 10
266.5623553130572
 20
77.379683851803733
 30
0.0
 11
268.87314182992208
 21
79.690470368661622
 31
0.0
  0
LINE
  5
2348
  8
TITLE
 10
267.64682929452192
 20
77.242169616216643
 30
0.0
 11
270.09513004696782
 21
79.690470368661622
 31
0.0
  0
LINE
  5
2349
  8
TITLE
 10
267.60977378482221
 20
77.379683851803733
 30
0.0
 11
269.92056030167248
 21
79.690470368661622
 31
0.0
  0
LINE
  5
234A
  8
TITLE
 10
267.64682929452192
 20
77.067599870921853
 30
0.0
 11
270.26969979226209
 21
79.690470368661622
 31
0.0
  0
LINE
  5
234B
  8
TITLE
 10
261.8489721901542
 20
77.379683851803733
 30
0.0
 11
264.15975870700453
 21
79.690470368661622
 31
0.0
  0
LINE
  5
234C
  8
TITLE
 10
262.19811168074278
 20
77.379683851803733
 30
0.0
 11
264.50889819759232
 21
79.690470368661622
 31
0.0
  0
LINE
  5
234D
  8
TITLE
 10
262.02354193544852
 20
77.379683851803733
 30
0.0
 11
264.334328452298
 21
79.690470368661622
 31
0.0
  0
LINE
  5
234E
  8
TITLE
 10
262.37268142603631
 20
77.379683851803733
 30
0.0
 11
264.68346794288738
 21
79.690470368661622
 31
0.0
  0
LINE
  5
234F
  8
TITLE
 10
281.4864373354385
 20
77.116198033694445
 30
0.0
 11
282.7202674967649
 21
78.350028195029154
 31
0.0
  0
LINE
  5
2350
  8
TITLE
 10
281.24436931332548
 20
77.048699756883934
 30
0.0
 11
282.7202674967649
 21
78.524597940322764
 31
0.0
  0
LINE
  5
2351
  8
TITLE
 10
280.99447498955487
 20
76.973375178393781
 30
0.0
 11
282.7202674967649
 21
78.699167685610291
 31
0.0
  0
LINE
  5
2352
  8
TITLE
 10
290.235922613002
 20
77.48633553719695
 30
0.0
 11
292.46016357852199
 21
79.710576502716307
 31
0.0
  0
LINE
  5
2353
  8
TITLE
 10
290.06135286770768
 20
77.48633553719695
 30
0.0
 11
292.28559383322761
 21
79.710576502716307
 31
0.0
  0
LINE
  5
2354
  8
TITLE
 10
289.88678312241427
 20
77.48633553719695
 30
0.0
 11
292.1110240879334
 21
79.710576502716307
 31
0.0
  0
LINE
  5
2355
  8
TITLE
 10
285.34796974480469
 20
77.48633553719695
 30
0.0
 11
287.57221071032473
 21
79.710576502716307
 31
0.0
  0
LINE
  5
2356
  8
TITLE
 10
285.17339999951042
 20
77.48633553719695
 30
0.0
 11
287.3976409650295
 21
79.710576502716307
 31
0.0
  0
LINE
  5
2357
  8
TITLE
 10
284.99883025421599
 20
77.48633553719695
 30
0.0
 11
287.22307121973608
 21
79.710576502716307
 31
0.0
  0
LINE
  5
2358
  8
TITLE
 10
284.82426050892258
 20
77.48633553719695
 30
0.0
 11
287.04850147444091
 21
79.710576502716307
 31
0.0
  0
LINE
  5
2359
  8
TITLE
 10
286.56995796185117
 20
77.48633553719695
 30
0.0
 11
288.79419892737042
 21
79.710576502716307
 31
0.0
  0
LINE
  5
235A
  8
TITLE
 10
286.39538821655702
 20
77.48633553719695
 30
0.0
 11
288.61962918207519
 21
79.710576502716307
 31
0.0
  0
LINE
  5
235B
  8
TITLE
 10
286.22081847126168
 20
77.48633553719695
 30
0.0
 11
288.44505943678092
 21
79.710576502716307
 31
0.0
  0
LINE
  5
235C
  8
TITLE
 10
286.04624872596838
 20
77.48633553719695
 30
0.0
 11
288.27048969148751
 21
79.710576502716307
 31
0.0
  0
LINE
  5
235D
  8
TITLE
 10
285.87167898067401
 20
77.48633553719695
 30
0.0
 11
288.09591994619223
 21
79.710576502716307
 31
0.0
  0
LINE
  5
235E
  8
TITLE
 10
285.69710923537968
 20
77.48633553719695
 30
0.0
 11
287.92135020091342
 21
79.710576502716307
 31
0.0
  0
LINE
  5
235F
  8
TITLE
 10
285.52253949009901
 20
77.48633553719695
 30
0.0
 11
287.74678045561808
 21
79.710576502716307
 31
0.0
  0
LINE
  5
2360
  8
TITLE
 10
286.74452770714561
 20
77.48633553719695
 30
0.0
 11
288.96876867266468
 21
79.710576502716307
 31
0.0
  0
LINE
  5
2361
  8
TITLE
 10
284.47512101833303
 20
77.48633553719695
 30
0.0
 11
286.69936198385312
 21
79.710576502716307
 31
0.0
  0
LINE
  5
2362
  8
TITLE
 10
284.64969076362831
 20
77.48633553719695
 30
0.0
 11
286.87393172914739
 21
79.710576502716307
 31
0.0
  0
LINE
  5
2363
  8
TITLE
 10
287.32406524958418
 20
77.018454607871021
 30
0.0
 11
290.01618714441611
 21
79.710576502716307
 31
0.0
  0
LINE
  5
2364
  8
TITLE
 10
287.32406524958418
 20
77.193024353165811
 30
0.0
 11
289.8416173991364
 21
79.710576502716307
 31
0.0
  0
LINE
  5
2365
  8
TITLE
 10
287.32406524958418
 20
77.367594098459648
 30
0.0
 11
289.66704765384202
 21
79.710576502716307
 31
0.0
  0
LINE
  5
2366
  8
TITLE
 10
287.26823694302772
 20
77.48633553719695
 30
0.0
 11
289.4924779085469
 21
79.710576502716307
 31
0.0
  0
LINE
  5
2367
  8
TITLE
 10
287.09366719773328
 20
77.48633553719695
 30
0.0
 11
289.31790816325338
 21
79.710576502716307
 31
0.0
  0
LINE
  5
2368
  8
TITLE
 10
286.91909745243908
 20
77.48633553719695
 30
0.0
 11
289.14333841795809
 21
79.710576502716307
 31
0.0
  0
LINE
  5
2369
  8
TITLE
 10
282.17311089308993
 20
77.279162355470817
 30
0.0
 11
282.7202674967649
 21
77.826318959145723
 31
0.0
  0
LINE
  5
236A
  8
TITLE
 10
281.95019056977981
 20
77.230811777440749
 30
0.0
 11
282.7202674967649
 21
78.000888704440513
 31
0.0
  0
LINE
  5
236B
  8
TITLE
 10
282.39072833712271
 20
77.322210054202984
 30
0.0
 11
282.7202674967649
 21
77.651749213851403
 31
0.0
  0
LINE
  5
236C
  8
TITLE
 10
282.60345523203171
 20
77.360367203817304
 30
0.0
 11
282.7202674967649
 21
77.477179468556841
 31
0.0
  0
LINE
  5
236D
  8
TITLE
 10
281.7214874504561
 20
77.176678403418947
 30
0.0
 11
282.7202674967649
 21
78.175458449734592
 31
0.0
  0
LINE
  5
236E
  8
TITLE
 10
283.62680682261282
 20
78.907428030281579
 30
0.0
 11
284.42995529504151
 21
79.710576502716307
 31
0.0
  0
LINE
  5
236F
  8
TITLE
 10
283.62680682261282
 20
79.431137266156384
 30
0.0
 11
283.90624605917219
 21
79.710576502716307
 31
0.0
  0
LINE
  5
2370
  8
TITLE
 10
283.62680682261282
 20
79.605707011451372
 30
0.0
 11
283.73167631387793
 21
79.710576502716307
 31
0.0
  0
LINE
  5
2371
  8
TITLE
 10
283.62680682261282
 20
79.081997775575019
 30
0.0
 11
284.25538554976168
 21
79.710576502716307
 31
0.0
  0
LINE
  5
2372
  8
TITLE
 10
283.62680682261282
 20
79.256567520869794
 30
0.0
 11
284.08081580446651
 21
79.710576502716307
 31
0.0
  0
LINE
  5
2373
  8
TITLE
 10
283.62680682261282
 20
78.383718794405226
 30
0.0
 11
284.95366453092453
 21
79.710576502716307
 31
0.0
  0
LINE
  5
2374
  8
TITLE
 10
283.62680682261282
 20
78.558288539700015
 30
0.0
 11
284.77909478563021
 21
79.710576502716307
 31
0.0
  0
LINE
  5
2375
  8
TITLE
 10
283.62680682261282
 20
78.732858284993654
 30
0.0
 11
284.60452504033492
 21
79.710576502716307
 31
0.0
  0
LINE
  5
2376
  8
TITLE
 10
283.62680682261282
 20
78.209149049110451
 30
0.0
 11
285.12823427621788
 21
79.710576502716307
 31
0.0
  0
LINE
  5
2377
  8
TITLE
 10
284.1259815277453
 20
77.48633553719695
 30
0.0
 11
286.35022249326357
 21
79.710576502716307
 31
0.0
  0
LINE
  5
2378
  8
TITLE
 10
283.95141178245012
 20
77.48633553719695
 30
0.0
 11
286.1756527479838
 21
79.710576502716307
 31
0.0
  0
LINE
  5
2379
  8
TITLE
 10
283.7768420371558
 20
77.48633553719695
 30
0.0
 11
286.0010830026896
 21
79.710576502716307
 31
0.0
  0
LINE
  5
237A
  8
TITLE
 10
283.62680682261282
 20
77.510870067933411
 30
0.0
 11
285.82651325739607
 21
79.710576502716307
 31
0.0
  0
LINE
  5
237B
  8
TITLE
 10
283.62680682261282
 20
77.685439813227731
 30
0.0
 11
285.6519435121009
 21
79.710576502716307
 31
0.0
  0
LINE
  5
237C
  8
TITLE
 10
283.62680682261282
 20
77.860009558522506
 30
0.0
 11
285.47737376680737
 21
79.710576502716307
 31
0.0
  0
LINE
  5
237D
  8
TITLE
 10
283.62680682261282
 20
78.03457930381613
 30
0.0
 11
285.3028040215122
 21
79.710576502716307
 31
0.0
  0
LINE
  5
237E
  8
TITLE
 10
284.30055127303882
 20
77.48633553719695
 30
0.0
 11
286.5247922385588
 21
79.710576502716307
 31
0.0
  0
LINE
  5
237F
  8
TITLE
 10
314.54957288124479
 20
78.058500445599961
 30
0.0
 11
316.20164893836142
 21
79.710576502716307
 31
0.0
  0
LINE
  5
2380
  8
TITLE
 10
312.51453102872711
 20
77.070877064848446
 30
0.0
 11
315.15423046660999
 21
79.710576502716307
 31
0.0
  0
LINE
  5
2381
  8
TITLE
 10
312.51453102872711
 20
77.245446810142283
 30
0.0
 11
314.97966072131572
 21
79.710576502716307
 31
0.0
  0
LINE
  5
2382
  8
TITLE
 10
312.51453102872711
 20
77.420016555430053
 30
0.0
 11
314.80509097602118
 21
79.710576502716307
 31
0.0
  0
LINE
  5
2383
  8
TITLE
 10
312.51453102872711
 20
77.594586300723662
 30
0.0
 11
314.63052123072708
 21
79.710576502716307
 31
0.0
  0
LINE
  5
2384
  8
TITLE
 10
298.75613945404609
 20
79.023762566526344
 30
0.0
 11
299.4429533902366
 21
79.710576502716307
 31
0.0
  0
LINE
  5
2385
  8
TITLE
 10
298.8478960962039
 20
79.290088953977587
 30
0.0
 11
299.26838364494222
 21
79.710576502716307
 31
0.0
  0
LINE
  5
2386
  8
TITLE
 10
298.48086952757421
 20
78.224783404178197
 30
0.0
 11
299.96666262611961
 21
79.710576502716307
 31
0.0
  0
LINE
  5
2387
  8
TITLE
 10
298.5726261697319
 20
78.491109791622662
 30
0.0
 11
299.79209288082518
 21
79.710576502716307
 31
0.0
  0
LINE
  5
2388
  8
TITLE
 10
298.66438281188857
 20
78.757436179074375
 30
0.0
 11
299.61752313553092
 21
79.710576502716307
 31
0.0
  0
LINE
  5
2389
  8
TITLE
 10
298.11384295895999
 20
77.15947785437902
 30
0.0
 11
300.66494160729678
 21
79.710576502716307
 31
0.0
  0
LINE
  5
238A
  8
TITLE
 10
298.20559960110228
 20
77.425804241831443
 30
0.0
 11
300.49037186200258
 21
79.710576502716307
 31
0.0
  0
LINE
  5
238B
  8
TITLE
 10
298.29735624325991
 20
77.692130629282701
 30
0.0
 11
300.31580211670831
 21
79.710576502716307
 31
0.0
  0
LINE
  5
238C
  8
TITLE
 10
298.3891128854176
 20
77.958457016726683
 30
0.0
 11
300.14123237141388
 21
79.710576502716307
 31
0.0
  0
LINE
  5
238D
  8
TITLE
 10
298.93965273836147
 20
79.556415341429087
 30
0.0
 11
299.09381389964801
 21
79.710576502716307
 31
0.0
  0
LINE
  5
238E
  8
TITLE
 10
293.2036082829772
 20
77.48633553719695
 30
0.0
 11
293.50986300238952
 21
77.792590256602111
 31
0.0
  0
LINE
  5
238F
  8
TITLE
 10
293.02903853768288
 20
77.48633553719695
 30
0.0
 11
293.50986300238952
 21
77.967160001896218
 31
0.0
  0
LINE
  5
2390
  8
TITLE
 10
293.37817802827158
 20
77.48633553719695
 30
0.0
 11
293.50986300238952
 21
77.618020511308032
 31
0.0
  0
LINE
  5
2391
  8
TITLE
 10
292.85446879238771
 20
77.48633553719695
 30
0.0
 11
293.50986300238952
 21
78.141729747184186
 31
0.0
  0
LINE
  5
2392
  8
TITLE
 10
292.67989904710799
 20
77.48633553719695
 30
0.0
 11
293.50986300238952
 21
78.316299492478507
 31
0.0
  0
LINE
  5
2393
  8
TITLE
 10
311.40731746597612
 20
78.058500445599961
 30
0.0
 11
313.05939352309269
 21
79.710576502716307
 31
0.0
  0
LINE
  5
2394
  8
TITLE
 10
311.2327477206818
 20
78.058500445599961
 30
0.0
 11
312.88482377779837
 21
79.710576502716307
 31
0.0
  0
LINE
  5
2395
  8
TITLE
 10
311.05817797538663
 20
78.058500445599961
 30
0.0
 11
312.7102540325032
 21
79.710576502716307
 31
0.0
  0
LINE
  5
2396
  8
TITLE
 10
310.88360823009322
 20
78.058500445599961
 30
0.0
 11
312.53568428720968
 21
79.710576502716307
 31
0.0
  0
LINE
  5
2397
  8
TITLE
 10
310.70903848479878
 20
78.058500445599961
 30
0.0
 11
312.3611145419153
 21
79.710576502716307
 31
0.0
  0
LINE
  5
2398
  8
TITLE
 10
310.53446873950452
 20
78.058500445599961
 30
0.0
 11
312.18654479662098
 21
79.710576502716307
 31
0.0
  0
LINE
  5
2399
  8
TITLE
 10
310.3598989942102
 20
78.058500445599961
 30
0.0
 11
312.01197505132677
 21
79.710576502716307
 31
0.0
  0
LINE
  5
239A
  8
TITLE
 10
310.18532924892952
 20
78.058500445599961
 30
0.0
 11
311.83740530603148
 21
79.710576502716307
 31
0.0
  0
LINE
  5
239B
  8
TITLE
 10
310.0107595036352
 20
78.058500445599961
 30
0.0
 11
311.66283556075177
 21
79.710576502716307
 31
0.0
  0
LINE
  5
239C
  8
TITLE
 10
308.40766447691482
 20
78.550242362396375
 30
0.0
 11
309.56799861723539
 21
79.710576502716307
 31
0.0
  0
LINE
  5
239D
  8
TITLE
 10
308.40766447691482
 20
78.724812107690681
 30
0.0
 11
309.39342887194022
 21
79.710576502716307
 31
0.0
  0
LINE
  5
239E
  8
TITLE
 10
308.40766447691482
 20
78.899381852985016
 30
0.0
 11
309.2188591266459
 21
79.710576502716307
 31
0.0
  0
LINE
  5
239F
  8
TITLE
 10
308.40766447691482
 20
79.073951598279805
 30
0.0
 11
309.04428938135152
 21
79.710576502716307
 31
0.0
  0
LINE
  5
23A0
  8
TITLE
 10
308.78877128657592
 20
78.058500445599961
 30
0.0
 11
310.4408473436925
 21
79.710576502716307
 31
0.0
  0
LINE
  5
23A1
  8
TITLE
 10
308.6142015412816
 20
78.058500445599961
 30
0.0
 11
310.26627759839721
 21
79.710576502716307
 31
0.0
  0
LINE
  5
23A2
  8
TITLE
 10
308.43963179600092
 20
78.058500445599961
 30
0.0
 11
310.0917078531038
 21
79.710576502716307
 31
0.0
  0
LINE
  5
23A3
  8
TITLE
 10
308.40766447691482
 20
78.201102871807734
 30
0.0
 11
309.91713810780948
 21
79.710576502716307
 31
0.0
  0
LINE
  5
23A4
  8
TITLE
 10
308.40766447691482
 20
78.375672617102055
 30
0.0
 11
309.74256836252971
 21
79.710576502716307
 31
0.0
  0
LINE
  5
23A5
  8
TITLE
 10
308.40766447691482
 20
79.423091088861383
 30
0.0
 11
308.69514989076367
 21
79.710576502716307
 31
0.0
  0
LINE
  5
23A6
  8
TITLE
 10
308.40766447691482
 20
79.597660834155249
 30
0.0
 11
308.5205801454685
 21
79.710576502716307
 31
0.0
  0
LINE
  5
23A7
  8
TITLE
 10
308.40766447691482
 20
79.248521343573657
 30
0.0
 11
308.8697196360572
 21
79.710576502716307
 31
0.0
  0
LINE
  5
23A8
  8
TITLE
 10
309.83618975834088
 20
78.058500445599961
 30
0.0
 11
311.4882658154574
 21
79.710576502716307
 31
0.0
  0
LINE
  5
23A9
  8
TITLE
 10
309.66162001304662
 20
78.058500445599961
 30
0.0
 11
311.31369607016399
 21
79.710576502716307
 31
0.0
  0
LINE
  5
23AA
  8
TITLE
 10
309.48705026775218
 20
78.058500445599961
 30
0.0
 11
311.13912632486881
 21
79.710576502716307
 31
0.0
  0
LINE
  5
23AB
  8
TITLE
 10
309.31248052245792
 20
78.058500445599961
 30
0.0
 11
310.9645565795754
 21
79.710576502716307
 31
0.0
  0
LINE
  5
23AC
  8
TITLE
 10
309.1379107771636
 20
78.058500445599961
 30
0.0
 11
310.78998683428102
 21
79.710576502716307
 31
0.0
  0
LINE
  5
23AD
  8
TITLE
 10
308.96334103187019
 20
78.058500445599961
 30
0.0
 11
310.61541708898682
 21
79.710576502716307
 31
0.0
  0
LINE
  5
23AE
  8
TITLE
 10
312.45473593772658
 20
78.058500445599961
 30
0.0
 11
314.10681199484321
 21
79.710576502716307
 31
0.0
  0
LINE
  5
23AF
  8
TITLE
 10
312.51453102872711
 20
77.769156046018225
 30
0.0
 11
314.45595148543282
 21
79.710576502716307
 31
0.0
  0
LINE
  5
23B0
  8
TITLE
 10
312.51453102872711
 20
77.943725791305042
 30
0.0
 11
314.28138174013839
 21
79.710576502716307
 31
0.0
  0
LINE
  5
23B1
  8
TITLE
 10
311.5818872112705
 20
78.058500445599961
 30
0.0
 11
313.23396326838701
 21
79.710576502716307
 31
0.0
  0
LINE
  5
23B2
  8
TITLE
 10
312.28016619243323
 20
78.058500445599961
 30
0.0
 11
313.9322422495498
 21
79.710576502716307
 31
0.0
  0
LINE
  5
23B3
  8
TITLE
 10
312.10559644715329
 20
78.058500445599961
 30
0.0
 11
313.75767250425542
 21
79.710576502716307
 31
0.0
  0
LINE
  5
23B4
  8
TITLE
 10
311.93102670185817
 20
78.058500445599961
 30
0.0
 11
313.5831027589611
 21
79.710576502716307
 31
0.0
  0
LINE
  5
23B5
  8
TITLE
 10
311.7564569565638
 20
78.058500445599961
 30
0.0
 11
313.40853301368128
 21
79.710576502716307
 31
0.0
  0
LINE
  5
23B6
  8
TITLE
 10
324.66496674828431
 20
77.525139849766674
 30
0.0
 11
325.96925711584032
 21
78.829430217329431
 31
0.0
  0
LINE
  5
23B7
  8
TITLE
 10
324.4903970029909
 20
77.525139849766674
 30
0.0
 11
325.79468737054589
 21
78.829430217329431
 31
0.0
  0
LINE
  5
23B8
  8
TITLE
 10
324.31582725769567
 20
77.525139849766674
 30
0.0
 11
325.62011762525248
 21
78.829430217329431
 31
0.0
  0
LINE
  5
23B9
  8
TITLE
 10
325.01410623885931
 20
77.525139849766674
 30
0.0
 11
326.31839660642891
 21
78.829430217329431
 31
0.0
  0
LINE
  5
23BA
  8
TITLE
 10
324.83953649356408
 20
77.525139849766674
 30
0.0
 11
326.14382686113458
 21
78.829430217329431
 31
0.0
  0
LINE
  5
23BB
  8
TITLE
 10
325.18867598415358
 20
77.525139849766674
 30
0.0
 11
327.37411263711061
 21
79.710576502716307
 31
0.0
  0
LINE
  5
23BC
  8
TITLE
 10
325.53781547474222
 20
77.525139849766674
 30
0.0
 11
327.7232521276992
 21
79.710576502716307
 31
0.0
  0
LINE
  5
23BD
  8
TITLE
 10
325.36324572944801
 20
77.525139849766674
 30
0.0
 11
327.54868238240488
 21
79.710576502716307
 31
0.0
  0
LINE
  5
23BE
  8
TITLE
 10
323.63202009267121
 20
79.459878864134211
 30
0.0
 11
323.88271773125331
 21
79.710576502716307
 31
0.0
  0
LINE
  5
23BF
  8
TITLE
 10
323.63202009267121
 20
78.936169628251264
 30
0.0
 11
324.40642696713621
 21
79.710576502716307
 31
0.0
  0
LINE
  5
23C0
  8
TITLE
 10
323.63202009267121
 20
79.110739373545584
 30
0.0
 11
324.23185722184189
 21
79.710576502716307
 31
0.0
  0
LINE
  5
23C1
  8
TITLE
 10
323.63202009267121
 20
79.285309118840118
 30
0.0
 11
324.05728747654757
 21
79.710576502716307
 31
0.0
  0
LINE
  5
23C2
  8
TITLE
 10
322.44272753201773
 20
77.048598086435007
 30
0.0
 11
324.9720134476056
 21
79.57788400201639
 31
0.0
  0
LINE
  5
23C3
  8
TITLE
 10
322.41360150130282
 20
77.194041801014222
 30
0.0
 11
324.93013620300547
 21
79.710576502716307
 31
0.0
  0
LINE
  5
23C4
  8
TITLE
 10
322.38447547058792
 20
77.339485515594561
 30
0.0
 11
324.7555664577103
 21
79.710576502716307
 31
0.0
  0
LINE
  5
23C5
  8
TITLE
 10
322.35534943987392
 20
77.484929230173762
 30
0.0
 11
324.58099671241598
 21
79.710576502716307
 31
0.0
  0
LINE
  5
23C6
  8
TITLE
 10
318.56467702298511
 20
78.058500445599961
 30
0.0
 11
318.61222904122951
 21
78.106052463845558
 31
0.0
  0
LINE
  5
23C7
  8
TITLE
 10
318.39010727769067
 20
78.058500445599961
 30
0.0
 11
318.61222904122951
 21
78.28062220913921
 31
0.0
  0
LINE
  5
23C8
  8
TITLE
 10
318.21553753239641
 20
78.058500445599961
 30
0.0
 11
318.61222904122951
 21
78.455191954433772
 31
0.0
  0
LINE
  5
23C9
  8
TITLE
 10
318.04096778710198
 20
78.058500445599961
 30
0.0
 11
318.61222904122951
 21
78.629761699727396
 31
0.0
  0
LINE
  5
23CA
  8
TITLE
 10
317.86639804180783
 20
78.058500445599961
 30
0.0
 11
318.61222904122951
 21
78.804331445014199
 31
0.0
  0
LINE
  5
23CB
  8
TITLE
 10
317.69182829651271
 20
78.058500445599961
 30
0.0
 11
318.61222904122951
 21
78.978901190308534
 31
0.0
  0
LINE
  5
23CC
  8
TITLE
 10
317.51725855123368
 20
78.058500445599961
 30
0.0
 11
318.61222904122951
 21
79.153470935603309
 31
0.0
  0
LINE
  5
23CD
  8
TITLE
 10
323.63202009267121
 20
79.634448609428304
 30
0.0
 11
323.7081479859599
 21
79.710576502716307
 31
0.0
  0
LINE
  5
23CE
  8
TITLE
 10
322.22099031417838
 20
77.525139849766674
 30
0.0
 11
323.52528068173422
 21
78.829430217329431
 31
0.0
  0
LINE
  5
23CF
  8
TITLE
 10
322.04642056888412
 20
77.525139849766674
 30
0.0
 11
323.35071093645462
 21
78.829430217329431
 31
0.0
  0
LINE
  5
23D0
  8
TITLE
 10
321.87185082358968
 20
77.525139849766674
 30
0.0
 11
323.17614119116018
 21
78.829430217329431
 31
0.0
  0
LINE
  5
23D1
  8
TITLE
 10
321.69728107829542
 20
77.525139849766674
 30
0.0
 11
323.00157144586592
 21
78.829430217329431
 31
0.0
  0
LINE
  5
23D2
  8
TITLE
 10
321.17638873639038
 20
79.44822394196035
 30
0.0
 11
321.4387412971472
 21
79.710576502716307
 31
0.0
  0
LINE
  5
23D3
  8
TITLE
 10
321.12047771653852
 20
79.566882667387503
 30
0.0
 11
321.264171551853
 21
79.710576502716307
 31
0.0
  0
LINE
  5
23D4
  8
TITLE
 10
321.06456669667119
 20
79.685541392822415
 30
0.0
 11
321.08960180655959
 21
79.710576502716307
 31
0.0
  0
LINE
  5
23D5
  8
TITLE
 10
321.45594383569733
 20
78.85493031479426
 30
0.0
 11
322.31159002361892
 21
79.710576502716307
 31
0.0
  0
LINE
  5
23D6
  8
TITLE
 10
321.40003281583
 20
78.973589040235993
 30
0.0
 11
322.1370202783246
 21
79.710576502716307
 31
0.0
  0
LINE
  5
23D7
  8
TITLE
 10
321.34412179597712
 20
79.092247765663842
 30
0.0
 11
321.96245053303022
 21
79.710576502716307
 31
0.0
  0
LINE
  5
23D8
  8
TITLE
 10
321.2882107761107
 20
79.210906491091706
 30
0.0
 11
321.7878807877359
 21
79.710576502716307
 31
0.0
  0
LINE
  5
23D9
  8
TITLE
 10
321.23229975625782
 20
79.32956521653341
 30
0.0
 11
321.6133110424426
 21
79.710576502716307
 31
0.0
  0
LINE
  5
23DA
  8
TITLE
 10
321.52271133300201
 20
77.525139849766674
 30
0.0
 11
322.86763123580027
 21
78.870059752557808
 31
0.0
  0
LINE
  5
23DB
  8
TITLE
 10
321.34814158770769
 20
77.525139849766674
 30
0.0
 11
322.81172021594739
 21
78.988718478000223
 31
0.0
  0
LINE
  5
23DC
  8
TITLE
 10
321.17357184241251
 20
77.525139849766674
 30
0.0
 11
322.75580919608092
 21
79.107377203426722
 31
0.0
  0
LINE
  5
23DD
  8
TITLE
 10
320.99900209713269
 20
77.525139849766674
 30
0.0
 11
322.69989817621359
 21
79.226035928854117
 31
0.0
  0
LINE
  5
23DE
  8
TITLE
 10
320.82443235183842
 20
77.525139849766674
 30
0.0
 11
322.64398715636082
 21
79.344694654288773
 31
0.0
  0
LINE
  5
23DF
  8
TITLE
 10
320.6498626065441
 20
77.525139849766674
 30
0.0
 11
322.58807613649418
 21
79.463353379723685
 31
0.0
  0
LINE
  5
23E0
  8
TITLE
 10
320.47529286124973
 20
77.525139849766674
 30
0.0
 11
322.53216511664141
 21
79.58201210515108
 31
0.0
  0
LINE
  5
23E1
  8
TITLE
 10
320.02960758909279
 20
78.65058228524434
 30
0.0
 11
320.2084555211714
 21
78.829430217329431
 31
0.0
  0
LINE
  5
23E2
  8
TITLE
 10
320.02960758909279
 20
78.825152030538902
 30
0.0
 11
320.03388577587708
 21
78.829430217329431
 31
0.0
  0
LINE
  5
23E3
  8
TITLE
 10
320.02960758909279
 20
78.301442794662975
 30
0.0
 11
320.55759501175999
 21
78.829430217329431
 31
0.0
  0
LINE
  5
23E4
  8
TITLE
 10
320.02960758909279
 20
78.476012539949792
 30
0.0
 11
320.38302526646572
 21
78.829430217329431
 31
0.0
  0
LINE
  5
23E5
  8
TITLE
 10
320.02960758909279
 20
78.126873049368456
 30
0.0
 11
320.73216475705431
 21
78.829430217329431
 31
0.0
  0
LINE
  5
23E6
  8
TITLE
 10
320.12615337066097
 20
77.525139849766674
 30
0.0
 11
321.43044373823159
 21
78.829430217329431
 31
0.0
  0
LINE
  5
23E7
  8
TITLE
 10
320.02960758909279
 20
77.603163813485253
 30
0.0
 11
321.25587399293732
 21
78.829430217329431
 31
0.0
  0
LINE
  5
23E8
  8
TITLE
 10
320.02960758909279
 20
77.77773355878027
 30
0.0
 11
321.08130424764198
 21
78.829430217329431
 31
0.0
  0
LINE
  5
23E9
  8
TITLE
 10
320.02960758909279
 20
77.952303304074789
 30
0.0
 11
320.90673450234863
 21
78.829430217329431
 31
0.0
  0
LINE
  5
23EA
  8
TITLE
 10
320.30072311595632
 20
77.525139849766674
 30
0.0
 11
322.47625409677488
 21
79.70067083058575
 31
0.0
  0
LINE
  5
23EB
  8
TITLE
 10
324.14125751240141
 20
77.525139849766674
 30
0.0
 11
325.4455478799573
 21
78.829430217329431
 31
0.0
  0
LINE
  5
23EC
  8
TITLE
 10
323.96668776710789
 20
77.525139849766674
 30
0.0
 11
325.27097813466293
 21
78.829430217329431
 31
0.0
  0
LINE
  5
23ED
  8
TITLE
 10
315.5969913530098
 20
78.058500445599961
 30
0.0
 11
317.24906741011267
 21
79.710576502716307
 31
0.0
  0
LINE
  5
23EE
  8
TITLE
 10
315.42242160771639
 20
78.058500445599961
 30
0.0
 11
317.07449766483307
 21
79.710576502716307
 31
0.0
  0
LINE
  5
23EF
  8
TITLE
 10
315.24785186242212
 20
78.058500445599961
 30
0.0
 11
316.89992791953858
 21
79.710576502716307
 31
0.0
  0
LINE
  5
23F0
  8
TITLE
 10
315.0732821171278
 20
78.058500445599961
 30
0.0
 11
316.72535817424432
 21
79.710576502716307
 31
0.0
  0
LINE
  5
23F1
  8
TITLE
 10
314.89871237183252
 20
78.058500445599961
 30
0.0
 11
316.55078842895
 21
79.710576502716307
 31
0.0
  0
LINE
  5
23F2
  8
TITLE
 10
314.72414262653911
 20
78.058500445599961
 30
0.0
 11
316.37621868365568
 21
79.710576502716307
 31
0.0
  0
LINE
  5
23F3
  8
TITLE
 10
315.77156109829139
 20
78.058500445599961
 30
0.0
 11
317.42363715540722
 21
79.710576502716307
 31
0.0
  0
LINE
  5
23F4
  8
TITLE
 10
316.64440982476208
 20
78.058500445599961
 30
0.0
 11
318.2964858818786
 21
79.710576502716307
 31
0.0
  0
LINE
  5
23F5
  8
TITLE
 10
316.4698400794677
 20
78.058500445599961
 30
0.0
 11
318.12191613658422
 21
79.710576502716307
 31
0.0
  0
LINE
  5
23F6
  8
TITLE
 10
316.29527033417253
 20
78.058500445599961
 30
0.0
 11
317.94734639129001
 21
79.710576502716307
 31
0.0
  0
LINE
  5
23F7
  8
TITLE
 10
316.12070058887912
 20
78.058500445599961
 30
0.0
 11
317.77277664599569
 21
79.710576502716307
 31
0.0
  0
LINE
  5
23F8
  8
TITLE
 10
315.94613084358389
 20
78.058500445599961
 30
0.0
 11
317.59820690070143
 21
79.710576502716307
 31
0.0
  0
LINE
  5
23F9
  8
TITLE
 10
316.99354931535078
 20
78.058500445599961
 30
0.0
 11
318.61222904122951
 21
79.677180171479421
 31
0.0
  0
LINE
  5
23FA
  8
TITLE
 10
316.8189795700564
 20
78.058500445599961
 30
0.0
 11
318.47105562717292
 21
79.710576502716307
 31
0.0
  0
LINE
  5
23FB
  8
TITLE
 10
317.34268880593942
 20
78.058500445599961
 30
0.0
 11
318.61222904122951
 21
79.328040680890325
 31
0.0
  0
LINE
  5
23FC
  8
TITLE
 10
317.1681190606451
 20
78.058500445599961
 30
0.0
 11
318.61222904122951
 21
79.502610426184901
 31
0.0
  0
LINE
  5
23FD
  8
TITLE
 10
330.94947757882261
 20
77.525139849766674
 30
0.0
 11
331.35748892926591
 21
77.933151200202232
 31
0.0
  0
LINE
  5
23FE
  8
TITLE
 10
331.29861706941119
 20
77.525139849766674
 30
0.0
 11
331.35748892926591
 21
77.584011709613804
 31
0.0
  0
LINE
  5
23FF
  8
TITLE
 10
331.12404732411602
 20
77.525139849766674
 30
0.0
 11
331.35748892926591
 21
77.758581454907699
 31
0.0
  0
LINE
  5
2400
  8
TITLE
 10
330.77490783352818
 20
77.525139849766674
 30
0.0
 11
331.35748892926591
 21
78.107720945496553
 31
0.0
  0
LINE
  5
2401
  8
TITLE
 10
330.60033808823403
 20
77.525139849766674
 30
0.0
 11
331.35748892926591
 21
78.28229069079066
 31
0.0
  0
LINE
  5
2402
  8
TITLE
 10
330.42576834293959
 20
77.525139849766674
 30
0.0
 11
331.35748892926591
 21
78.456860436078372
 31
0.0
  0
LINE
  5
2403
  8
TITLE
 10
330.25119859764533
 20
77.525139849766674
 30
0.0
 11
331.35748892926591
 21
78.631430181372011
 31
0.0
  0
LINE
  5
2404
  8
TITLE
 10
330.0766288523655
 20
77.525139849766674
 30
0.0
 11
331.35748892926591
 21
78.805999926659524
 31
0.0
  0
LINE
  5
2405
  8
TITLE
 10
329.90205910707022
 20
77.525139849766674
 30
0.0
 11
331.20634947462622
 21
78.829430217329431
 31
0.0
  0
LINE
  5
2406
  8
TITLE
 10
328.88901872743008
 20
79.65435488540129
 30
0.0
 11
328.94524034474591
 21
79.710576502716307
 31
0.0
  0
LINE
  5
2407
  8
TITLE
 10
328.57791978262139
 20
78.994116450003744
 30
0.0
 11
329.29437983533347
 21
79.710576502716307
 31
0.0
  0
LINE
  5
2408
  8
TITLE
 10
328.73346925503211
 20
79.324235667709431
 30
0.0
 11
329.11981009003921
 21
79.710576502716307
 31
0.0
  0
LINE
  5
2409
  8
TITLE
 10
329.72748936177601
 20
77.525139849766674
 30
0.0
 11
331.0317797293319
 21
78.829430217329431
 31
0.0
  0
LINE
  5
240A
  8
TITLE
 10
329.55291961648157
 20
77.525139849766674
 30
0.0
 11
330.85720998403758
 21
78.829430217329431
 31
0.0
  0
LINE
  5
240B
  8
TITLE
 10
329.37834987118822
 20
77.525139849766674
 30
0.0
 11
330.68264023875781
 21
78.829430217329431
 31
0.0
  0
LINE
  5
240C
  8
TITLE
 10
329.20378012589379
 20
77.525139849766674
 30
0.0
 11
330.50807049346349
 21
78.829430217329431
 31
0.0
  0
LINE
  5
240D
  8
TITLE
 10
332.297815333416
 20
77.302349896717018
 30
0.0
 11
332.7292918436068
 21
77.733826406909657
 31
0.0
  0
LINE
  5
240E
  8
TITLE
 10
332.297815333416
 20
77.12778015142294
 30
0.0
 11
332.9038615889022
 21
77.733826406909657
 31
0.0
  0
LINE
  5
240F
  8
TITLE
 10
332.297815333416
 20
76.953210406136122
 30
0.0
 11
333.07843133419652
 21
77.733826406909657
 31
0.0
  0
LINE
  5
2410
  8
TITLE
 10
332.297815333416
 20
77.476919642011794
 30
0.0
 11
332.5547220983135
 21
77.733826406909657
 31
0.0
  0
LINE
  5
2411
  8
TITLE
 10
332.297815333416
 20
77.651489387305659
 30
0.0
 11
332.38015235301918
 21
77.733826406909657
 31
0.0
  0
LINE
  5
2412
  8
TITLE
 10
333.76049275645801
 20
79.463306300931421
 30
0.0
 11
334.00776295823749
 21
79.710576502716307
 31
0.0
  0
LINE
  5
2413
  8
TITLE
 10
333.76049275645801
 20
79.6378760462255
 30
0.0
 11
333.83319321294312
 21
79.710576502716307
 31
0.0
  0
LINE
  5
2414
  8
TITLE
 10
333.76049275645801
 20
79.288736555643695
 30
0.0
 11
334.18233270353181
 21
79.710576502716307
 31
0.0
  0
LINE
  5
2415
  8
TITLE
 10
333.76049275645801
 20
78.415887829172092
 30
0.0
 11
335.0551814300033
 21
79.710576502716307
 31
0.0
  0
LINE
  5
2416
  8
TITLE
 10
333.76049275645801
 20
78.590457574467123
 30
0.0
 11
334.88061168470807
 21
79.710576502716307
 31
0.0
  0
LINE
  5
2417
  8
TITLE
 10
333.76049275645801
 20
78.76502731976052
 30
0.0
 11
334.70604193941477
 21
79.710576502716307
 31
0.0
  0
LINE
  5
2418
  8
TITLE
 10
333.76049275645801
 20
78.939597065055068
 30
0.0
 11
334.5314721941204
 21
79.710576502716307
 31
0.0
  0
LINE
  5
2419
  8
TITLE
 10
333.76049275645801
 20
79.114166810349374
 30
0.0
 11
334.35690244882608
 21
79.710576502716307
 31
0.0
  0
LINE
  5
241A
  8
TITLE
 10
333.76049275645801
 20
78.06674833858392
 30
0.0
 11
335.40432092057739
 21
79.710576502716307
 31
0.0
  0
LINE
  5
241B
  8
TITLE
 10
333.76049275645801
 20
78.241318083877559
 30
0.0
 11
335.22975117529768
 21
79.710576502716307
 31
0.0
  0
LINE
  5
241C
  8
TITLE
 10
333.76049275645801
 20
77.892178593296421
 30
0.0
 11
335.43212436394151
 21
79.563810200779471
 31
0.0
  0
LINE
  5
241D
  8
TITLE
 10
326.75980369178802
 20
77.525139849766674
 30
0.0
 11
328.0640940593575
 21
78.829430217329431
 31
0.0
  0
LINE
  5
241E
  8
TITLE
 10
327.1089431823757
 20
77.525139849766674
 30
0.0
 11
328.4132335499462
 21
78.829430217329431
 31
0.0
  0
LINE
  5
241F
  8
TITLE
 10
326.93437343708138
 20
77.525139849766674
 30
0.0
 11
328.23866380465188
 21
78.829430217329431
 31
0.0
  0
LINE
  5
2420
  8
TITLE
 10
326.58523394649359
 20
77.525139849766674
 30
0.0
 11
327.88952431406318
 21
78.829430217329431
 31
0.0
  0
LINE
  5
2421
  8
TITLE
 10
326.41066420121388
 20
77.525139849766674
 30
0.0
 11
327.75507642568772
 21
78.869552074241014
 31
0.0
  0
LINE
  5
2422
  8
TITLE
 10
326.2360944559195
 20
77.525139849766674
 30
0.0
 11
327.75507642568772
 21
79.044121819527604
 31
0.0
  0
LINE
  5
2423
  8
TITLE
 10
326.06152471062438
 20
77.525139849766674
 30
0.0
 11
327.75507642568772
 21
79.218691564822819
 31
0.0
  0
LINE
  5
2424
  8
TITLE
 10
325.88695496533001
 20
77.525139849766674
 30
0.0
 11
327.75507642568772
 21
79.393261310117154
 31
0.0
  0
LINE
  5
2425
  8
TITLE
 10
325.71238522003569
 20
77.525139849766674
 30
0.0
 11
327.75507642568772
 21
79.56783105541102
 31
0.0
  0
LINE
  5
2426
  8
TITLE
 10
326.4150830707531
 20
79.449825917530006
 30
0.0
 11
326.67583365593327
 21
79.710576502716307
 31
0.0
  0
LINE
  5
2427
  8
TITLE
 10
326.4150830707531
 20
79.624395662823659
 30
0.0
 11
326.50126391063901
 21
79.710576502716307
 31
0.0
  0
LINE
  5
2428
  8
TITLE
 10
326.4150830707531
 20
78.926116681653397
 30
0.0
 11
327.1995428918172
 21
79.710576502716307
 31
0.0
  0
LINE
  5
2429
  8
TITLE
 10
326.4150830707531
 20
79.100686426948187
 30
0.0
 11
327.02497314652197
 21
79.710576502716307
 31
0.0
  0
LINE
  5
242A
  8
TITLE
 10
326.4150830707531
 20
79.27525617224228
 30
0.0
 11
326.8504034012276
 21
79.710576502716307
 31
0.0
  0
LINE
  5
242B
  8
TITLE
 10
327.28351292767093
 20
77.525139849766674
 30
0.0
 11
329.46894958062802
 21
79.710576502716307
 31
0.0
  0
LINE
  5
242C
  8
TITLE
 10
327.4580826729653
 20
77.525139849766674
 30
0.0
 11
329.64351932592223
 21
79.710576502716307
 31
0.0
  0
LINE
  5
242D
  8
TITLE
 10
327.42802390441369
 20
77.145941590626293
 30
0.0
 11
329.99265881649728
 21
79.710576502716307
 31
0.0
  0
LINE
  5
242E
  8
TITLE
 10
327.47173629271128
 20
77.364223724211797
 30
0.0
 11
329.8180890712174
 21
79.710576502716307
 31
0.0
  0
LINE
  5
242F
  8
TITLE
 10
327.38431151611712
 20
76.927659457042623
 30
0.0
 11
330.16722856179149
 21
79.710576502716307
 31
0.0
  0
LINE
  5
2430
  8
TITLE
 10
376.50169030723748
 20
74.721533132031013
 30
0.0
 11
378.93401470753088
 21
77.153857532332495
 31
0.0
  0
LINE
  5
2431
  8
TITLE
 10
376.50169030723748
 20
74.896102877325774
 30
0.0
 11
378.7594449622365
 21
77.153857532332495
 31
0.0
  0
LINE
  5
2432
  8
TITLE
 10
376.50169030723748
 20
75.070672622619654
 30
0.0
 11
378.5848752169432
 21
77.153857532332495
 31
0.0
  0
LINE
  5
2433
  8
TITLE
 10
376.50169030723748
 20
75.245242367907636
 30
0.0
 11
378.41030547164797
 21
77.153857532332495
 31
0.0
  0
LINE
  5
2434
  8
TITLE
 10
376.50169030723748
 20
75.419812113201459
 30
0.0
 11
378.2585501112809
 21
77.176671917258545
 31
0.0
  0
LINE
  5
2435
  8
TITLE
 10
375.83297734964248
 20
75.449378136790756
 30
0.0
 11
378.2585501112809
 21
77.87495089842831
 31
0.0
  0
LINE
  5
2436
  8
TITLE
 10
376.18211684023208
 20
75.449378136790756
 30
0.0
 11
378.2585501112809
 21
77.52581140783991
 31
0.0
  0
LINE
  5
2437
  8
TITLE
 10
376.00754709493782
 20
75.449378136790756
 30
0.0
 11
378.2585501112809
 21
77.700381153134686
 31
0.0
  0
LINE
  5
2438
  8
TITLE
 10
376.35668658552629
 20
75.449378136790756
 30
0.0
 11
378.2585501112809
 21
77.351241662552638
 31
0.0
  0
LINE
  5
2439
  8
TITLE
 10
375.65840760436271
 20
75.449378136790756
 30
0.0
 11
378.2585501112809
 21
78.049520643716733
 31
0.0
  0
LINE
  5
243A
  8
TITLE
 10
375.48383785906952
 20
75.449378136790756
 30
0.0
 11
378.2585501112809
 21
78.224090389010371
 31
0.0
  0
LINE
  5
243B
  8
TITLE
 10
376.50169030723748
 20
74.197823896155342
 30
0.0
 11
379.4577239434139
 21
77.153857532332495
 31
0.0
  0
LINE
  5
243C
  8
TITLE
 10
376.50169030723748
 20
74.372393641449634
 30
0.0
 11
379.28315419811952
 21
77.153857532332495
 31
0.0
  0
LINE
  5
243D
  8
TITLE
 10
376.50169030723748
 20
74.546963386743499
 30
0.0
 11
379.10858445282611
 21
77.153857532332495
 31
0.0
  0
LINE
  5
243E
  8
TITLE
 10
375.30926811377401
 20
75.449378136790756
 30
0.0
 11
378.2585501112809
 21
78.398660134304436
 31
0.0
  0
LINE
  5
243F
  8
TITLE
 10
375.13469836848083
 20
75.449378136790756
 30
0.0
 11
378.2585501112809
 21
78.573229879599012
 31
0.0
  0
LINE
  5
2440
  8
TITLE
 10
374.96012862318628
 20
75.449378136790756
 30
0.0
 11
378.2585501112809
 21
78.74779962489265
 31
0.0
  0
LINE
  5
2441
  8
TITLE
 10
374.84522234520767
 20
76.731029821159623
 30
0.0
 11
375.26805005638022
 21
77.153857532332495
 31
0.0
  0
LINE
  5
2442
  8
TITLE
 10
374.84522234520767
 20
76.905599566453702
 30
0.0
 11
375.09348031108487
 21
77.153857532332495
 31
0.0
  0
LINE
  5
2443
  8
TITLE
 10
374.84522234520767
 20
76.207320585276861
 30
0.0
 11
375.79175929226233
 21
77.153857532332495
 31
0.0
  0
LINE
  5
2444
  8
TITLE
 10
374.84522234520767
 20
76.381890330571423
 30
0.0
 11
375.61718954696789
 21
77.153857532332495
 31
0.0
  0
LINE
  5
2445
  8
TITLE
 10
374.84522234520767
 20
76.556460075866198
 30
0.0
 11
375.44261980167369
 21
77.153857532332495
 31
0.0
  0
LINE
  5
2446
  8
TITLE
 10
374.84522234520767
 20
76.032750839982555
 30
0.0
 11
375.96632903755659
 21
77.153857532332495
 31
0.0
  0
LINE
  5
2447
  8
TITLE
 10
374.84522234520767
 20
75.509041604106869
 30
0.0
 11
376.4900382734258
 21
77.153857532332495
 31
0.0
  0
LINE
  5
2448
  8
TITLE
 10
374.84522234520767
 20
75.68361134940163
 30
0.0
 11
376.31546852813062
 21
77.153857532332495
 31
0.0
  0
LINE
  5
2449
  8
TITLE
 10
374.84522234520767
 20
75.858181094688689
 30
0.0
 11
376.14089878283721
 21
77.153857532332495
 31
0.0
  0
LINE
  5
244A
  8
TITLE
 10
378.45152352904358
 20
75.449378136790756
 30
0.0
 11
379.96521422783371
 21
76.963068835582121
 31
0.0
  0
LINE
  5
244B
  8
TITLE
 10
378.27695378374938
 20
75.449378136790756
 30
0.0
 11
379.96521422783371
 21
77.137638580875773
 31
0.0
  0
LINE
  5
244C
  8
TITLE
 10
364.61925609418267
 20
76.804678542413725
 30
0.0
 11
365.82661870851098
 21
78.012041156748865
 31
0.0
  0
LINE
  5
244D
  8
TITLE
 10
364.73249021879752
 20
76.743342921733984
 30
0.0
 11
365.94711650824132
 21
77.957969211184505
 31
0.0
  0
LINE
  5
244E
  8
TITLE
 10
364.50715842044968
 20
76.86715061398148
 30
0.0
 11
365.70775202666482
 21
78.067744220189283
 31
0.0
  0
LINE
  5
244F
  8
TITLE
 10
364.77225087704852
 20
74.86283638176883
 30
0.0
 11
367.39111172962839
 21
77.481697234356702
 31
0.0
  0
LINE
  5
2450
  8
TITLE
 10
364.5976811317542
 20
74.86283638176883
 30
0.0
 11
367.24998339652018
 21
77.515138646534524
 31
0.0
  0
LINE
  5
2451
  8
TITLE
 10
364.42311138645982
 20
74.86283638176883
 30
0.0
 11
367.11099969035968
 21
77.550724685660938
 31
0.0
  0
LINE
  5
2452
  8
TITLE
 10
364.2485416411655
 20
74.86283638176883
 30
0.0
 11
366.9740934517431
 21
77.588388192339806
 31
0.0
  0
LINE
  5
2453
  8
TITLE
 10
364.07397189588568
 20
74.86283638176883
 30
0.0
 11
366.83920283311181
 21
77.628067319009702
 31
0.0
  0
LINE
  5
2454
  8
TITLE
 10
363.89940215059141
 20
74.86283638176883
 30
0.0
 11
366.70627078643878
 21
77.669705017624423
 31
0.0
  0
LINE
  5
2455
  8
TITLE
 10
365.07913755921157
 20
76.566281026272222
 30
0.0
 11
366.3187185725219
 21
77.80586203958228
 31
0.0
  0
LINE
  5
2456
  8
TITLE
 10
365.3161629502037
 20
76.454166926674375
 30
0.0
 11
366.57524461571199
 21
77.713248592191803
 31
0.0
  0
LINE
  5
2457
  8
TITLE
 10
365.1970475481412
 20
76.509621269899725
 30
0.0
 11
366.4460755848113
 21
77.75864930658463
 31
0.0
  0
LINE
  5
2458
  8
TITLE
 10
364.96241757979351
 20
76.624130792148662
 30
0.0
 11
366.19313176819009
 21
77.854844980537791
 31
0.0
  0
LINE
  5
2459
  8
TITLE
 10
364.84687305120582
 20
76.683156008854652
 30
0.0
 11
366.06927640242338
 21
77.90555936008036
 31
0.0
  0
LINE
  5
245A
  8
TITLE
 10
366.18521611005968
 20
76.101231869479093
 30
0.0
 11
367.53445774990092
 21
77.450473509319863
 31
0.0
  0
LINE
  5
245B
  8
TITLE
 10
366.84656000695207
 20
75.889727039905651
 30
0.0
 11
367.9597592920328
 21
77.002926324994192
 31
0.0
  0
LINE
  5
245C
  8
TITLE
 10
366.71139623034202
 20
75.929133008590711
 30
0.0
 11
367.9597592920328
 21
77.177496070288484
 31
0.0
  0
LINE
  5
245D
  8
TITLE
 10
366.57770953661748
 20
75.970016060168291
 30
0.0
 11
367.9597592920328
 21
77.352065815583501
 31
0.0
  0
LINE
  5
245E
  8
TITLE
 10
366.44546948223251
 20
76.012345751077618
 30
0.0
 11
367.82812878506053
 21
77.395005053904939
 31
0.0
  0
LINE
  5
245F
  8
TITLE
 10
366.31464736567159
 20
76.056093379809454
 30
0.0
 11
367.68010109827361
 21
77.421547112411389
 31
0.0
  0
LINE
  5
2460
  8
TITLE
 10
369.1634557359713
 20
76.635495061298343
 30
0.0
 11
370.48392595539741
 21
77.955965280717223
 31
0.0
  0
LINE
  5
2461
  8
TITLE
 10
369.0716782306489
 20
76.718287301270266
 30
0.0
 11
370.30935621010212
 21
77.955965280717223
 31
0.0
  0
LINE
  5
2462
  8
TITLE
 10
369.0716782306489
 20
76.892857046564373
 30
0.0
 11
370.13478646480871
 21
77.955965280717223
 31
0.0
  0
LINE
  5
2463
  8
TITLE
 10
369.3380254812655
 20
76.635495061298343
 30
0.0
 11
370.65849570069167
 21
77.955965280717223
 31
0.0
  0
LINE
  5
2464
  8
TITLE
 10
369.68716497185318
 20
76.635495061298343
 30
0.0
 11
371.00763519126491
 21
77.955965280717223
 31
0.0
  0
LINE
  5
2465
  8
TITLE
 10
369.51259522655982
 20
76.635495061298343
 30
0.0
 11
370.83306544598503
 21
77.955965280717223
 31
0.0
  0
LINE
  5
2466
  8
TITLE
 10
372.47922149484572
 20
76.285296169020953
 30
0.0
 11
374.14989060654813
 21
77.955965280717223
 31
0.0
  0
LINE
  5
2467
  8
TITLE
 10
372.50453658846158
 20
76.485181007916935
 30
0.0
 11
373.97532086125358
 21
77.955965280717223
 31
0.0
  0
LINE
  5
2468
  8
TITLE
 10
372.48028089653428
 20
76.635495061298343
 30
0.0
 11
373.8007511159604
 21
77.955965280717223
 31
0.0
  0
LINE
  5
2469
  8
TITLE
 10
372.3057111512399
 20
76.635495061298343
 30
0.0
 11
373.62618137066602
 21
77.955965280717223
 31
0.0
  0
LINE
  5
246A
  8
TITLE
 10
372.13114140594553
 20
76.635495061298343
 30
0.0
 11
373.4516116253717
 21
77.955965280717223
 31
0.0
  0
LINE
  5
246B
  8
TITLE
 10
371.95657166065121
 20
76.635495061298343
 30
0.0
 11
373.27704188007738
 21
77.955965280717223
 31
0.0
  0
LINE
  5
246C
  8
TITLE
 10
371.78200191537138
 20
76.635495061298343
 30
0.0
 11
373.102472134783
 21
77.955965280717223
 31
0.0
  0
LINE
  5
246D
  8
TITLE
 10
372.31382871131791
 20
75.596194149603647
 30
0.0
 11
374.50541593058551
 21
77.787781368870341
 31
0.0
  0
LINE
  5
246E
  8
TITLE
 10
372.21017950776701
 20
75.317975200771812
 30
0.0
 11
374.50541576016798
 21
77.613211453173804
 31
0.0
  0
LINE
  5
246F
  8
TITLE
 10
371.79654827661483
 20
74.555204479031786
 30
0.0
 11
374.48992209614153
 21
77.248578298559764
 31
0.0
  0
LINE
  5
2470
  8
TITLE
 10
372.05813558917617
 20
74.99136153688687
 30
0.0
 11
374.50040818511212
 21
77.433634132830321
 31
0.0
  0
LINE
  5
2471
  8
TITLE
 10
372.3879565362995
 20
75.844891719886633
 30
0.0
 11
374.49903009713762
 21
77.955965280717223
 31
0.0
  0
LINE
  5
2472
  8
TITLE
 10
372.44141720944663
 20
76.072922138327627
 30
0.0
 11
374.32446035184341
 21
77.955965280717223
 31
0.0
  0
LINE
  5
2473
  8
TITLE
 10
371.60743217007712
 20
76.635495061298343
 30
0.0
 11
372.92790238948868
 21
77.955965280717223
 31
0.0
  0
LINE
  5
2474
  8
TITLE
 10
371.4328624247828
 20
76.635495061298343
 30
0.0
 11
372.83035453108829
 21
78.032987167595579
 31
0.0
  0
LINE
  5
2475
  8
TITLE
 10
371.25829267948848
 20
76.635495061298343
 30
0.0
 11
372.83035453108829
 21
78.207556912890141
 31
0.0
  0
LINE
  5
2476
  8
TITLE
 10
371.08372293419433
 20
76.635495061298343
 30
0.0
 11
372.83035453108829
 21
78.382126658177626
 31
0.0
  0
LINE
  5
2477
  8
TITLE
 10
370.90915318889978
 20
76.635495061298343
 30
0.0
 11
372.83035453108829
 21
78.556696403471733
 31
0.0
  0
LINE
  5
2478
  8
TITLE
 10
370.73458344360552
 20
76.635495061298343
 30
0.0
 11
372.83035453108829
 21
78.731266148766053
 31
0.0
  0
LINE
  5
2479
  8
TITLE
 10
370.56001369831108
 20
76.635495061298343
 30
0.0
 11
372.83035453108829
 21
78.905835894060615
 31
0.0
  0
LINE
  5
247A
  8
TITLE
 10
370.38544395301687
 20
76.635495061298343
 30
0.0
 11
372.83035453108829
 21
79.080405639354453
 31
0.0
  0
LINE
  5
247B
  8
TITLE
 10
370.2108742077225
 20
76.635495061298343
 30
0.0
 11
372.83035453108829
 21
79.25497538464947
 31
0.0
  0
LINE
  5
247C
  8
TITLE
 10
370.03630446244279
 20
76.635495061298343
 30
0.0
 11
372.83035453108829
 21
79.429545129942881
 31
0.0
  0
LINE
  5
247D
  8
TITLE
 10
369.86173471714761
 20
76.635495061298343
 30
0.0
 11
372.83035453108829
 21
79.604114875237414
 31
0.0
  0
LINE
  5
247E
  8
TITLE
 10
369.0716782306489
 20
71.655764687771125
 30
0.0
 11
374.47339150780232
 21
77.057477964917098
 31
0.0
  0
LINE
  5
247F
  8
TITLE
 10
376.50169030723748
 20
74.023254150861476
 30
0.0
 11
379.63229368870822
 21
77.153857532332495
 31
0.0
  0
LINE
  5
2480
  8
TITLE
 10
376.50169030723748
 20
73.848684405566701
 30
0.0
 11
379.80686343398878
 21
77.153857532332495
 31
0.0
  0
LINE
  5
2481
  8
TITLE
 10
351.43274897107949
 20
76.361762825693631
 30
0.0
 11
353.3265282076481
 21
78.255542062262293
 31
0.0
  0
LINE
  5
2482
  8
TITLE
 10
351.43274897107949
 20
76.536332570987696
 30
0.0
 11
353.15195846235372
 21
78.255542062262293
 31
0.0
  0
LINE
  5
2483
  8
TITLE
 10
351.43274897107949
 20
76.710902316281789
 30
0.0
 11
353.10438011154372
 21
78.382533456746373
 31
0.0
  0
LINE
  5
2484
  8
TITLE
 10
351.39418557146661
 20
76.846908661963866
 30
0.0
 11
353.10438011154372
 21
78.557103202041631
 31
0.0
  0
LINE
  5
2485
  8
TITLE
 10
351.21961582617217
 20
76.846908661963866
 30
0.0
 11
353.10438011154372
 21
78.731672947335014
 31
0.0
  0
LINE
  5
2486
  8
TITLE
 10
351.045046080877
 20
76.846908661963866
 30
0.0
 11
353.10438011154372
 21
78.906242692629561
 31
0.0
  0
LINE
  5
2487
  8
TITLE
 10
350.8704763355837
 20
76.846908661963866
 30
0.0
 11
353.10438011154372
 21
79.080812437923896
 31
0.0
  0
LINE
  5
2488
  8
TITLE
 10
350.69590659030291
 20
76.846908661963866
 30
0.0
 11
353.10438011154372
 21
79.255382183218202
 31
0.0
  0
LINE
  5
2489
  8
TITLE
 10
351.43274897107949
 20
76.187193080399311
 30
0.0
 11
353.50109795294162
 21
78.255542062262293
 31
0.0
  0
LINE
  5
248A
  8
TITLE
 10
351.4349762159909
 20
75.31657159884638
 30
0.0
 11
354.37394667939941
 21
78.255542062262293
 31
0.0
  0
LINE
  5
248B
  8
TITLE
 10
351.43274897107949
 20
75.838053589817733
 30
0.0
 11
353.85023744353111
 21
78.255542062262293
 31
0.0
  0
LINE
  5
248C
  8
TITLE
 10
351.43274897107949
 20
76.012623335112266
 30
0.0
 11
353.67566769823679
 21
78.255542062262293
 31
0.0
  0
LINE
  5
248D
  8
TITLE
 10
351.43274897107949
 20
75.488914099236581
 30
0.0
 11
354.1993769341052
 21
78.255542062262293
 31
0.0
  0
LINE
  5
248E
  8
TITLE
 10
351.43274897107949
 20
75.663483844523853
 30
0.0
 11
354.02480718882617
 21
78.255542062262293
 31
0.0
  0
LINE
  5
248F
  8
TITLE
 10
354.71101073202948
 20
76.846908661963866
 30
0.0
 11
355.71630391446621
 21
77.852201844400724
 31
0.0
  0
LINE
  5
2490
  8
TITLE
 10
354.53644098673522
 20
76.846908661963866
 30
0.0
 11
355.71630391446621
 21
78.026771589687542
 31
0.0
  0
LINE
  5
2491
  8
TITLE
 10
355.06015022261721
 20
76.846908661963866
 30
0.0
 11
355.71630391446621
 21
77.503062353812297
 31
0.0
  0
LINE
  5
2492
  8
TITLE
 10
354.88558047732289
 20
76.846908661963866
 30
0.0
 11
355.71630391446621
 21
77.677632099105949
 31
0.0
  0
LINE
  5
2493
  8
TITLE
 10
355.58385945850023
 20
76.846908661963866
 30
0.0
 11
355.71630391446621
 21
76.979353117929563
 31
0.0
  0
LINE
  5
2494
  8
TITLE
 10
355.40928971320602
 20
76.846908661963866
 30
0.0
 11
355.71630391446621
 21
77.15392286322367
 31
0.0
  0
LINE
  5
2495
  8
TITLE
 10
355.23471996791159
 20
76.846908661963866
 30
0.0
 11
355.71630391446621
 21
77.328492608518445
 31
0.0
  0
LINE
  5
2496
  8
TITLE
 10
354.36187124145448
 20
76.846908661963866
 30
0.0
 11
355.71630391446621
 21
78.201341334982772
 31
0.0
  0
LINE
  5
2497
  8
TITLE
 10
354.18730149616118
 20
76.846908661963866
 30
0.0
 11
355.59593489645982
 21
78.255542062262293
 31
0.0
  0
LINE
  5
2498
  8
TITLE
 10
354.01273175086578
 20
76.846908661963866
 30
0.0
 11
355.4213651511655
 21
78.255542062262293
 31
0.0
  0
LINE
  5
2499
  8
TITLE
 10
353.83816200557158
 20
76.846908661963866
 30
0.0
 11
355.24679540587118
 21
78.255542062262293
 31
0.0
  0
LINE
  5
249A
  8
TITLE
 10
353.66359226027822
 20
76.846908661963866
 30
0.0
 11
355.07222566057681
 21
78.255542062262293
 31
0.0
  0
LINE
  5
249B
  8
TITLE
 10
353.4890225149839
 20
76.846908661963866
 30
0.0
 11
354.89765591528248
 21
78.255542062262293
 31
0.0
  0
LINE
  5
249C
  8
TITLE
 10
353.31445276968873
 20
76.846908661963866
 30
0.0
 11
354.72308616998811
 21
78.255542062262293
 31
0.0
  0
LINE
  5
249D
  8
TITLE
 10
353.13988302439418
 20
76.846908661963866
 30
0.0
 11
354.54851642469367
 21
78.255542062262293
 31
0.0
  0
LINE
  5
249E
  8
TITLE
 10
357.4686236426196
 20
75.763987176100244
 30
0.0
 11
361.41521296922838
 21
79.710576502716307
 31
0.0
  0
LINE
  5
249F
  8
TITLE
 10
356.84034200056522
 20
76.183124005805652
 30
0.0
 11
358.45195088678878
 21
77.794732892029714
 31
0.0
  0
LINE
  5
24A0
  8
TITLE
 10
356.84034200056522
 20
76.357693751099305
 30
0.0
 11
358.18106441164758
 21
77.698416162188764
 31
0.0
  0
LINE
  5
24A1
  8
TITLE
 10
356.84034200056522
 20
76.532263496393625
 30
0.0
 11
357.92547720380378
 21
77.617398699632986
 31
0.0
  0
LINE
  5
24A2
  8
TITLE
 10
356.84034200056522
 20
76.706833241688187
 30
0.0
 11
357.68247696323851
 21
77.548968204361472
 31
0.0
  0
LINE
  5
24A3
  8
TITLE
 10
356.84034200056522
 20
76.881402986983176
 30
0.0
 11
357.45009944657431
 21
77.491160432992501
 31
0.0
  0
LINE
  5
24A4
  8
TITLE
 10
356.84034200056522
 20
76.008554260511815
 30
0.0
 11
358.7420727891722
 21
77.910285049117874
 31
0.0
  0
LINE
  5
24A5
  8
TITLE
 10
357.24390350014352
 20
75.713836778918676
 30
0.0
 11
360.3428757924529
 21
78.81280907122823
 31
0.0
  0
LINE
  5
24A6
  8
TITLE
 10
357.0254022512654
 20
75.66990527532765
 30
0.0
 11
359.8173223587583
 21
78.461825382820507
 31
0.0
  0
LINE
  5
24A7
  8
TITLE
 10
356.84034200056522
 20
75.659414769921554
 30
0.0
 11
359.40887682017723
 21
78.227949589540216
 31
0.0
  0
LINE
  5
24A8
  8
TITLE
 10
356.84034200056522
 20
75.833984515216116
 30
0.0
 11
359.05754621517548
 21
78.051188729834152
 31
0.0
  0
LINE
  5
24A9
  8
TITLE
 10
348.4264999014913
 20
76.846908661963866
 30
0.0
 11
349.83513330179079
 21
78.255542062262293
 31
0.0
  0
LINE
  5
24AA
  8
TITLE
 10
348.25193015619692
 20
76.846908661963866
 30
0.0
 11
349.66056355649653
 21
78.255542062262293
 31
0.0
  0
LINE
  5
24AB
  8
TITLE
 10
348.0773604109026
 20
76.846908661963866
 30
0.0
 11
349.48599381120221
 21
78.255542062262293
 31
0.0
  0
LINE
  5
24AC
  8
TITLE
 10
347.90279066560822
 20
76.846908661963866
 30
0.0
 11
349.31142406590789
 21
78.255542062262293
 31
0.0
  0
LINE
  5
24AD
  8
TITLE
 10
347.72822092031402
 20
76.846908661963866
 30
0.0
 11
349.13685432061362
 21
78.255542062262293
 31
0.0
  0
LINE
  5
24AE
  8
TITLE
 10
347.5536511750197
 20
76.846908661963866
 30
0.0
 11
348.9622845753201
 21
78.255542062262293
 31
0.0
  0
LINE
  5
24AF
  8
TITLE
 10
347.37908142972532
 20
76.846908661963866
 30
0.0
 11
348.78771483002492
 21
78.255542062262293
 31
0.0
  0
LINE
  5
24B0
  8
TITLE
 10
347.20451168443122
 20
76.846908661963866
 30
0.0
 11
348.61314508474521
 21
78.255542062262293
 31
0.0
  0
LINE
  5
24B1
  8
TITLE
 10
347.02994193915117
 20
76.846908661963866
 30
0.0
 11
348.43857533944993
 21
78.255542062262293
 31
0.0
  0
LINE
  5
24B2
  8
TITLE
 10
346.50623270326832
 20
76.846908661963866
 30
0.0
 11
347.91486610356787
 21
78.255542062262293
 31
0.0
  0
LINE
  5
24B3
  8
TITLE
 10
346.331662957974
 20
76.846908661963866
 30
0.0
 11
347.7402963582735
 21
78.255542062262293
 31
0.0
  0
LINE
  5
24B4
  8
TITLE
 10
346.85537219385702
 20
76.846908661963866
 30
0.0
 11
348.26400559415652
 21
78.255542062262293
 31
0.0
  0
LINE
  5
24B5
  8
TITLE
 10
346.68080244856247
 20
76.846908661963866
 30
0.0
 11
348.08943584886219
 21
78.255542062262293
 31
0.0
  0
LINE
  5
24B6
  8
TITLE
 10
344.76053525033967
 20
76.846908661963866
 30
0.0
 11
346.16916865063922
 21
78.255542062262293
 31
0.0
  0
LINE
  5
24B7
  8
TITLE
 10
344.58950772008768
 20
76.8504508770054
 30
0.0
 11
345.99459890534479
 21
78.255542062262293
 31
0.0
  0
LINE
  5
24B8
  8
TITLE
 10
346.15709321267968
 20
76.846908661963866
 30
0.0
 11
347.56572661297918
 21
78.255542062262293
 31
0.0
  0
LINE
  5
24B9
  8
TITLE
 10
345.98252346738542
 20
76.846908661963866
 30
0.0
 11
347.3911568676848
 21
78.255542062262293
 31
0.0
  0
LINE
  5
24BA
  8
TITLE
 10
345.80795372209087
 20
76.846908661963866
 30
0.0
 11
347.21658712239059
 21
78.255542062262293
 31
0.0
  0
LINE
  5
24BB
  8
TITLE
 10
345.63338397679672
 20
76.846908661963866
 30
0.0
 11
347.04201737709627
 21
78.255542062262293
 31
0.0
  0
LINE
  5
24BC
  8
TITLE
 10
345.4588142315024
 20
76.846908661963866
 30
0.0
 11
346.86744763181559
 21
78.255542062262293
 31
0.0
  0
LINE
  5
24BD
  8
TITLE
 10
345.28424448622269
 20
76.846908661963866
 30
0.0
 11
346.69287788652122
 21
78.255542062262293
 31
0.0
  0
LINE
  5
24BE
  8
TITLE
 10
345.10967474092843
 20
76.846908661963866
 30
0.0
 11
346.51830814122798
 21
78.255542062262293
 31
0.0
  0
LINE
  5
24BF
  8
TITLE
 10
344.93510499563399
 20
76.846908661963866
 30
0.0
 11
346.34373839593349
 21
78.255542062262293
 31
0.0
  0
LINE
  5
24C0
  8
TITLE
 10
349.12477888265403
 20
76.846908661963866
 30
0.0
 11
350.53341228296807
 21
78.255542062262293
 31
0.0
  0
LINE
  5
24C1
  8
TITLE
 10
348.95020913735971
 20
76.846908661963866
 30
0.0
 11
350.35884253767381
 21
78.255542062262293
 31
0.0
  0
LINE
  5
24C2
  8
TITLE
 10
348.77563939208
 20
76.846908661963866
 30
0.0
 11
350.18427279237949
 21
78.255542062262293
 31
0.0
  0
LINE
  5
24C3
  8
TITLE
 10
348.60106964678567
 20
76.846908661963866
 30
0.0
 11
350.00970304708522
 21
78.255542062262293
 31
0.0
  0
LINE
  5
24C4
  8
TITLE
 10
350.52133684500848
 20
76.846908661963866
 30
0.0
 11
353.10438011154372
 21
79.429951928505702
 31
0.0
  0
LINE
  5
24C5
  8
TITLE
 10
350.34676709971433
 20
76.846908661963866
 30
0.0
 11
353.10438011154372
 21
79.604521673799326
 31
0.0
  0
LINE
  5
24C6
  8
TITLE
 10
350.17219735442001
 20
76.846908661963866
 30
0.0
 11
353.03586519517381
 21
79.710576502716307
 31
0.0
  0
LINE
  5
24C7
  8
TITLE
 10
349.82305786383131
 20
76.846908661963866
 30
0.0
 11
351.23169126413183
 21
78.255542062262293
 31
0.0
  0
LINE
  5
24C8
  8
TITLE
 10
349.64848811853687
 20
76.846908661963866
 30
0.0
 11
351.05712151883648
 21
78.255542062262293
 31
0.0
  0
LINE
  5
24C9
  8
TITLE
 10
349.47391837324273
 20
76.846908661963866
 30
0.0
 11
350.88255177354227
 21
78.255542062262293
 31
0.0
  0
LINE
  5
24CA
  8
TITLE
 10
349.2993486279484
 20
76.846908661963866
 30
0.0
 11
350.7079820282479
 21
78.255542062262293
 31
0.0
  0
LINE
  5
24CB
  8
TITLE
 10
349.9976276091266
 20
76.846908661963866
 30
0.0
 11
351.40626100942518
 21
78.255542062262293
 31
0.0
  0
LINE
  5
24CC
  8
TITLE
 10
359.61780906966118
 20
76.516614640808939
 30
0.0
 11
362.81177093156839
 21
79.710576502716307
 31
0.0
  0
LINE
  5
24CD
  8
TITLE
 10
360.34991322452612
 20
76.899579305085325
 30
0.0
 11
363.16091042215709
 21
79.710576502716307
 31
0.0
  0
LINE
  5
24CE
  8
TITLE
 10
359.96506861688891
 20
76.689304442727703
 30
0.0
 11
362.98634067686271
 21
79.710576502716307
 31
0.0
  0
LINE
  5
24CF
  8
TITLE
 10
357.93952724415982
 20
75.885751287066782
 30
0.0
 11
361.76435245981691
 21
79.710576502716307
 31
0.0
  0
LINE
  5
24D0
  8
TITLE
 10
357.70022926341238
 20
75.82102305161402
 30
0.0
 11
361.5897827145227
 21
79.710576502716307
 31
0.0
  0
LINE
  5
24D1
  8
TITLE
 10
358.61527264440701
 20
75.863217706143814
 30
0.0
 11
362.46263144097969
 21
79.710576502716307
 31
0.0
  0
LINE
  5
24D2
  8
TITLE
 10
358.61527264440701
 20
76.037787451430404
 30
0.0
 11
362.28806169569918
 21
79.710576502716307
 31
0.0
  0
LINE
  5
24D3
  8
TITLE
 10
358.4454229957974
 20
76.042507548115736
 30
0.0
 11
362.1134919504056
 21
79.710576502716307
 31
0.0
  0
LINE
  5
24D4
  8
TITLE
 10
358.18751021799932
 20
75.95916451560494
 30
0.0
 11
361.93892220511123
 21
79.710576502716307
 31
0.0
  0
LINE
  5
24D5
  8
TITLE
 10
358.61527264440701
 20
75.688647960849053
 30
0.0
 11
362.63720118627401
 21
79.710576502716307
 31
0.0
  0
LINE
  5
24D6
  8
TITLE
 10
337.33683539989488
 20
76.231428877939152
 30
0.0
 11
339.36094907588182
 21
78.25554255393331
 31
0.0
  0
LINE
  5
24D7
  8
TITLE
 10
336.84256335762967
 20
76.260866071556819
 30
0.0
 11
338.8372398399988
 21
78.25554255393331
 31
0.0
  0
LINE
  5
24D8
  8
TITLE
 10
336.84256335762967
 20
76.43543581685185
 30
0.0
 11
338.8516901916783
 21
78.444562650906377
 31
0.0
  0
LINE
  5
24D9
  8
TITLE
 10
336.84256335762967
 20
76.610005562145474
 30
0.0
 11
338.87218754539208
 21
78.639629749907499
 31
0.0
  0
LINE
  5
24DA
  8
TITLE
 10
336.84256335762967
 20
76.78457530743276
 30
0.0
 11
338.87978303866657
 21
78.821794988476753
 31
0.0
  0
LINE
  5
24DB
  8
TITLE
 10
337.00238822027501
 20
76.071551443627399
 30
0.0
 11
339.1863793305883
 21
78.25554255393331
 31
0.0
  0
LINE
  5
24DC
  8
TITLE
 10
336.84256335762967
 20
76.0862963262623
 30
0.0
 11
339.01180958529397
 21
78.25554255393331
 31
0.0
  0
LINE
  5
24DD
  8
TITLE
 10
339.50672605692671
 20
76.3064825914539
 30
0.0
 11
341.45578601940002
 21
78.25554255393331
 31
0.0
  0
LINE
  5
24DE
  8
TITLE
 10
339.50672605692671
 20
76.48105233674822
 30
0.0
 11
341.28121627410559
 21
78.25554255393331
 31
0.0
  0
LINE
  5
24DF
  8
TITLE
 10
339.50672605692671
 20
76.655622082042555
 30
0.0
 11
341.12611876803572
 21
78.275014793151499
 31
0.0
  0
LINE
  5
24E0
  8
TITLE
 10
339.50672605692671
 20
76.830191827336421
 30
0.0
 11
341.12611876803572
 21
78.449584538445393
 31
0.0
  0
LINE
  5
24E1
  8
TITLE
 10
339.50672605692671
 20
76.131912846158684
 30
0.0
 11
341.63035576469338
 21
78.25554255393331
 31
0.0
  0
LINE
  5
24E2
  8
TITLE
 10
339.50672605692671
 20
75.608203610290502
 30
0.0
 11
342.15406500056179
 21
78.25554255393331
 31
0.0
  0
LINE
  5
24E3
  8
TITLE
 10
339.50672605692671
 20
75.782773355577547
 30
0.0
 11
341.97949525528202
 21
78.25554255393331
 31
0.0
  0
LINE
  5
24E4
  8
TITLE
 10
339.50672605692671
 20
75.957343100871853
 30
0.0
 11
341.8049255099877
 21
78.25554255393331
 31
0.0
  0
LINE
  5
24E5
  8
TITLE
 10
338.41576364317552
 20
74.342671451244541
 30
0.0
 11
341.12611876803572
 21
77.053026576105353
 31
0.0
  0
LINE
  5
24E6
  8
TITLE
 10
358.61527264440701
 20
74.990368979671715
 30
0.0
 11
360.05185057378372
 21
76.426946909048866
 31
0.0
  0
LINE
  5
24E7
  8
TITLE
 10
358.61527264440701
 20
75.164938724966291
 30
0.0
 11
359.87728082848918
 21
76.426946909048866
 31
0.0
  0
LINE
  5
24E8
  8
TITLE
 10
358.61527264440701
 20
75.33950847026037
 30
0.0
 11
359.70271108319412
 21
76.426946909048866
 31
0.0
  0
LINE
  5
24E9
  8
TITLE
 10
358.61527264440701
 20
75.514078215554704
 30
0.0
 11
359.52814133790082
 21
76.426946909048866
 31
0.0
  0
LINE
  5
24EA
  8
TITLE
 10
357.79246424228592
 20
68.581328728176459
 30
0.0
 11
360.78784311391428
 21
71.576707599804877
 31
0.0
  0
LINE
  5
24EB
  8
TITLE
 10
357.61789449699148
 20
68.581328728176459
 30
0.0
 11
360.8526335216211
 21
71.816067752805566
 31
0.0
  0
LINE
  5
24EC
  8
TITLE
 10
357.44332475169722
 20
68.581328728176459
 30
0.0
 11
360.90042469566367
 21
72.038428672143482
 31
0.0
  0
LINE
  5
24ED
  8
TITLE
 10
357.41458410285941
 20
68.727157824632968
 30
0.0
 11
360.93480440605072
 21
72.247378127824049
 31
0.0
  0
LINE
  5
24EE
  8
TITLE
 10
357.41458410285941
 20
68.901727569920467
 30
0.0
 11
360.95818252970457
 21
72.44532599675766
 31
0.0
  0
LINE
  5
24EF
  8
TITLE
 10
357.41569957216512
 20
72.568807690369795
 30
0.0
 11
358.82339904671147
 21
73.976507164923547
 31
0.0
  0
LINE
  5
24F0
  8
TITLE
 10
357.2411298268708
 20
72.568807690369795
 30
0.0
 11
358.64882930141721
 21
73.976507164923547
 31
0.0
  0
LINE
  5
24F1
  8
TITLE
 10
357.59026931745939
 20
72.568807690369795
 30
0.0
 11
358.99796879200591
 21
73.976507164923547
 31
0.0
  0
LINE
  5
24F2
  8
TITLE
 10
357.93940880803439
 20
72.568807690369795
 30
0.0
 11
359.3471082825946
 21
73.976507164923547
 31
0.0
  0
LINE
  5
24F3
  8
TITLE
 10
357.76483906273921
 20
72.568807690369795
 30
0.0
 11
359.17253853730028
 21
73.976507164923547
 31
0.0
  0
LINE
  5
24F4
  8
TITLE
 10
357.96703398758018
 20
68.581328728176459
 30
0.0
 11
360.700270220118
 21
71.314564960713355
 31
0.0
  0
LINE
  5
24F5
  8
TITLE
 10
358.46311804391638
 20
72.568807690369795
 30
0.0
 11
359.8708175184629
 21
73.976507164923547
 31
0.0
  0
LINE
  5
24F6
  8
TITLE
 10
358.28854829862212
 20
72.568807690369795
 30
0.0
 11
359.69624777316949
 21
73.976507164923547
 31
0.0
  0
LINE
  5
24F7
  8
TITLE
 10
358.1139785533278
 20
72.568807690369795
 30
0.0
 11
359.52167802787432
 21
73.976507164923547
 31
0.0
  0
LINE
  5
24F8
  8
TITLE
 10
358.49074322346308
 20
68.581328728176459
 30
0.0
 11
360.07516082567048
 21
70.165746330384763
 31
0.0
  0
LINE
  5
24F9
  8
TITLE
 10
358.31617347816967
 20
68.581328728176459
 30
0.0
 11
360.40146474052648
 21
70.666619990540966
 31
0.0
  0
LINE
  5
24FA
  8
TITLE
 10
358.1416037328745
 20
68.581328728176459
 30
0.0
 11
360.57938738431579
 21
71.019112379618264
 31
0.0
  0
LINE
  5
24FB
  8
TITLE
 10
357.41458410285941
 20
69.076297315214333
 30
0.0
 11
362.3147939525698
 21
73.976507164923547
 31
0.0
  0
LINE
  5
24FC
  8
TITLE
 10
357.41458410285941
 20
69.250867060501818
 30
0.0
 11
362.14022420727542
 21
73.976507164923547
 31
0.0
  0
LINE
  5
24FD
  8
TITLE
 10
357.41458410285941
 20
69.425436805795471
 30
0.0
 11
361.96565446198019
 21
73.976507164923547
 31
0.0
  0
LINE
  5
24FE
  8
TITLE
 10
357.41458410285941
 20
69.600006551089791
 30
0.0
 11
361.79108471668582
 21
73.976507164923547
 31
0.0
  0
LINE
  5
24FF
  8
TITLE
 10
347.20143199002808
 20
72.130445844642949
 30
0.0
 11
348.71634784242821
 21
73.645361697041821
 31
0.0
  0
LINE
  5
2500
  8
TITLE
 10
347.20143199002808
 20
72.305015589937497
 30
0.0
 11
348.71634784242821
 21
73.819931442336383
 31
0.0
  0
LINE
  5
2501
  8
TITLE
 10
346.36853677803362
 20
68.679004453247444
 30
0.0
 11
348.71634784242821
 21
71.026815517648856
 31
0.0
  0
LINE
  5
2502
  8
TITLE
 10
347.5643414904107
 20
68.827390693873895
 30
0.0
 11
349.57621658549402
 21
70.839265788956936
 31
0.0
  0
LINE
  5
2503
  8
TITLE
 10
347.35958276905512
 20
68.797201717812399
 30
0.0
 11
349.35845168349272
 21
70.796070632250121
 31
0.0
  0
LINE
  5
2504
  8
TITLE
 10
347.1571133142516
 20
68.769302008295654
 30
0.0
 11
349.14280435522051
 21
70.754993049271661
 31
0.0
  0
LINE
  5
2505
  8
TITLE
 10
346.95684957418518
 20
68.743608013531002
 30
0.0
 11
348.92920527681332
 21
70.715963716158299
 31
0.0
  0
LINE
  5
2506
  8
TITLE
 10
346.75871350189573
 20
68.720041686521199
 30
0.0
 11
348.71758915405189
 21
70.678917338692585
 31
0.0
  0
LINE
  5
2507
  8
TITLE
 10
346.56263205935562
 20
68.698529989290137
 30
0.0
 11
348.71634784242821
 21
70.852245772361812
 31
0.0
  0
LINE
  5
2508
  8
TITLE
 10
347.20143199002808
 20
71.781306354061599
 30
0.0
 11
348.71634784242821
 21
73.296222206452953
 31
0.0
  0
LINE
  5
2509
  8
TITLE
 10
347.20143199002808
 20
71.955876099355237
 30
0.0
 11
348.71634784242821
 21
73.470791951747501
 31
0.0
  0
LINE
  5
250A
  8
TITLE
 10
347.20143199002808
 20
70.559318137008404
 30
0.0
 11
348.71634784242821
 21
72.074233989406821
 31
0.0
  0
LINE
  5
250B
  8
TITLE
 10
347.20143199002808
 20
70.733887882302952
 30
0.0
 11
348.71634784242821
 21
72.248803734701383
 31
0.0
  0
LINE
  5
250C
  8
TITLE
 10
347.20143199002808
 20
70.908457627597045
 30
0.0
 11
348.71634784242821
 21
72.423373479996371
 31
0.0
  0
LINE
  5
250D
  8
TITLE
 10
347.20143199002808
 20
71.08302737289182
 30
0.0
 11
348.71634784242821
 21
72.59794322529045
 31
0.0
  0
LINE
  5
250E
  8
TITLE
 10
347.20143199002808
 20
71.257597118185686
 30
0.0
 11
348.71634784242821
 21
72.772512970577523
 31
0.0
  0
LINE
  5
250F
  8
TITLE
 10
347.20143199002808
 20
71.432166863480234
 30
0.0
 11
348.71634784242821
 21
72.947082715871375
 31
0.0
  0
LINE
  5
2510
  8
TITLE
 10
347.20143199002808
 20
71.606736608767278
 30
0.0
 11
348.71634784242821
 21
73.121652461165922
 31
0.0
  0
LINE
  5
2511
  8
TITLE
 10
346.17636336778571
 20
68.661400788293349
 30
0.0
 11
348.71634784242821
 21
71.201385262942495
 31
0.0
  0
LINE
  5
2512
  8
TITLE
 10
345.98605136809869
 20
68.645658533916276
 30
0.0
 11
348.71634784242821
 21
71.375955008230221
 31
0.0
  0
LINE
  5
2513
  8
TITLE
 10
345.79754383599271
 20
68.631720747104069
 30
0.0
 11
348.71634784242821
 21
71.550524753524087
 31
0.0
  0
LINE
  5
2514
  8
TITLE
 10
345.61078706600341
 20
68.61953372239509
 30
0.0
 11
348.71634784242821
 21
71.725094498818635
 31
0.0
  0
LINE
  5
2515
  8
TITLE
 10
345.42573033834202
 20
68.609046740034728
 30
0.0
 11
348.71634784242821
 21
71.89966424411341
 31
0.0
  0
LINE
  5
2516
  8
TITLE
 10
347.20143199002808
 20
72.654155080526365
 30
0.0
 11
349.98555192533519
 21
75.438275015832673
 31
0.0
  0
LINE
  5
2517
  8
TITLE
 10
347.20143199002808
 20
72.479585335231803
 30
0.0
 11
350.16012167062848
 21
75.438275015832673
 31
0.0
  0
LINE
  5
2518
  8
TITLE
 10
347.20143199002808
 20
72.828724825819791
 30
0.0
 11
349.81098218004081
 21
75.438275015832673
 31
0.0
  0
LINE
  5
2519
  8
TITLE
 10
347.20143199002808
 20
73.003294571114338
 30
0.0
 11
349.63641243474569
 21
75.438275015832673
 31
0.0
  0
LINE
  5
251A
  8
TITLE
 10
347.20143199002808
 20
73.177864316408872
 30
0.0
 11
349.46184268945228
 21
75.438275015832673
 31
0.0
  0
LINE
  5
251B
  8
TITLE
 10
347.20143199002808
 20
73.352434061696584
 30
0.0
 11
349.28727294415779
 21
75.438275015832673
 31
0.0
  0
LINE
  5
251C
  8
TITLE
 10
347.20143199002808
 20
73.52700380699045
 30
0.0
 11
349.11270319886353
 21
75.438275015832673
 31
0.0
  0
LINE
  5
251D
  8
TITLE
 10
347.20143199002808
 20
73.701573552284799
 30
0.0
 11
348.93813345356921
 21
75.438275015832673
 31
0.0
  0
LINE
  5
251E
  8
TITLE
 10
347.20143199002808
 20
73.876143297571844
 30
0.0
 11
348.76356370828847
 21
75.438275015832673
 31
0.0
  0
LINE
  5
251F
  8
TITLE
 10
347.0760172841201
 20
73.925298336958093
 30
0.0
 11
348.58899396299518
 21
75.438275015832673
 31
0.0
  0
LINE
  5
2520
  8
TITLE
 10
346.37773830294202
 20
73.925298336958093
 30
0.0
 11
347.89071498181693
 21
75.438275015832673
 31
0.0
  0
LINE
  5
2521
  8
TITLE
 10
346.72687779353151
 20
73.925298336958093
 30
0.0
 11
348.23985447240648
 21
75.438275015832673
 31
0.0
  0
LINE
  5
2522
  8
TITLE
 10
346.55230804823719
 20
73.925298336958093
 30
0.0
 11
348.06528472711221
 21
75.438275015832673
 31
0.0
  0
LINE
  5
2523
  8
TITLE
 10
346.2031685576485
 20
73.925298336958093
 30
0.0
 11
347.71614523652352
 21
75.438275015832673
 31
0.0
  0
LINE
  5
2524
  8
TITLE
 10
346.90144753882578
 20
73.925298336958093
 30
0.0
 11
348.41442421769989
 21
75.438275015832673
 31
0.0
  0
LINE
  5
2525
  8
TITLE
 10
342.25629803962062
 20
74.342671451244541
 30
0.0
 11
343.45624512861559
 21
75.542618540239346
 31
0.0
  0
LINE
  5
2526
  8
TITLE
 10
342.08172829432709
 20
74.342671451244541
 30
0.0
 11
343.28167538332133
 21
75.542618540239346
 31
0.0
  0
LINE
  5
2527
  8
TITLE
 10
342.43086778491488
 20
74.342671451244541
 30
0.0
 11
343.6308148738953
 21
75.542618540239346
 31
0.0
  0
LINE
  5
2528
  8
TITLE
 10
343.47828625666722
 20
74.342671451244541
 30
0.0
 11
343.68580460860721
 21
74.550189803185731
 31
0.0
  0
LINE
  5
2529
  8
TITLE
 10
343.6528560019616
 20
74.342671451244541
 30
0.0
 11
343.68580460860721
 21
74.375620057898686
 31
0.0
  0
LINE
  5
252A
  8
TITLE
 10
343.3037165113729
 20
74.342671451244541
 30
0.0
 11
343.68580460860721
 21
74.724759548480307
 31
0.0
  0
LINE
  5
252B
  8
TITLE
 10
343.12914676607852
 20
74.342671451244541
 30
0.0
 11
343.68580460860721
 21
74.899329293773903
 31
0.0
  0
LINE
  5
252C
  8
TITLE
 10
342.9545770207842
 20
74.342671451244541
 30
0.0
 11
343.68580460860721
 21
75.073899039068451
 31
0.0
  0
LINE
  5
252D
  8
TITLE
 10
342.78000727548988
 20
74.342671451244541
 30
0.0
 11
343.68580460860721
 21
75.248468784363226
 31
0.0
  0
LINE
  5
252E
  8
TITLE
 10
342.60543753021011
 20
74.342671451244541
 30
0.0
 11
343.68580460860721
 21
75.423038529656864
 31
0.0
  0
LINE
  5
252F
  8
TITLE
 10
344.90293876325092
 20
75.243614721946415
 30
0.0
 11
345.09759905713781
 21
75.438275015832673
 31
0.0
  0
LINE
  5
2530
  8
TITLE
 10
344.90293876325092
 20
75.418184467240494
 30
0.0
 11
344.92302931184258
 21
75.438275015832673
 31
0.0
  0
LINE
  5
2531
  8
TITLE
 10
344.90293876325092
 20
74.196196250187313
 30
0.0
 11
346.14501752888918
 21
75.438275015832673
 31
0.0
  0
LINE
  5
2532
  8
TITLE
 10
344.90293876325092
 20
74.370765995482287
 30
0.0
 11
345.97044778359492
 21
75.438275015832673
 31
0.0
  0
LINE
  5
2533
  8
TITLE
 10
344.90293876325092
 20
74.545335740775698
 30
0.0
 11
345.79587803829958
 21
75.438275015832673
 31
0.0
  0
LINE
  5
2534
  8
TITLE
 10
344.90293876325092
 20
74.719905486062984
 30
0.0
 11
345.6213082930052
 21
75.438275015832673
 31
0.0
  0
LINE
  5
2535
  8
TITLE
 10
344.90293876325092
 20
74.894475231357546
 30
0.0
 11
345.44673854771179
 21
75.438275015832673
 31
0.0
  0
LINE
  5
2536
  8
TITLE
 10
344.90293876325092
 20
75.069044976652094
 30
0.0
 11
345.27216880241758
 21
75.438275015832673
 31
0.0
  0
LINE
  5
2537
  8
TITLE
 10
340.1609199677041
 20
68.581328728176459
 30
0.0
 11
341.12611876803572
 21
69.546527528507568
 31
0.0
  0
LINE
  5
2538
  8
TITLE
 10
339.98635022240973
 20
68.581328728176459
 30
0.0
 11
341.12611876803572
 21
69.721097273802343
 31
0.0
  0
LINE
  5
2539
  8
TITLE
 10
339.81178047711552
 20
68.581328728176459
 30
0.0
 11
341.12611876803572
 21
69.895667019096209
 31
0.0
  0
LINE
  5
253A
  8
TITLE
 10
339.63721073182199
 20
68.581328728176459
 30
0.0
 11
341.12611876803572
 21
70.070236764383026
 31
0.0
  0
LINE
  5
253B
  8
TITLE
 10
341.25159579849418
 20
71.592271757188868
 30
0.0
 11
342.51173925228801
 21
72.852415210983281
 31
0.0
  0
LINE
  5
253C
  8
TITLE
 10
341.19152708308781
 20
71.706772787076943
 30
0.0
 11
342.45975344185263
 21
72.974999145842503
 31
0.0
  0
LINE
  5
253D
  8
TITLE
 10
341.133455934415
 20
71.823271383699193
 30
0.0
 11
342.40989475703282
 21
73.099710206324062
 31
0.0
  0
LINE
  5
253E
  8
TITLE
 10
341.65205543682168
 20
70.945312923766309
 30
0.0
 11
342.86567734246279
 21
72.158934829398504
 31
0.0
  0
LINE
  5
253F
  8
TITLE
 10
341.58068605032798
 20
71.048513282565409
 30
0.0
 11
342.80188541135431
 21
72.269712643592342
 31
0.0
  0
LINE
  5
2540
  8
TITLE
 10
341.51113436583358
 20
71.153531343366225
 30
0.0
 11
342.73996705438549
 21
72.382364031917405
 31
0.0
  0
LINE
  5
2541
  8
TITLE
 10
341.44342281847997
 20
71.260389541292369
 30
0.0
 11
342.6799551785798
 21
72.496921901391488
 31
0.0
  0
LINE
  5
2542
  8
TITLE
 10
341.37757660237912
 20
71.369113070499907
 30
0.0
 11
342.62188602992859
 21
72.613422498035092
 31
0.0
  0
LINE
  5
2543
  8
TITLE
 10
341.31362384351718
 20
71.47973005691756
 30
0.0
 11
342.56579946347028
 21
72.731905676871307
 31
0.0
  0
LINE
  5
2544
  8
TITLE
 10
341.03376869416121
 20
68.581328728176459
 30
0.0
 11
341.12611876803572
 21
68.673678802035724
 31
0.0
  0
LINE
  5
2545
  8
TITLE
 10
340.85919894888139
 20
68.581328728176459
 30
0.0
 11
341.12611876803572
 21
68.848248547329831
 31
0.0
  0
LINE
  5
2546
  8
TITLE
 10
340.68462920358797
 20
68.581328728176459
 30
0.0
 11
341.12611876803572
 21
69.022818292623697
 31
0.0
  0
LINE
  5
2547
  8
TITLE
 10
340.51005945829371
 20
68.581328728176459
 30
0.0
 11
341.12611876803572
 21
69.197388037919382
 31
0.0
  0
LINE
  5
2548
  8
TITLE
 10
340.33548971299842
 20
68.581328728176459
 30
0.0
 11
341.12611876803572
 21
69.371957783213929
 31
0.0
  0
LINE
  5
2549
  8
TITLE
 10
343.23581326988722
 20
69.386815341547845
 30
0.0
 11
343.68580460860721
 21
69.836806680282265
 31
0.0
  0
LINE
  5
254A
  8
TITLE
 10
343.5553169462973
 20
69.182609782089003
 30
0.0
 11
343.68580460860721
 21
69.313097444399091
 31
0.0
  0
LINE
  5
254B
  8
TITLE
 10
343.66555775390123
 20
69.118280844391606
 30
0.0
 11
343.68580460860721
 21
69.13852769910477
 31
0.0
  0
LINE
  5
254C
  8
TITLE
 10
343.44696380199372
 20
69.248826383065975
 30
0.0
 11
343.68580460860721
 21
69.487667189693639
 31
0.0
  0
LINE
  5
254D
  8
TITLE
 10
343.3404707886956
 20
69.316903115068953
 30
0.0
 11
343.68580460860721
 21
69.662236934988186
 31
0.0
  0
LINE
  5
254E
  8
TITLE
 10
343.1329693367079
 20
69.458541153668875
 30
0.0
 11
343.68580460860721
 21
70.0113764255766
 31
0.0
  0
LINE
  5
254F
  8
TITLE
 10
343.03191966261778
 20
69.532061224866538
 30
0.0
 11
343.68580460860721
 21
70.185946170870665
 31
0.0
  0
LINE
  5
2550
  8
TITLE
 10
342.93264737814388
 20
69.607358685687359
 30
0.0
 11
343.68580460860721
 21
70.360515916165454
 31
0.0
  0
LINE
  5
2551
  8
TITLE
 10
342.37368016750679
 20
70.095809946815507
 30
0.0
 11
343.52008017865859
 21
71.242209957953719
 31
0.0
  0
LINE
  5
2552
  8
TITLE
 10
342.28656515724288
 20
70.18326468184749
 30
0.0
 11
343.44045228391133
 21
71.337151808499812
 31
0.0
  0
LINE
  5
2553
  8
TITLE
 10
342.20117141728952
 20
70.272440687173685
 30
0.0
 11
343.36252144776779
 21
71.433790717651618
 31
0.0
  0
LINE
  5
2554
  8
TITLE
 10
342.11750115615172
 20
70.363340171329355
 30
0.0
 11
343.2862982250445
 21
71.532137240229304
 31
0.0
  0
LINE
  5
2555
  8
TITLE
 10
342.03555860560567
 20
70.455967366084906
 30
0.0
 11
343.21179521071281
 21
71.632203971184936
 31
0.0
  0
LINE
  5
2556
  8
TITLE
 10
342.73937916097469
 20
69.763229959106866
 30
0.0
 11
343.68580460860721
 21
70.709655406746379
 31
0.0
  0
LINE
  5
2557
  8
TITLE
 10
342.64536089473683
 20
69.843781438162296
 30
0.0
 11
343.68580460860721
 21
70.884225152040941
 31
0.0
  0
LINE
  5
2558
  8
TITLE
 10
342.83513796402349
 20
69.684419016861511
 30
0.0
 11
343.68580460860721
 21
70.535085661452058
 31
0.0
  0
LINE
  5
2559
  8
TITLE
 10
342.55307521538907
 20
69.926065504108919
 30
0.0
 11
343.68439477402092
 21
71.057385062740423
 31
0.0
  0
LINE
  5
255A
  8
TITLE
 10
342.46251624989958
 20
70.010076283900162
 30
0.0
 11
343.60139655677187
 21
71.148956590778411
 31
0.0
  0
LINE
  5
255B
  8
TITLE
 10
341.9553500455649
 20
70.550328551331859
 30
0.0
 11
343.13902711316308
 21
71.734005618943456
 31
0.0
  0
LINE
  5
255C
  8
TITLE
 10
341.8768838411616
 20
70.646432092222526
 30
0.0
 11
343.06801084139988
 21
71.837559092460424
 31
0.0
  0
LINE
  5
255D
  8
TITLE
 10
341.80017049279178
 20
70.744288489139549
 30
0.0
 11
342.99876560714517
 21
71.942883603500135
 31
0.0
  0
LINE
  5
255E
  8
TITLE
 10
341.7252226994824
 20
70.843910441131811
 30
0.0
 11
342.93131304360941
 21
72.050000785258135
 31
0.0
  0
LINE
  5
255F
  8
TITLE
 10
344.58950772008768
 20
69.867661065289894
 30
0.0
 11
345.0079799440918
 21
70.286133289301688
 31
0.0
  0
LINE
  5
2560
  8
TITLE
 10
344.58950772008768
 20
70.042230810584442
 30
0.0
 11
344.82646534470399
 21
70.279188435201135
 31
0.0
  0
LINE
  5
2561
  8
TITLE
 10
344.58950772008768
 20
70.216800555878535
 30
0.0
 11
344.64611862522639
 21
70.273411461018654
 31
0.0
  0
LINE
  5
2562
  8
TITLE
 10
344.58950772008768
 20
69.693091319995574
 30
0.0
 11
345.19068627266279
 21
70.294269872571704
 31
0.0
  0
LINE
  5
2563
  8
TITLE
 10
344.58950772008768
 20
68.820242593538538
 30
0.0
 11
346.12299958415042
 21
70.353734457587734
 31
0.0
  0
LINE
  5
2564
  8
TITLE
 10
344.58950772008768
 20
68.994812338833071
 30
0.0
 11
345.93394094632731
 21
70.339245565073497
 31
0.0
  0
LINE
  5
2565
  8
TITLE
 10
344.58950772008768
 20
69.169382084120116
 30
0.0
 11
345.74620898549711
 21
70.32608334952306
 31
0.0
  0
LINE
  5
2566
  8
TITLE
 10
344.58950772008768
 20
69.343951829414436
 30
0.0
 11
345.55977441036163
 21
70.314218519688211
 31
0.0
  0
LINE
  5
2567
  8
TITLE
 10
344.58950772008768
 20
69.518521574708302
 30
0.0
 11
345.37460914771418
 21
70.30362300232855
 31
0.0
  0
LINE
  5
2568
  8
TITLE
 10
345.24232569188831
 20
68.600211838868518
 30
0.0
 11
347.0893133972869
 21
70.447199544267505
 31
0.0
  0
LINE
  5
2569
  8
TITLE
 10
345.0605277188734
 20
68.59298361115566
 30
0.0
 11
346.89313374935227
 21
70.425589641626402
 31
0.0
  0
LINE
  5
256A
  8
TITLE
 10
344.8802933790966
 20
68.587319016658057
 30
0.0
 11
346.69844836523589
 21
70.405474002804795
 31
0.0
  0
LINE
  5
256B
  8
TITLE
 10
344.70158183103382
 20
68.583177213896079
 30
0.0
 11
346.5052206032197
 21
70.386815986068541
 31
0.0
  0
LINE
  5
256C
  8
TITLE
 10
344.58950772008768
 20
68.64567284824443
 30
0.0
 11
346.31341548341152
 21
70.369580611569504
 31
0.0
  0
LINE
  5
256D
  8
TITLE
 10
344.90293876325092
 20
74.021626504899814
 30
0.0
 11
346.3195872741835
 21
75.438275015832673
 31
0.0
  0
LINE
  5
256E
  8
TITLE
 10
346.02859881235418
 20
73.925298336958093
 30
0.0
 11
347.5415754912292
 21
75.438275015832673
 31
0.0
  0
LINE
  5
256F
  8
TITLE
 10
345.8540290670598
 20
73.925298336958093
 30
0.0
 11
347.36700574593488
 21
75.438275015832673
 31
0.0
  0
LINE
  5
2570
  8
TITLE
 10
345.67945932178009
 20
73.925298336958093
 30
0.0
 11
347.1924360006397
 21
75.438275015832673
 31
0.0
  0
LINE
  5
2571
  8
TITLE
 10
345.50488957648571
 20
73.925298336958093
 30
0.0
 11
347.01786625534618
 21
75.438275015832673
 31
0.0
  0
LINE
  5
2572
  8
TITLE
 10
345.33031983119139
 20
73.925298336958093
 30
0.0
 11
346.84329651006561
 21
75.438275015832673
 31
0.0
  0
LINE
  5
2573
  8
TITLE
 10
345.15575008589718
 20
73.925298336958093
 30
0.0
 11
346.66872676477118
 21
75.438275015832673
 31
0.0
  0
LINE
  5
2574
  8
TITLE
 10
344.9811803406028
 20
73.925298336958093
 30
0.0
 11
346.49415701947692
 21
75.438275015832673
 31
0.0
  0
LINE
  5
2575
  8
TITLE
 10
338.24119389788018
 20
74.342671451244541
 30
0.0
 11
339.44114098687533
 21
75.542618540239346
 31
0.0
  0
LINE
  5
2576
  8
TITLE
 10
338.06662415258688
 20
74.342671451244541
 30
0.0
 11
339.266571241581
 21
75.542618540239346
 31
0.0
  0
LINE
  5
2577
  8
TITLE
 10
336.84256335762967
 20
75.21344759979911
 30
0.0
 11
337.17173429806371
 21
75.542618540239346
 31
0.0
  0
LINE
  5
2578
  8
TITLE
 10
336.84256335762967
 20
75.388017345085473
 30
0.0
 11
336.99716455276939
 21
75.542618540239346
 31
0.0
  0
LINE
  5
2579
  8
TITLE
 10
336.84256335762967
 20
75.038877854504094
 30
0.0
 11
337.34630404335809
 21
75.542618540239346
 31
0.0
  0
LINE
  5
257A
  8
TITLE
 10
336.84256335762967
 20
74.515168618628422
 30
0.0
 11
337.87001327924088
 21
75.542618540239346
 31
0.0
  0
LINE
  5
257B
  8
TITLE
 10
336.84256335762967
 20
74.689738363922515
 30
0.0
 11
337.69544353394667
 21
75.542618540239346
 31
0.0
  0
LINE
  5
257C
  8
TITLE
 10
336.84256335762967
 20
74.86430810920956
 30
0.0
 11
337.52087378865241
 21
75.542618540239346
 31
0.0
  0
LINE
  5
257D
  8
TITLE
 10
337.8920544072916
 20
74.342671451244541
 30
0.0
 11
339.09200149628668
 21
75.542618540239346
 31
0.0
  0
LINE
  5
257E
  8
TITLE
 10
337.71748466199728
 20
74.342671451244541
 30
0.0
 11
338.91743175099242
 21
75.542618540239346
 31
0.0
  0
LINE
  5
257F
  8
TITLE
 10
337.54291491670301
 20
74.342671451244541
 30
0.0
 11
338.74286200569799
 21
75.542618540239346
 31
0.0
  0
LINE
  5
2580
  8
TITLE
 10
337.36834517140869
 20
74.342671451244541
 30
0.0
 11
338.56829226040372
 21
75.542618540239346
 31
0.0
  0
LINE
  5
2581
  8
TITLE
 10
337.19377542612892
 20
74.342671451244541
 30
0.0
 11
338.3937225151094
 21
75.542618540239346
 31
0.0
  0
LINE
  5
2582
  8
TITLE
 10
337.0192056808346
 20
74.342671451244541
 30
0.0
 11
338.21915276981508
 21
75.542618540239346
 31
0.0
  0
LINE
  5
2583
  8
TITLE
 10
336.84463593554023
 20
74.342671451244541
 30
0.0
 11
338.04458302452173
 21
75.542618540239346
 31
0.0
  0
LINE
  5
2584
  8
TITLE
 10
337.67992278905331
 20
69.591726455389789
 30
0.0
 11
338.83330131896491
 21
70.74510498529412
 31
0.0
  0
LINE
  5
2585
  8
TITLE
 10
337.12468325485492
 20
69.211056666486684
 30
0.0
 11
339.21397110786887
 21
71.300344519492455
 31
0.0
  0
LINE
  5
2586
  8
TITLE
 10
336.84256335762967
 20
69.103506514547917
 30
0.0
 11
339.43657324601088
 21
71.697516402928144
 31
0.0
  0
LINE
  5
2587
  8
TITLE
 10
339.50672605692671
 20
70.371111251497268
 30
0.0
 11
342.36222107098092
 21
73.226606265559653
 31
0.0
  0
LINE
  5
2588
  8
TITLE
 10
339.50672605692671
 20
70.545680996791575
 30
0.0
 11
342.31679594671817
 21
73.355750886590371
 31
0.0
  0
LINE
  5
2589
  8
TITLE
 10
339.50672605692671
 20
70.720250742078406
 30
0.0
 11
342.27368926525747
 21
73.487213950423424
 31
0.0
  0
LINE
  5
258A
  8
TITLE
 10
339.50672605692671
 20
70.894820487372954
 30
0.0
 11
342.23297795673352
 21
73.621072387186814
 31
0.0
  0
LINE
  5
258B
  8
TITLE
 10
339.50672605692671
 20
71.069390232667047
 30
0.0
 11
342.19474685531799
 21
73.757411031074071
 31
0.0
  0
LINE
  5
258C
  8
TITLE
 10
339.50672605692671
 20
71.243959977961595
 30
0.0
 11
342.1590897040868
 21
73.896323625121795
 31
0.0
  0
LINE
  5
258D
  8
TITLE
 10
339.50672605692671
 20
71.418529723255915
 30
0.0
 11
342.12611034220208
 21
74.037914008531502
 31
0.0
  0
LINE
  5
258E
  8
TITLE
 10
339.50672605692671
 20
71.593099468550236
 30
0.0
 11
342.0959241164183
 21
74.182297528041545
 31
0.0
  0
LINE
  5
258F
  8
TITLE
 10
339.50672605692671
 20
71.76766921384457
 30
0.0
 11
342.06865957004169
 21
74.329602726960502
 31
0.0
  0
LINE
  5
2590
  8
TITLE
 10
338.10027671128421
 20
72.805196302307877
 30
0.0
 11
341.12611876803572
 21
75.831038359053096
 31
0.0
  0
LINE
  5
2591
  8
TITLE
 10
338.22467541169948
 20
73.104164748003313
 30
0.0
 11
341.12611876803572
 21
76.005608104339643
 31
0.0
  0
LINE
  5
2592
  8
TITLE
 10
339.50672605692671
 20
70.021971760916131
 30
0.0
 11
341.12611876803572
 21
71.641364472024406
 31
0.0
  0
LINE
  5
2593
  8
TITLE
 10
339.50672605692671
 20
70.196541506202934
 30
0.0
 11
341.12611876803572
 21
71.815934217319636
 31
0.0
  0
LINE
  5
2594
  8
TITLE
 10
339.50672605692671
 20
69.847402015622023
 30
0.0
 11
341.12611876803572
 21
71.466794726730313
 31
0.0
  0
LINE
  5
2595
  8
TITLE
 10
339.50672605692671
 20
68.625413798568616
 30
0.0
 11
341.12611876803572
 21
70.244806509677574
 31
0.0
  0
LINE
  5
2596
  8
TITLE
 10
339.50672605692671
 20
68.799983543863391
 30
0.0
 11
341.12611876803572
 21
70.419376254971183
 31
0.0
  0
LINE
  5
2597
  8
TITLE
 10
339.50672605692671
 20
68.974553289149981
 30
0.0
 11
341.12611876803572
 21
70.593946000258484
 31
0.0
  0
LINE
  5
2598
  8
TITLE
 10
339.50672605692671
 20
69.149123034444287
 30
0.0
 11
341.12611876803572
 21
70.768515745553032
 31
0.0
  0
LINE
  5
2599
  8
TITLE
 10
339.50672605692671
 20
69.323692779738394
 30
0.0
 11
341.12611876803572
 21
70.943085490847324
 31
0.0
  0
LINE
  5
259A
  8
TITLE
 10
339.50672605692671
 20
69.498262525032942
 30
0.0
 11
341.12611876803572
 21
71.117655236141673
 31
0.0
  0
LINE
  5
259B
  8
TITLE
 10
339.50672605692671
 20
69.67283227032749
 30
0.0
 11
341.12611876803572
 21
71.29222498143622
 31
0.0
  0
LINE
  5
259C
  8
TITLE
 10
336.84256335762967
 20
70.500064476887701
 30
0.0
 11
341.88511742096682
 21
75.542618540239346
 31
0.0
  0
LINE
  5
259D
  8
TITLE
 10
336.84256335762967
 20
70.67463422218249
 30
0.0
 11
341.71054767567239
 21
75.542618540239346
 31
0.0
  0
LINE
  5
259E
  8
TITLE
 10
336.84256335762967
 20
70.150924986299529
 30
0.0
 11
342.23425691155518
 21
75.542618540239346
 31
0.0
  0
LINE
  5
259F
  8
TITLE
 10
336.84256335762967
 20
70.325494731593835
 30
0.0
 11
342.05968716626109
 21
75.542618540239346
 31
0.0
  0
LINE
  5
25A0
  8
TITLE
 10
336.84256335762967
 20
69.80178549571815
 30
0.0
 11
342.5833964021449
 21
75.542618540239346
 31
0.0
  0
LINE
  5
25A1
  8
TITLE
 10
336.84256335762967
 20
69.278076259842464
 30
0.0
 11
343.10710563802689
 21
75.542618540239346
 31
0.0
  0
LINE
  5
25A2
  8
TITLE
 10
336.84256335762967
 20
69.452646005129509
 30
0.0
 11
342.93253589273252
 21
75.542618540239346
 31
0.0
  0
LINE
  5
25A3
  8
TITLE
 10
336.84256335762967
 20
69.627215750423602
 30
0.0
 11
342.75796614743831
 21
75.542618540239346
 31
0.0
  0
LINE
  5
25A4
  8
TITLE
 10
336.84256335762967
 20
69.976355241004725
 30
0.0
 11
342.40882665684973
 21
75.542618540239346
 31
0.0
  0
LINE
  5
25A5
  8
TITLE
 10
337.71314620553778
 20
72.068926305972582
 30
0.0
 11
341.18683843980398
 21
75.542618540239346
 31
0.0
  0
LINE
  5
25A6
  8
TITLE
 10
337.93840549982912
 20
72.46875534555852
 30
0.0
 11
341.12611876803572
 21
75.656468613758079
 31
0.0
  0
LINE
  5
25A7
  8
TITLE
 10
336.84256335762967
 20
70.849203967476342
 30
0.0
 11
341.53597793039262
 21
75.542618540239346
 31
0.0
  0
LINE
  5
25A8
  8
TITLE
 10
337.33248025294239
 20
71.513690608090883
 30
0.0
 11
341.3614081850983
 21
75.542618540239346
 31
0.0
  0
LINE
  5
25A9
  8
TITLE
 10
338.3233745612896
 20
73.377433642902133
 30
0.0
 11
341.12611876803572
 21
76.180177849633765
 31
0.0
  0
LINE
  5
25AA
  8
TITLE
 10
338.51957817177748
 20
74.097346489259522
 30
0.0
 11
341.12611876803572
 21
76.703887085516513
 31
0.0
  0
LINE
  5
25AB
  8
TITLE
 10
338.56142291725428
 20
74.313760980044435
 30
0.0
 11
341.12611876803572
 21
76.878456830811047
 31
0.0
  0
LINE
  5
25AC
  8
TITLE
 10
338.40291941385021
 20
73.631548240756501
 30
0.0
 11
341.12611876803572
 21
76.354747594928284
 31
0.0
  0
LINE
  5
25AD
  8
TITLE
 10
338.46740020170182
 20
73.870598773902202
 30
0.0
 11
341.12611876803572
 21
76.529317340222164
 31
0.0
  0
LINE
  5
25AE
  8
TITLE
 10
351.54458903412967
 20
74.204196199940029
 30
0.0
 11
353.10438011154372
 21
75.763987277353621
 31
0.0
  0
LINE
  5
25AF
  8
TITLE
 10
351.52026578685479
 20
74.354442697959684
 30
0.0
 11
353.10438011154372
 21
75.938557022647501
 31
0.0
  0
LINE
  5
25B0
  8
TITLE
 10
351.4986025977131
 20
74.507349254112341
 30
0.0
 11
353.10438011154372
 21
76.11312676794158
 31
0.0
  0
LINE
  5
25B1
  8
TITLE
 10
351.45086406736129
 20
74.983319959636219
 30
0.0
 11
353.10438011154372
 21
76.636836003818189
 31
0.0
  0
LINE
  5
25B2
  8
TITLE
 10
351.44120681550339
 20
75.148232453071842
 30
0.0
 11
353.10438011154372
 21
76.811405749112296
 31
0.0
  0
LINE
  5
25B3
  8
TITLE
 10
351.47972168661732
 20
74.66303808830321
 30
0.0
 11
353.10438011154372
 21
76.287696513229534
 31
0.0
  0
LINE
  5
25B4
  8
TITLE
 10
351.46375856458781
 20
74.821644711567842
 30
0.0
 11
353.10438011154372
 21
76.462266258524096
 31
0.0
  0
LINE
  5
25B5
  8
TITLE
 10
352.17194927980393
 20
72.21301026622038
 30
0.0
 11
353.36150621011262
 21
73.402567196530299
 31
0.0
  0
LINE
  5
25B6
  8
TITLE
 10
352.11689564822149
 20
72.332526379925625
 30
0.0
 11
353.31882606943418
 21
73.534456801138063
 31
0.0
  0
LINE
  5
25B7
  8
TITLE
 10
352.06354016495419
 20
72.453740641959712
 30
0.0
 11
353.27917688064372
 21
73.669377357649864
 31
0.0
  0
LINE
  5
25B8
  8
TITLE
 10
352.01191697885861
 20
72.576687201144296
 30
0.0
 11
353.24269757069948
 21
73.80746779298488
 31
0.0
  0
LINE
  5
25B9
  8
TITLE
 10
351.96206297678418
 20
72.701402944371452
 30
0.0
 11
353.20954584051918
 21
73.94888580809878
 31
0.0
  0
LINE
  5
25BA
  8
TITLE
 10
352.28702689123372
 20
71.978948387062488
 30
0.0
 11
353.4554820286067
 21
73.147403524435262
 31
0.0
  0
LINE
  5
25BB
  8
TITLE
 10
352.2286694466311
 20
72.095160687753804
 30
0.0
 11
353.4070944875657
 21
73.273585728689341
 31
0.0
  0
LINE
  5
25BC
  8
TITLE
 10
352.47166239503082
 20
71.639874654976651
 30
0.0
 11
353.61652528736693
 21
72.784737547312488
 31
0.0
  0
LINE
  5
25BD
  8
TITLE
 10
352.40854741502062
 20
71.751329420260632
 30
0.0
 11
353.56027872989017
 21
72.903060735130353
 31
0.0
  0
LINE
  5
25BE
  8
TITLE
 10
352.34699455107972
 20
71.864346301614205
 30
0.0
 11
353.50657211925318
 21
73.023923869794288
 31
0.0
  0
LINE
  5
25BF
  8
TITLE
 10
351.25450120133797
 20
69.724434480106083
 30
0.0
 11
351.43274897107949
 21
69.902682249861513
 31
0.0
  0
LINE
  5
25C0
  8
TITLE
 10
350.99363115425518
 20
69.638134178325345
 30
0.0
 11
351.43274897107949
 21
70.077251995155621
 31
0.0
  0
LINE
  5
25C1
  8
TITLE
 10
350.7380237434736
 20
69.557096512829958
 30
0.0
 11
351.43274897107949
 21
70.251821740442892
 31
0.0
  0
LINE
  5
25C2
  8
TITLE
 10
350.74198193527172
 20
73.925298336958093
 30
0.0
 11
350.85812531412108
 21
74.041441715806513
 31
0.0
  0
LINE
  5
25C3
  8
TITLE
 10
352.53631821139692
 20
71.529960726056061
 30
0.0
 11
353.67524364780257
 21
72.668886162461376
 31
0.0
  0
LINE
  5
25C4
  8
TITLE
 10
352.60249529003789
 20
71.421568059407946
 30
0.0
 11
353.73637323330712
 21
72.555446002671701
 31
0.0
  0
LINE
  5
25C5
  8
TITLE
 10
355.25207832415981
 20
68.834058734730434
 30
0.0
 11
355.71630391446621
 21
69.298284325043596
 31
0.0
  0
LINE
  5
25C6
  8
TITLE
 10
355.14300776351882
 20
68.899557919384051
 30
0.0
 11
355.71630391446621
 21
69.47285407033111
 31
0.0
  0
LINE
  5
25C7
  8
TITLE
 10
355.03544834147402
 20
68.966568242633457
 30
0.0
 11
355.71630391446621
 21
69.647423815625643
 31
0.0
  0
LINE
  5
25C8
  8
TITLE
 10
354.92938295398392
 20
69.035072600437374
 30
0.0
 11
355.71630391446621
 21
69.821993560919736
 31
0.0
  0
LINE
  5
25C9
  8
TITLE
 10
355.70387077098621
 20
68.587572200386603
 30
0.0
 11
355.71630391446621
 21
68.600005343874045
 31
0.0
  0
LINE
  5
25CA
  8
TITLE
 10
355.58855191409469
 20
68.646823088796282
 30
0.0
 11
355.71630391446621
 21
68.77457508916882
 31
0.0
  0
LINE
  5
25CB
  8
TITLE
 10
355.47482919962403
 20
68.707670119620147
 30
0.0
 11
355.71630391446621
 21
68.94914483445541
 31
0.0
  0
LINE
  5
25CC
  8
TITLE
 10
355.36267869460971
 20
68.770089359893504
 30
0.0
 11
355.71630391446621
 21
69.123714579749944
 31
0.0
  0
LINE
  5
25CD
  8
TITLE
 10
354.82479598699138
 20
69.105055378746329
 30
0.0
 11
355.71630391446621
 21
69.996563306214284
 31
0.0
  0
LINE
  5
25CE
  8
TITLE
 10
354.72167324768088
 20
69.176502384716741
 30
0.0
 11
355.71630391446621
 21
70.171133051507695
 31
0.0
  0
LINE
  5
25CF
  8
TITLE
 10
354.62000190312568
 20
69.249400785461603
 30
0.0
 11
355.71630391446621
 21
70.345702796802698
 31
0.0
  0
LINE
  5
25D0
  8
TITLE
 10
354.5197704261746
 20
69.323739053797453
 30
0.0
 11
355.71630391446621
 21
70.520272542097473
 31
0.0
  0
LINE
  5
25D1
  8
TITLE
 10
352.80998208041092
 20
71.105345613899772
 30
0.0
 11
353.9337225424743
 21
72.229086075962414
 31
0.0
  0
LINE
  5
25D2
  8
TITLE
 10
352.73934292421478
 20
71.209276202989699
 30
0.0
 11
353.8656573447243
 21
72.33559062350696
 31
0.0
  0
LINE
  5
25D3
  8
TITLE
 10
352.67017567057428
 20
71.314678694651306
 30
0.0
 11
353.79986030428518
 21
72.444363328362442
 31
0.0
  0
LINE
  5
25D4
  8
TITLE
 10
353.26405736063418
 20
70.512002422355636
 30
0.0
 11
354.38802508394292
 21
71.63597014567199
 31
0.0
  0
LINE
  5
25D5
  8
TITLE
 10
353.18482686845618
 20
70.60734167548776
 30
0.0
 11
354.30695690535492
 21
71.729471712371165
 31
0.0
  0
LINE
  5
25D6
  8
TITLE
 10
353.10700589964932
 20
70.704090451960354
 30
0.0
 11
354.22800557517348
 21
71.8250901274846
 31
0.0
  0
LINE
  5
25D7
  8
TITLE
 10
353.03060181116052
 20
70.802256108766642
 30
0.0
 11
354.15118577048821
 21
71.922840068093592
 31
0.0
  0
LINE
  5
25D8
  8
TITLE
 10
352.95562312485993
 20
70.901847167752067
 30
0.0
 11
354.07651611539399
 21
72.022740158294482
 31
0.0
  0
LINE
  5
25D9
  8
TITLE
 10
352.88207956154122
 20
71.002873349734713
 30
0.0
 11
354.00401935018363
 21
72.124813138377462
 31
0.0
  0
LINE
  5
25DA
  8
TITLE
 10
354.03989345632277
 20
69.716710810424502
 30
0.0
 11
355.21231836509378
 21
70.889135719181695
 31
0.0
  0
LINE
  5
25DB
  8
TITLE
 10
353.94812691694727
 20
69.799514016336843
 30
0.0
 11
355.11224593674621
 21
70.963633036128385
 31
0.0
  0
LINE
  5
25DC
  8
TITLE
 10
354.42096854747979
 20
69.399506920404519
 30
0.0
 11
355.63465452053612
 21
70.613192893453288
 31
0.0
  0
LINE
  5
25DD
  8
TITLE
 10
354.3235872136429
 20
69.476695331861706
 30
0.0
 11
355.52569926549222
 21
70.678807383704452
 31
0.0
  0
LINE
  5
25DE
  8
TITLE
 10
354.2276185507053
 20
69.555296414220024
 30
0.0
 11
355.41901530265648
 21
70.746693166163595
 31
0.0
  0
LINE
  5
25DF
  8
TITLE
 10
354.13305583291998
 20
69.635303441721362
 30
0.0
 11
355.31456567937948
 21
70.816813288180356
 31
0.0
  0
LINE
  5
25E0
  8
TITLE
 10
353.85775279344131
 20
69.883709638118489
 30
0.0
 11
355.0143253173938
 21
71.040282162069843
 31
0.0
  0
LINE
  5
25E1
  8
TITLE
 10
353.76876873392757
 20
69.969295323899132
 30
0.0
 11
354.9185375615225
 21
71.119064151493831
 31
0.0
  0
LINE
  5
25E2
  8
TITLE
 10
353.68117344708122
 20
70.056269782346362
 30
0.0
 11
354.82486768267972
 21
71.19996401793766
 31
0.0
  0
LINE
  5
25E3
  8
TITLE
 10
353.59496669715838
 20
70.144632777717561
 30
0.0
 11
354.7333045194236
 21
71.2829705999834
 31
0.0
  0
LINE
  5
25E4
  8
TITLE
 10
353.51014930313249
 20
70.234385128987
 30
0.0
 11
354.6438406368797
 21
71.368076462733598
 31
0.0
  0
LINE
  5
25E5
  8
TITLE
 10
353.426723141818
 20
70.325528712965934
 30
0.0
 11
354.55647226180918
 21
71.455277832942784
 31
0.0
  0
LINE
  5
25E6
  8
TITLE
 10
353.34469115498808
 20
70.418066471414932
 30
0.0
 11
354.47119924976232
 21
71.544574566204346
 31
0.0
  0
LINE
  5
25E7
  8
TITLE
 10
357.06656008157648
 20
72.568807690369795
 30
0.0
 11
358.4742595561238
 21
73.976507164923547
 31
0.0
  0
LINE
  5
25E8
  8
TITLE
 10
356.89199033628211
 20
72.568807690369795
 30
0.0
 11
358.29968981082862
 21
73.976507164923547
 31
0.0
  0
LINE
  5
25E9
  8
TITLE
 10
356.84034200056522
 20
72.691729099947906
 30
0.0
 11
358.12512006553419
 21
73.976507164923547
 31
0.0
  0
LINE
  5
25EA
  8
TITLE
 10
356.84034200056522
 20
73.564577826412204
 30
0.0
 11
357.2522713390772
 21
73.976507164923547
 31
0.0
  0
LINE
  5
25EB
  8
TITLE
 10
356.84034200056522
 20
73.73914757169905
 30
0.0
 11
357.07770159378202
 21
73.976507164923547
 31
0.0
  0
LINE
  5
25EC
  8
TITLE
 10
356.84034200056522
 20
73.913717316993583
 30
0.0
 11
356.90313184848839
 21
73.976507164923547
 31
0.0
  0
LINE
  5
25ED
  8
TITLE
 10
356.84034200056522
 20
73.040868590536093
 30
0.0
 11
357.77598057494561
 21
73.976507164923547
 31
0.0
  0
LINE
  5
25EE
  8
TITLE
 10
356.84034200056522
 20
73.215438335830186
 30
0.0
 11
357.60141082966578
 21
73.976507164923547
 31
0.0
  0
LINE
  5
25EF
  8
TITLE
 10
356.84034200056522
 20
73.39000808111814
 30
0.0
 11
357.42684108437152
 21
73.976507164923547
 31
0.0
  0
LINE
  5
25F0
  8
TITLE
 10
356.84034200056522
 20
72.866298845241545
 30
0.0
 11
357.95055032024078
 21
73.976507164923547
 31
0.0
  0
LINE
  5
25F1
  8
TITLE
 10
357.41458410285941
 20
69.949146041678432
 30
0.0
 11
357.51720198172097
 21
70.051763920547501
 31
0.0
  0
LINE
  5
25F2
  8
TITLE
 10
357.41458410285941
 20
69.774576296384112
 30
0.0
 11
357.84895068019517
 21
70.208942873719252
 31
0.0
  0
LINE
  5
25F3
  8
TITLE
 10
347.9810919057964
 20
68.895001618685001
 30
0.0
 11
350.018398747432
 21
70.932308460314289
 31
0.0
  0
LINE
  5
25F4
  8
TITLE
 10
348.40816639690911
 20
68.972936619202528
 30
0.0
 11
350.4700007548937
 21
71.034770977192693
 31
0.0
  0
LINE
  5
25F5
  8
TITLE
 10
348.1932836696696
 20
68.932623637263063
 30
0.0
 11
350.24297824724448
 21
70.982318214838642
 31
0.0
  0
LINE
  5
25F6
  8
TITLE
 10
347.77147909585619
 20
68.859958554024146
 30
0.0
 11
349.79617277318721
 21
70.884652231355844
 31
0.0
  0
LINE
  5
25F7
  8
TITLE
 10
349.7615616835028
 20
69.278913434037108
 30
0.0
 11
351.43274897107949
 21
70.950100721613126
 31
0.0
  0
LINE
  5
25F8
  8
TITLE
 10
349.52757682616158
 20
69.219498321989931
 30
0.0
 11
351.43274897107949
 21
71.124670466907673
 31
0.0
  0
LINE
  5
25F9
  8
TITLE
 10
349.2971940721099
 20
69.163685313240165
 30
0.0
 11
351.40454563365989
 21
71.271036874782794
 31
0.0
  0
LINE
  5
25FA
  8
TITLE
 10
349.07022546839482
 20
69.111286454811079
 30
0.0
 11
351.1667197993338
 21
71.207780785750174
 31
0.0
  0
LINE
  5
25FB
  8
TITLE
 10
348.84649995647942
 20
69.062130688190564
 30
0.0
 11
350.93176493274598
 21
71.147395664456084
 31
0.0
  0
LINE
  5
25FC
  8
TITLE
 10
348.62586131191802
 20
69.016061788915977
 30
0.0
 11
350.69956206568168
 21
71.089762542687339
 31
0.0
  0
LINE
  5
25FD
  8
TITLE
 10
350.24118913774521
 20
69.409401397705778
 30
0.0
 11
351.43274897107949
 21
70.600961231024485
 31
0.0
  0
LINE
  5
25FE
  8
TITLE
 10
349.99935593646097
 20
69.342137941700912
 30
0.0
 11
351.43274897107949
 21
70.775530976319033
 31
0.0
  0
LINE
  5
25FF
  8
TITLE
 10
350.48731661636248
 20
69.480959131014288
 30
0.0
 11
351.43274897107949
 21
70.426391485737653
 31
0.0
  0
LINE
  5
2600
  8
TITLE
 10
351.57146171655768
 20
74.056499137081559
 30
0.0
 11
353.10438011154372
 21
75.589417532066591
 31
0.0
  0
LINE
  5
2601
  8
TITLE
 10
351.91401801125272
 20
72.827927724126994
 30
0.0
 11
353.17990146095781
 21
74.093811173831213
 31
0.0
  0
LINE
  5
2602
  8
TITLE
 10
351.86782515698098
 20
72.956304615149961
 30
0.0
 11
353.15397039457548
 21
74.242449852743661
 31
0.0
  0
LINE
  5
2603
  8
TITLE
 10
351.82353100094952
 20
73.086580204426554
 30
0.0
 11
353.13199000918399
 21
74.395039212661473
 31
0.0
  0
LINE
  5
2604
  8
TITLE
 10
351.78118597112717
 20
73.218804919884619
 30
0.0
 11
353.11423575728622
 21
74.551854706044423
 31
0.0
  0
LINE
  5
2605
  8
TITLE
 10
351.74084470999333
 20
73.353033404044936
 30
0.0
 11
353.10102985738831
 21
74.713218551433101
 31
0.0
  0
LINE
  5
2606
  8
TITLE
 10
351.70256650073583
 20
73.48932494008136
 30
0.0
 11
353.0927527633803
 21
74.879511202726221
 31
0.0
  0
LINE
  5
2607
  8
TITLE
 10
351.66641575478019
 20
73.627743939413222
 30
0.0
 11
353.089858601782
 21
75.051186786407683
 31
0.0
  0
LINE
  5
2608
  8
TITLE
 10
351.63246257195721
 20
73.768360501890569
 30
0.0
 11
353.0928963988199
 21
75.22879432875402
 31
0.0
  0
LINE
  5
2609
  8
TITLE
 10
351.6007833866816
 20
73.911251061897019
 30
0.0
 11
353.10254000230998
 21
75.413007677538644
 31
0.0
  0
LINE
  5
260A
  8
TITLE
 10
349.86913320880012
 20
73.925298336958093
 30
0.0
 11
350.85812531412108
 21
74.91429044227084
 31
0.0
  0
LINE
  5
260B
  8
TITLE
 10
349.6945634635058
 20
73.925298336958093
 30
0.0
 11
350.85812531412108
 21
75.088860187565842
 31
0.0
  0
LINE
  5
260C
  8
TITLE
 10
349.51999371821148
 20
73.925298336958093
 30
0.0
 11
350.85812531412108
 21
75.263429932859481
 31
0.0
  0
LINE
  5
260D
  8
TITLE
 10
349.34542397293092
 20
73.925298336958093
 30
0.0
 11
350.85812531412108
 21
75.437999678146298
 31
0.0
  0
LINE
  5
260E
  8
TITLE
 10
349.17085422763739
 20
73.925298336958093
 30
0.0
 11
350.68383090649797
 21
75.438275015832673
 31
0.0
  0
LINE
  5
260F
  8
TITLE
 10
348.99628448234319
 20
73.925298336958093
 30
0.0
 11
350.50926116121798
 21
75.438275015832673
 31
0.0
  0
LINE
  5
2610
  8
TITLE
 10
348.82171473704869
 20
73.925298336958093
 30
0.0
 11
350.33469141592292
 21
75.438275015832673
 31
0.0
  0
LINE
  5
2611
  8
TITLE
 10
350.39284244468399
 20
73.925298336958093
 30
0.0
 11
350.85812531412108
 21
74.390581206395623
 31
0.0
  0
LINE
  5
2612
  8
TITLE
 10
350.21827269938882
 20
73.925298336958093
 30
0.0
 11
350.85812531412108
 21
74.565150951689475
 31
0.0
  0
LINE
  5
2613
  8
TITLE
 10
350.0437029540945
 20
73.925298336958093
 30
0.0
 11
350.85812531412108
 21
74.73972069698425
 31
0.0
  0
LINE
  5
2614
  8
TITLE
 10
350.56741218997729
 20
73.925298336958093
 30
0.0
 11
350.85812531412108
 21
74.216011461101289
 31
0.0
  0
LINE
  5
2615
  8
TITLE
 10
369.0716782306489
 20
72.354043668941571
 30
0.0
 11
369.68023969181371
 21
72.962605130114056
 31
0.0
  0
LINE
  5
2616
  8
TITLE
 10
369.0716782306489
 20
72.004904178359553
 30
0.0
 11
370.28507230454488
 21
73.21829825224836
 31
0.0
  0
LINE
  5
2617
  8
TITLE
 10
369.0716782306489
 20
72.179473923647009
 30
0.0
 11
369.9584586406599
 21
73.066254333657511
 31
0.0
  0
LINE
  5
2618
  8
TITLE
 10
369.0716782306489
 20
71.83033443306546
 30
0.0
 11
370.72122936239981
 21
73.479885564809805
 31
0.0
  0
LINE
  5
2619
  8
TITLE
 10
369.19891292082502
 20
71.433859887366239
 30
0.0
 11
374.41927156305161
 21
76.654218529579538
 31
0.0
  0
LINE
  5
261A
  8
TITLE
 10
369.0716782306489
 20
71.481194942484294
 30
0.0
 11
374.45012650832717
 21
76.859643220148882
 31
0.0
  0
LINE
  5
261B
  8
TITLE
 10
369.63718681748651
 20
71.522994293439297
 30
0.0
 11
374.33013715697962
 21
76.215944632931951
 31
0.0
  0
LINE
  5
261C
  8
TITLE
 10
369.41301053788078
 20
71.473387759127704
 30
0.0
 11
374.37974369129188
 21
76.440120912531484
 31
0.0
  0
LINE
  5
261D
  8
TITLE
 10
363.72483240529709
 20
74.86283638176883
 30
0.0
 11
365.28894293256968
 21
76.426946909048866
 31
0.0
  0
LINE
  5
261E
  8
TITLE
 10
363.55026266000277
 20
74.86283638176883
 30
0.0
 11
365.11437318727519
 21
76.426946909048866
 31
0.0
  0
LINE
  5
261F
  8
TITLE
 10
363.37569291470851
 20
74.86283638176883
 30
0.0
 11
364.93980344198098
 21
76.426946909048866
 31
0.0
  0
LINE
  5
2620
  8
TITLE
 10
363.20112316941407
 20
74.86283638176883
 30
0.0
 11
364.76523369668678
 21
76.426946909048866
 31
0.0
  0
LINE
  5
2621
  8
TITLE
 10
363.02655342411981
 20
74.86283638176883
 30
0.0
 11
364.5906639513924
 21
76.426946909048866
 31
0.0
  0
LINE
  5
2622
  8
TITLE
 10
362.85198367882629
 20
74.86283638176883
 30
0.0
 11
364.41609420611161
 21
76.426946909048866
 31
0.0
  0
LINE
  5
2623
  8
TITLE
 10
362.67741393353123
 20
74.86283638176883
 30
0.0
 11
364.24152446081922
 21
76.426946909048866
 31
0.0
  0
LINE
  5
2624
  8
TITLE
 10
362.50284418823679
 20
74.86283638176883
 30
0.0
 11
364.06695471552388
 21
76.426946909048866
 31
0.0
  0
LINE
  5
2625
  8
TITLE
 10
362.32827444294247
 20
74.86283638176883
 30
0.0
 11
363.89238497022859
 21
76.426946909048866
 31
0.0
  0
LINE
  5
2626
  8
TITLE
 10
362.1537046976627
 20
74.86283638176883
 30
0.0
 11
363.71781522493518
 21
76.426946909048866
 31
0.0
  0
LINE
  5
2627
  8
TITLE
 10
361.97913495236838
 20
74.86283638176883
 30
0.0
 11
363.54324547964012
 21
76.426946909048866
 31
0.0
  0
LINE
  5
2628
  8
TITLE
 10
361.80456520707412
 20
74.86283638176883
 30
0.0
 11
363.36867573434682
 21
76.426946909048866
 31
0.0
  0
LINE
  5
2629
  8
TITLE
 10
361.6299954617798
 20
74.86283638176883
 30
0.0
 11
363.19410598905228
 21
76.426946909048866
 31
0.0
  0
LINE
  5
262A
  8
TITLE
 10
365.47052985822569
 20
74.86283638176883
 30
0.0
 11
366.1848291152109
 21
75.577135638760183
 31
0.0
  0
LINE
  5
262B
  8
TITLE
 10
365.29596011293143
 20
74.86283638176883
 30
0.0
 11
366.1848291152109
 21
75.751705384047895
 31
0.0
  0
LINE
  5
262C
  8
TITLE
 10
365.12139036763801
 20
74.86283638176883
 30
0.0
 11
366.1848291152109
 21
75.926275129341533
 31
0.0
  0
LINE
  5
262D
  8
TITLE
 10
364.94682062234278
 20
74.86283638176883
 30
0.0
 11
366.1848291152109
 21
76.100844874628351
 31
0.0
  0
LINE
  5
262E
  8
TITLE
 10
366.16880883938848
 20
74.86283638176883
 30
0.0
 11
366.1848291152109
 21
74.878856657583341
 31
0.0
  0
LINE
  5
262F
  8
TITLE
 10
365.99423909409518
 20
74.86283638176883
 30
0.0
 11
366.1848291152109
 21
75.053426402877449
 31
0.0
  0
LINE
  5
2630
  8
TITLE
 10
365.64509960351921
 20
74.86283638176883
 30
0.0
 11
366.1848291152109
 21
75.402565893466303
 31
0.0
  0
LINE
  5
2631
  8
TITLE
 10
365.81966934881439
 20
74.86283638176883
 30
0.0
 11
366.1848291152109
 21
75.227996148171783
 31
0.0
  0
LINE
  5
2632
  8
TITLE
 10
367.83705448418459
 20
75.658233300100832
 30
0.0
 11
367.9597592920328
 21
75.780938107949169
 31
0.0
  0
LINE
  5
2633
  8
TITLE
 10
367.69052140396161
 20
75.686269965171732
 30
0.0
 11
367.9597592920328
 21
75.955507853242793
 31
0.0
  0
LINE
  5
2634
  8
TITLE
 10
367.54574010164379
 20
75.716058408148669
 30
0.0
 11
367.9597592920328
 21
76.130077598537099
 31
0.0
  0
LINE
  5
2635
  8
TITLE
 10
367.1214500830128
 20
75.815477625385469
 30
0.0
 11
367.9597592920328
 21
76.653786834413481
 31
0.0
  0
LINE
  5
2636
  8
TITLE
 10
366.98323318141689
 20
75.851830469076262
 30
0.0
 11
367.9597592920328
 21
76.828356579707574
 31
0.0
  0
LINE
  5
2637
  8
TITLE
 10
367.40266342223998
 20
75.747551474024448
 30
0.0
 11
367.9597592920328
 21
76.304647343831448
 31
0.0
  0
LINE
  5
2638
  8
TITLE
 10
367.2612472134515
 20
75.780705010530482
 30
0.0
 11
367.9597592920328
 21
76.479217089118933
 31
0.0
  0
LINE
  5
2639
  8
TITLE
 10
364.71267256312512
 20
69.042456473183847
 30
0.0
 11
366.58364043182883
 21
70.913424341886412
 31
0.0
  0
LINE
  5
263A
  8
TITLE
 10
364.33763856554918
 20
68.841992220893417
 30
0.0
 11
366.51885757728002
 21
71.023211232625499
 31
0.0
  0
LINE
  5
263B
  8
TITLE
 10
364.04752062920852
 20
68.726444029848594
 30
0.0
 11
366.454074722732
 21
71.132998123364345
 31
0.0
  0
LINE
  5
263C
  8
TITLE
 10
363.7978694641688
 20
68.651362610095703
 30
0.0
 11
366.38929186816858
 21
71.242785014102552
 31
0.0
  0
LINE
  5
263D
  8
TITLE
 10
363.57368524046171
 20
68.60174813168328
 30
0.0
 11
366.32450901361972
 21
71.352571904841625
 31
0.0
  0
LINE
  5
263E
  8
TITLE
 10
363.52564065740808
 20
72.568807690369795
 30
0.0
 11
364.93334013196909
 21
73.976507164923547
 31
0.0
  0
LINE
  5
263F
  8
TITLE
 10
364.39848938387968
 20
72.568807690369795
 30
0.0
 11
365.80618885842608
 21
73.976507164923547
 31
0.0
  0
LINE
  5
2640
  8
TITLE
 10
364.74762887446832
 20
72.568807690369795
 30
0.0
 11
366.15532834901478
 21
73.976507164923547
 31
0.0
  0
LINE
  5
2641
  8
TITLE
 10
364.57305912917388
 20
72.568807690369795
 30
0.0
 11
365.98075860372052
 21
73.976507164923547
 31
0.0
  0
LINE
  5
2642
  8
TITLE
 10
364.22391963858541
 20
72.568807690369795
 30
0.0
 11
365.63161911313182
 21
73.976507164923547
 31
0.0
  0
LINE
  5
2643
  8
TITLE
 10
364.049349893292
 20
72.568807690369795
 30
0.0
 11
365.4570493678375
 21
73.976507164923547
 31
0.0
  0
LINE
  5
2644
  8
TITLE
 10
363.87478014799677
 20
72.568807690369795
 30
0.0
 11
365.28247962254409
 21
73.976507164923547
 31
0.0
  0
LINE
  5
2645
  8
TITLE
 10
363.70021040270331
 20
72.568807690369795
 30
0.0
 11
365.10790987724982
 21
73.976507164923547
 31
0.0
  0
LINE
  5
2646
  8
TITLE
 10
364.44953314737722
 20
70.874154000938688
 30
0.0
 11
365.51854287173768
 21
71.943163725298973
 31
0.0
  0
LINE
  5
2647
  8
TITLE
 10
364.5511304180427
 20
71.150321016905551
 30
0.0
 11
365.34397312644251
 21
71.943163725298973
 31
0.0
  0
LINE
  5
2648
  8
TITLE
 10
364.56042710432757
 20
71.33418744847836
 30
0.0
 11
365.16940338114819
 21
71.943163725298973
 31
0.0
  0
LINE
  5
2649
  8
TITLE
 10
364.49564424976512
 20
71.443974339216766
 30
0.0
 11
364.99483363585477
 21
71.943163725298973
 31
0.0
  0
LINE
  5
264A
  8
TITLE
 10
363.37869609166052
 20
68.581328728176459
 30
0.0
 11
366.25972615907182
 21
71.462358795580258
 31
0.0
  0
LINE
  5
264B
  8
TITLE
 10
363.20412634636619
 20
68.581328728176459
 30
0.0
 11
366.1949433045084
 21
71.572145686318436
 31
0.0
  0
LINE
  5
264C
  8
TITLE
 10
363.02955660107182
 20
68.581328728176459
 30
0.0
 11
366.13016044996039
 21
71.681932577064117
 31
0.0
  0
LINE
  5
264D
  8
TITLE
 10
362.8549868557775
 20
68.581328728176459
 30
0.0
 11
366.06537759539611
 21
71.791719467795474
 31
0.0
  0
LINE
  5
264E
  8
TITLE
 10
362.68041711049767
 20
68.581328728176459
 30
0.0
 11
366.00059474084821
 21
71.901506358541837
 31
0.0
  0
LINE
  5
264F
  8
TITLE
 10
362.33127761990897
 20
68.581328728176459
 30
0.0
 11
365.6931126170175
 21
71.943163725298973
 31
0.0
  0
LINE
  5
2650
  8
TITLE
 10
362.50584736520341
 20
68.581328728176459
 30
0.0
 11
365.86768236231092
 21
71.943163725298973
 31
0.0
  0
LINE
  5
2651
  8
TITLE
 10
363.3510709121137
 20
72.568807690369795
 30
0.0
 11
364.75877038667568
 21
73.976507164923547
 31
0.0
  0
LINE
  5
2652
  8
TITLE
 10
363.17650116681938
 20
72.568807690369795
 30
0.0
 11
364.5842006413813
 21
73.976507164923547
 31
0.0
  0
LINE
  5
2653
  8
TITLE
 10
363.00193142153972
 20
72.568807690369795
 30
0.0
 11
364.40963089608618
 21
73.976507164923547
 31
0.0
  0
LINE
  5
2654
  8
TITLE
 10
362.8273616762454
 20
72.568807690369795
 30
0.0
 11
364.23506115079181
 21
73.976507164923547
 31
0.0
  0
LINE
  5
2655
  8
TITLE
 10
362.65279193095108
 20
72.568807690369795
 30
0.0
 11
364.06049140549749
 21
73.976507164923547
 31
0.0
  0
LINE
  5
2656
  8
TITLE
 10
364.4308613952162
 20
71.553761229954944
 30
0.0
 11
364.82026389056051
 21
71.943163725298973
 31
0.0
  0
LINE
  5
2657
  8
TITLE
 10
364.36607854066818
 20
71.663548120693818
 30
0.0
 11
364.64569414526602
 21
71.943163725298973
 31
0.0
  0
LINE
  5
2658
  8
TITLE
 10
364.30129568610568
 20
71.773335011432664
 30
0.0
 11
364.47112439997079
 21
71.943163725298973
 31
0.0
  0
LINE
  5
2659
  8
TITLE
 10
364.23651283155692
 20
71.883121902170629
 30
0.0
 11
364.29655465467658
 21
71.943163725298973
 31
0.0
  0
LINE
  5
265A
  8
TITLE
 10
362.47822218565773
 20
72.568807690369795
 30
0.0
 11
363.88592166020322
 21
73.976507164923547
 31
0.0
  0
LINE
  5
265B
  8
TITLE
 10
362.30365244036238
 20
72.568807690369795
 30
0.0
 11
363.71135191490879
 21
73.976507164923547
 31
0.0
  0
LINE
  5
265C
  8
TITLE
 10
362.12908269506721
 20
72.568807690369795
 30
0.0
 11
363.53678216961538
 21
73.976507164923547
 31
0.0
  0
LINE
  5
265D
  8
TITLE
 10
361.95451294977369
 20
72.568807690369795
 30
0.0
 11
363.36221242432021
 21
73.976507164923547
 31
0.0
  0
LINE
  5
265E
  8
TITLE
 10
361.77994320448028
 20
72.568807690369795
 30
0.0
 11
363.18764267902679
 21
73.976507164923547
 31
0.0
  0
LINE
  5
265F
  8
TITLE
 10
361.60537345918601
 20
72.568807690369795
 30
0.0
 11
363.013072933746
 21
73.976507164923547
 31
0.0
  0
LINE
  5
2660
  8
TITLE
 10
362.15670787461482
 20
68.581328728176459
 30
0.0
 11
363.73912978813593
 21
70.163750641696424
 31
0.0
  0
LINE
  5
2661
  8
TITLE
 10
361.98213812932039
 20
68.581328728176459
 30
0.0
 11
363.46296277216152
 21
70.062153371016862
 31
0.0
  0
LINE
  5
2662
  8
TITLE
 10
361.80756838402601
 20
68.581328728176459
 30
0.0
 11
363.24845785566231
 21
70.022218199812428
 31
0.0
  0
LINE
  5
2663
  8
TITLE
 10
361.63299863873192
 20
68.581328728176459
 30
0.0
 11
363.06576390359169
 21
70.014093993043616
 31
0.0
  0
LINE
  5
2664
  8
TITLE
 10
365.62047760092628
 20
72.568807690369795
 30
0.0
 11
367.02817707547268
 21
73.976507164923547
 31
0.0
  0
LINE
  5
2665
  8
TITLE
 10
365.44590785563202
 20
72.568807690369795
 30
0.0
 11
366.85360733017842
 21
73.976507164923547
 31
0.0
  0
LINE
  5
2666
  8
TITLE
 10
365.27133811033758
 20
72.568807690369795
 30
0.0
 11
366.67903758489769
 21
73.976507164923547
 31
0.0
  0
LINE
  5
2667
  8
TITLE
 10
365.09676836504332
 20
72.568807690369795
 30
0.0
 11
366.50446783960331
 21
73.976507164923547
 31
0.0
  0
LINE
  5
2668
  8
TITLE
 10
366.14418683680822
 20
72.568807690369795
 30
0.0
 11
367.55188631135479
 21
73.976507164923547
 31
0.0
  0
LINE
  5
2669
  8
TITLE
 10
365.96961709151401
 20
72.568807690369795
 30
0.0
 11
367.37731656606138
 21
73.976507164923547
 31
0.0
  0
LINE
  5
266A
  8
TITLE
 10
365.79504734621969
 20
72.568807690369795
 30
0.0
 11
367.20274682076609
 21
73.976507164923547
 31
0.0
  0
LINE
  5
266B
  8
TITLE
 10
364.92219861976258
 20
72.568807690369795
 30
0.0
 11
366.32989809430921
 21
73.976507164923547
 31
0.0
  0
LINE
  5
266C
  8
TITLE
 10
366.17999846817111
 20
68.589515180006174
 30
0.0
 11
367.29625183193372
 21
69.705768543754857
 31
0.0
  0
LINE
  5
266D
  8
TITLE
 10
366.1152156136223
 20
68.699302070744579
 30
0.0
 11
367.23146897737121
 21
69.815555434500766
 31
0.0
  0
LINE
  5
266E
  8
TITLE
 10
365.66173563173942
 20
69.467810305915691
 30
0.0
 11
366.77798899550362
 21
70.584063669670968
 31
0.0
  0
LINE
  5
266F
  8
TITLE
 10
365.59695277719118
 20
69.577597196660463
 30
0.0
 11
366.7132061409402
 21
70.693850560409587
 31
0.0
  0
LINE
  5
2670
  8
TITLE
 10
365.53216992264242
 20
69.687384087392502
 30
0.0
 11
366.64842328639139
 21
70.803637451149143
 31
0.0
  0
LINE
  5
2671
  8
TITLE
 10
366.05043275907337
 20
68.809088961483667
 30
0.0
 11
367.16668612282319
 21
69.925342325233032
 31
0.0
  0
LINE
  5
2672
  8
TITLE
 10
365.98564990451092
 20
68.918875852221845
 30
0.0
 11
367.10190326827433
 21
70.035129215978486
 31
0.0
  0
LINE
  5
2673
  8
TITLE
 10
365.920867049962
 20
69.028662742960478
 30
0.0
 11
367.03712041371182
 21
70.144916106709616
 31
0.0
  0
LINE
  5
2674
  8
TITLE
 10
365.85608419539949
 20
69.138449633699565
 30
0.0
 11
366.97233755916301
 21
70.254702997455524
 31
0.0
  0
LINE
  5
2675
  8
TITLE
 10
365.79130134085051
 20
69.248236524437289
 30
0.0
 11
366.90755470460039
 21
70.364489888186654
 31
0.0
  0
LINE
  5
2676
  8
TITLE
 10
365.7265184863017
 20
69.358023415176604
 30
0.0
 11
366.84277185005158
 21
70.474276778932804
 31
0.0
  0
LINE
  5
2677
  8
TITLE
 10
367.88988428973778
 20
72.568807690369795
 30
0.0
 11
367.9597592920328
 21
72.638682692680263
 31
0.0
  0
LINE
  5
2678
  8
TITLE
 10
367.71531454444278
 20
72.568807690369795
 30
0.0
 11
367.9597592920328
 21
72.813252437966867
 31
0.0
  0
LINE
  5
2679
  8
TITLE
 10
367.54074479914931
 20
72.568807690369795
 30
0.0
 11
367.9597592920328
 21
72.9878221832614
 31
0.0
  0
LINE
  5
267A
  8
TITLE
 10
367.19160530856061
 20
72.568807690369795
 30
0.0
 11
367.9597592920328
 21
73.336961673842524
 31
0.0
  0
LINE
  5
267B
  8
TITLE
 10
367.01703556326538
 20
72.568807690369795
 30
0.0
 11
367.9597592920328
 21
73.511531419137313
 31
0.0
  0
LINE
  5
267C
  8
TITLE
 10
366.84246581797112
 20
72.568807690369795
 30
0.0
 11
367.9597592920328
 21
73.68610116443142
 31
0.0
  0
LINE
  5
267D
  8
TITLE
 10
366.6678960726922
 20
72.568807690369795
 30
0.0
 11
367.9597592920328
 21
73.860670909725727
 31
0.0
  0
LINE
  5
267E
  8
TITLE
 10
366.49332632739782
 20
72.568807690369795
 30
0.0
 11
367.90102580194429
 21
73.976507164923547
 31
0.0
  0
LINE
  5
267F
  8
TITLE
 10
366.31875658210282
 20
72.568807690369795
 30
0.0
 11
367.72645605664911
 21
73.976507164923547
 31
0.0
  0
LINE
  5
2680
  8
TITLE
 10
367.36617505385402
 20
72.568807690369795
 30
0.0
 11
367.9597592920328
 21
73.16239192855528
 31
0.0
  0
LINE
  5
2681
  8
TITLE
 10
367.91750946928369
 20
68.581328728176459
 30
0.0
 11
367.94408037746331
 21
68.607899636369211
 31
0.0
  0
LINE
  5
2682
  8
TITLE
 10
367.74293972399028
 20
68.581328728176459
 30
0.0
 11
367.87929752291433
 21
68.717686527108071
 31
0.0
  0
LINE
  5
2683
  8
TITLE
 10
367.56836997869488
 20
68.581328728176459
 30
0.0
 11
367.81451466836552
 21
68.82747341784625
 31
0.0
  0
LINE
  5
2684
  8
TITLE
 10
367.39380023340158
 20
68.581328728176459
 30
0.0
 11
367.74973181380312
 21
68.937260308585351
 31
0.0
  0
LINE
  5
2685
  8
TITLE
 10
367.2192304881072
 20
68.581328728176459
 30
0.0
 11
367.68494895925409
 21
69.047047199323742
 31
0.0
  0
LINE
  5
2686
  8
TITLE
 10
367.04466074281203
 20
68.581328728176459
 30
0.0
 11
367.62016610470619
 21
69.156834090062148
 31
0.0
  0
LINE
  5
2687
  8
TITLE
 10
366.87009099751782
 20
68.581328728176459
 30
0.0
 11
367.55538325014282
 21
69.266620980800994
 31
0.0
  0
LINE
  5
2688
  8
TITLE
 10
366.6955212522235
 20
68.581328728176459
 30
0.0
 11
367.49060039559481
 21
69.376407871546462
 31
0.0
  0
LINE
  5
2689
  8
TITLE
 10
366.52095150692912
 20
68.581328728176459
 30
0.0
 11
367.42581754103128
 21
69.486194762278274
 31
0.0
  0
LINE
  5
268A
  8
TITLE
 10
366.3463817616348
 20
68.581328728176459
 30
0.0
 11
367.36103468648338
 21
69.595981653023955
 31
0.0
  0
LINE
  5
268B
  8
TITLE
 10
369.0716782306489
 20
72.528613414235664
 30
0.0
 11
369.43154212153792
 21
72.888477305124752
 31
0.0
  0
LINE
  5
268C
  8
TITLE
 10
369.0716782306489
 20
72.703183159529999
 30
0.0
 11
369.20351170309641
 21
72.835016631978291
 31
0.0
  0
LINE
  5
268D
  8
TITLE
 10
359.8842980088512
 20
74.86283638176883
 30
0.0
 11
361.44840853612368
 21
76.426946909048866
 31
0.0
  0
LINE
  5
268E
  8
TITLE
 10
359.70972826355592
 20
74.86283638176883
 30
0.0
 11
361.27383879082839
 21
76.426946909048866
 31
0.0
  0
LINE
  5
268F
  8
TITLE
 10
359.53515851826251
 20
74.86283638176883
 30
0.0
 11
361.09926904553407
 21
76.426946909048866
 31
0.0
  0
LINE
  5
2690
  8
TITLE
 10
359.36058877296819
 20
74.86283638176883
 30
0.0
 11
360.92469930025533
 21
76.426946909048866
 31
0.0
  0
LINE
  5
2691
  8
TITLE
 10
359.18601902767398
 20
74.86283638176883
 30
0.0
 11
360.75012955495998
 21
76.426946909048866
 31
0.0
  0
LINE
  5
2692
  8
TITLE
 10
359.01144928237949
 20
74.86283638176883
 30
0.0
 11
360.57555980966572
 21
76.426946909048866
 31
0.0
  0
LINE
  5
2693
  8
TITLE
 10
358.83687953708522
 20
74.86283638176883
 30
0.0
 11
360.40099006437231
 21
76.426946909048866
 31
0.0
  0
LINE
  5
2694
  8
TITLE
 10
358.66230979179079
 20
74.86283638176883
 30
0.0
 11
360.22642031907708
 21
76.426946909048866
 31
0.0
  0
LINE
  5
2695
  8
TITLE
 10
359.14720345641479
 20
72.030904885822309
 30
0.0
 11
361.0928057355232
 21
73.976507164923547
 31
0.0
  0
LINE
  5
2696
  8
TITLE
 10
359.17600023098208
 20
72.234271405677404
 30
0.0
 11
360.91823599022882
 21
73.976507164923547
 31
0.0
  0
LINE
  5
2697
  8
TITLE
 10
359.18835041971852
 20
72.421191339699817
 30
0.0
 11
360.7436662449345
 21
73.976507164923547
 31
0.0
  0
LINE
  5
2698
  8
TITLE
 10
360.06187093109747
 20
68.581328728176459
 30
0.0
 11
361.49463619595741
 21
70.014093993043616
 31
0.0
  0
LINE
  5
2699
  8
TITLE
 10
359.88730118580401
 20
68.581328728176459
 30
0.0
 11
361.32006645066309
 21
70.014093993043616
 31
0.0
  0
LINE
  5
269A
  8
TITLE
 10
359.71273144050889
 20
68.581328728176459
 30
0.0
 11
361.14549670536871
 21
70.014093993043616
 31
0.0
  0
LINE
  5
269B
  8
TITLE
 10
359.53816169521451
 20
68.581328728176459
 30
0.0
 11
360.97092696008912
 21
70.014093993043616
 31
0.0
  0
LINE
  5
269C
  8
TITLE
 10
359.36359194992019
 20
68.581328728176459
 30
0.0
 11
360.79635721479463
 21
70.014093993043616
 31
0.0
  0
LINE
  5
269D
  8
TITLE
 10
359.00912087846967
 20
71.543682817288527
 30
0.0
 11
361.44194522609718
 21
73.976507164923547
 31
0.0
  0
LINE
  5
269E
  8
TITLE
 10
359.09575472319187
 20
71.804886407304807
 30
0.0
 11
361.26737548081752
 21
73.976507164923547
 31
0.0
  0
LINE
  5
269F
  8
TITLE
 10
359.16139702509372
 20
72.568807690369795
 30
0.0
 11
360.56909649964018
 21
73.976507164923547
 31
0.0
  0
LINE
  5
26A0
  8
TITLE
 10
359.18902220462593
 20
68.581328728176459
 30
0.0
 11
360.6217874695003
 21
70.014093993043616
 31
0.0
  0
LINE
  5
26A1
  8
TITLE
 10
358.9868272797994
 20
72.568807690369795
 30
0.0
 11
360.39452675434592
 21
73.976507164923547
 31
0.0
  0
LINE
  5
26A2
  8
TITLE
 10
359.01445245934519
 20
68.581328728176459
 30
0.0
 11
360.44721772420678
 21
70.014093993043616
 31
0.0
  0
LINE
  5
26A3
  8
TITLE
 10
358.81225753450508
 20
72.568807690369795
 30
0.0
 11
360.21995700905148
 21
73.976507164923547
 31
0.0
  0
LINE
  5
26A4
  8
TITLE
 10
358.6376877892107
 20
72.568807690369795
 30
0.0
 11
360.04538726375722
 21
73.976507164923547
 31
0.0
  0
LINE
  5
26A5
  8
TITLE
 10
358.83988271405173
 20
68.581328728176459
 30
0.0
 11
360.27264797891161
 21
70.014093993043616
 31
0.0
  0
LINE
  5
26A6
  8
TITLE
 10
358.66531296875741
 20
68.581328728176459
 30
0.0
 11
360.09807823361729
 21
70.014093993043616
 31
0.0
  0
LINE
  5
26A7
  8
TITLE
 10
360.58558016698038
 20
68.581328728176459
 30
0.0
 11
362.01834543184032
 21
70.014093993043616
 31
0.0
  0
LINE
  5
26A8
  8
TITLE
 10
360.41101042168611
 20
68.581328728176459
 30
0.0
 11
361.843775686546
 21
70.014093993043616
 31
0.0
  0
LINE
  5
26A9
  8
TITLE
 10
360.23644067639168
 20
68.581328728176459
 30
0.0
 11
361.66920594125168
 21
70.014093993043616
 31
0.0
  0
LINE
  5
26AA
  8
TITLE
 10
358.8519419252907
 20
71.211934118821546
 30
0.0
 11
361.61651497139161
 21
73.976507164923547
 31
0.0
  0
LINE
  5
26AB
  8
TITLE
 10
361.08166422331681
 20
72.568807690369795
 30
0.0
 11
362.48936369786321
 21
73.976507164923547
 31
0.0
  0
LINE
  5
26AC
  8
TITLE
 10
361.10928940284981
 20
68.581328728176459
 30
0.0
 11
362.54205466772322
 21
70.014093993043616
 31
0.0
  0
LINE
  5
26AD
  8
TITLE
 10
360.93471965756902
 20
68.581328728176459
 30
0.0
 11
362.36748492242901
 21
70.014093993043616
 31
0.0
  0
LINE
  5
26AE
  8
TITLE
 10
360.76014991227572
 20
68.581328728176459
 30
0.0
 11
362.19291517713458
 21
70.014093993043616
 31
0.0
  0
LINE
  5
26AF
  8
TITLE
 10
361.43080371389078
 20
72.568807690369795
 30
0.0
 11
362.83850318845191
 21
73.976507164923547
 31
0.0
  0
LINE
  5
26B0
  8
TITLE
 10
361.25623396861113
 20
72.568807690369795
 30
0.0
 11
362.66393344315833
 21
73.976507164923547
 31
0.0
  0
LINE
  5
26B1
  8
TITLE
 10
361.45842889343828
 20
68.581328728176459
 30
0.0
 11
362.89119415829839
 21
70.014093993043616
 31
0.0
  0
LINE
  5
26B2
  8
TITLE
 10
361.28385914814407
 20
68.581328728176459
 30
0.0
 11
362.7166244130176
 21
70.014093993043616
 31
0.0
  0
LINE
  5
26B3
  8
TITLE
 10
360.58257699001382
 20
74.86283638176883
 30
0.0
 11
362.1466875173009
 21
76.426946909048866
 31
0.0
  0
LINE
  5
26B4
  8
TITLE
 10
360.40800724473411
 20
74.86283638176883
 30
0.0
 11
361.97211777200567
 21
76.426946909048866
 31
0.0
  0
LINE
  5
26B5
  8
TITLE
 10
360.23343749943888
 20
74.86283638176883
 30
0.0
 11
361.79754802671232
 21
76.426946909048866
 31
0.0
  0
LINE
  5
26B6
  8
TITLE
 10
360.05886775414461
 20
74.86283638176883
 30
0.0
 11
361.622978281418
 21
76.426946909048866
 31
0.0
  0
LINE
  5
26B7
  8
TITLE
 10
360.93171648060252
 20
74.86283638176883
 30
0.0
 11
362.4958270078896
 21
76.426946909048866
 31
0.0
  0
LINE
  5
26B8
  8
TITLE
 10
360.7571467353082
 20
74.86283638176883
 30
0.0
 11
362.32125726259522
 21
76.426946909048866
 31
0.0
  0
LINE
  5
26B9
  8
TITLE
 10
361.45542571648463
 20
74.86283638176883
 30
0.0
 11
363.0195362437571
 21
76.426946909048866
 31
0.0
  0
LINE
  5
26BA
  8
TITLE
 10
361.28085597119212
 20
74.86283638176883
 30
0.0
 11
362.84496649846369
 21
76.426946909048866
 31
0.0
  0
LINE
  5
26BB
  8
TITLE
 10
361.10628622589689
 20
74.86283638176883
 30
0.0
 11
362.67039675318313
 21
76.426946909048866
 31
0.0
  0
LINE
  5
26BC
  8
TITLE
 10
379.8480814913836
 20
75.449378136790756
 30
0.0
 11
379.96521422783371
 21
75.566510873234151
 31
0.0
  0
LINE
  5
26BD
  8
TITLE
 10
379.67351174608848
 20
75.449378136790756
 30
0.0
 11
379.96521422783371
 21
75.741080618528486
 31
0.0
  0
LINE
  5
26BE
  8
TITLE
 10
379.49894200079513
 20
75.449378136790756
 30
0.0
 11
379.96521422783371
 21
75.915650363823474
 31
0.0
  0
LINE
  5
26BF
  8
TITLE
 10
379.3243722555008
 20
75.449378136790756
 30
0.0
 11
379.96521422783371
 21
76.09022010911734
 31
0.0
  0
LINE
  5
26C0
  8
TITLE
 10
379.14980251022001
 20
75.449378136790756
 30
0.0
 11
379.96521422783371
 21
76.264789854411447
 31
0.0
  0
LINE
  5
26C1
  8
TITLE
 10
378.62609327433802
 20
75.449378136790756
 30
0.0
 11
379.96521422783371
 21
76.788499090294408
 31
0.0
  0
LINE
  5
26C2
  8
TITLE
 10
378.97523276492677
 20
75.449378136790756
 30
0.0
 11
379.96521422783371
 21
76.43935959970554
 31
0.0
  0
LINE
  5
26C3
  8
TITLE
 10
378.80066301963228
 20
75.449378136790756
 30
0.0
 11
379.96521422783371
 21
76.613929345000102
 31
0.0
  0
LINE
  5
26C4
  8
TITLE
 10
372.95135234730151
 20
72.567753134442455
 30
0.0
 11
374.07843030087508
 21
73.694831088023648
 31
0.0
  0
LINE
  5
26C5
  8
TITLE
 10
372.85290350162802
 20
72.643874034056125
 30
0.0
 11
373.99344861963272
 21
73.78441915206713
 31
0.0
  0
LINE
  5
26C6
  8
TITLE
 10
372.805462337481
 20
68.581328728176459
 30
0.0
 11
372.83035453108829
 21
68.606220921783006
 31
0.0
  0
LINE
  5
26C7
  8
TITLE
 10
372.63089259218759
 20
68.581328728176459
 30
0.0
 11
372.83035453108829
 21
68.780790667069823
 31
0.0
  0
LINE
  5
26C8
  8
TITLE
 10
376.50169030723748
 20
72.102986952638048
 30
0.0
 11
378.2585501112809
 21
73.859846756695546
 31
0.0
  0
LINE
  5
26C9
  8
TITLE
 10
376.9951362245165
 20
68.581328728176459
 30
0.0
 11
378.69961562005028
 21
70.285808123717061
 31
0.0
  0
LINE
  5
26CA
  8
TITLE
 10
376.82056647922218
 20
68.581328728176459
 30
0.0
 11
378.5250458747559
 21
70.285808123717061
 31
0.0
  0
LINE
  5
26CB
  8
TITLE
 10
376.64599673392792
 20
68.581328728176459
 30
0.0
 11
378.35047612946158
 21
70.285808123717061
 31
0.0
  0
LINE
  5
26CC
  8
TITLE
 10
376.4714269886336
 20
68.581328728176459
 30
0.0
 11
378.2585501112809
 21
70.368451850831434
 31
0.0
  0
LINE
  5
26CD
  8
TITLE
 10
376.29685724333831
 20
68.581328728176459
 30
0.0
 11
378.2585501112809
 21
70.543021596125541
 31
0.0
  0
LINE
  5
26CE
  8
TITLE
 10
376.1222874980449
 20
68.581328728176459
 30
0.0
 11
378.2585501112809
 21
70.717591341412344
 31
0.0
  0
LINE
  5
26CF
  8
TITLE
 10
375.94771775275058
 20
68.581328728176459
 30
0.0
 11
378.2585501112809
 21
70.892161086706196
 31
0.0
  0
LINE
  5
26D0
  8
TITLE
 10
375.7731480074562
 20
68.581328728176459
 30
0.0
 11
378.2585501112809
 21
71.066730832000985
 31
0.0
  0
LINE
  5
26D1
  8
TITLE
 10
375.59857826216182
 20
68.581328728176459
 30
0.0
 11
378.2585501112809
 21
71.241300577295533
 31
0.0
  0
LINE
  5
26D2
  8
TITLE
 10
375.42400851688222
 20
68.581328728176459
 30
0.0
 11
378.2585501112809
 21
71.415870322590081
 31
0.0
  0
LINE
  5
26D3
  8
TITLE
 10
376.50169030723748
 20
71.579277716755314
 30
0.0
 11
378.2585501112809
 21
73.336137520813068
 31
0.0
  0
LINE
  5
26D4
  8
TITLE
 10
376.50169030723748
 20
71.753847462049393
 30
0.0
 11
378.2585501112809
 21
73.51070726610692
 31
0.0
  0
LINE
  5
26D5
  8
TITLE
 10
376.50169030723748
 20
71.9284172073435
 30
0.0
 11
378.2585501112809
 21
73.68527701140124
 31
0.0
  0
LINE
  5
26D6
  8
TITLE
 10
376.50169030723748
 20
70.357289499709395
 30
0.0
 11
378.2585501112809
 21
72.114149303759618
 31
0.0
  0
LINE
  5
26D7
  8
TITLE
 10
376.50169030723748
 20
70.531859245003716
 30
0.0
 11
378.2585501112809
 21
72.28871904905462
 31
0.0
  0
LINE
  5
26D8
  8
TITLE
 10
376.50169030723748
 20
70.706428990298718
 30
0.0
 11
378.2585501112809
 21
72.463288794348273
 31
0.0
  0
LINE
  5
26D9
  8
TITLE
 10
376.50169030723748
 20
70.880998735592357
 30
0.0
 11
378.2585501112809
 21
72.637858539635317
 31
0.0
  0
LINE
  5
26DA
  8
TITLE
 10
376.50169030723748
 20
71.055568480879856
 30
0.0
 11
378.2585501112809
 21
72.812428284929624
 31
0.0
  0
LINE
  5
26DB
  8
TITLE
 10
376.50169030723748
 20
71.230138226173722
 30
0.0
 11
378.2585501112809
 21
72.986998030223504
 31
0.0
  0
LINE
  5
26DC
  8
TITLE
 10
376.50169030723748
 20
71.40470797146827
 30
0.0
 11
378.2585501112809
 21
73.161567775518051
 31
0.0
  0
LINE
  5
26DD
  8
TITLE
 10
375.24943877158779
 20
68.581328728176459
 30
0.0
 11
378.2585501112809
 21
71.590440067883719
 31
0.0
  0
LINE
  5
26DE
  8
TITLE
 10
375.07486902629353
 20
68.581328728176459
 30
0.0
 11
378.2585501112809
 21
71.765009813178494
 31
0.0
  0
LINE
  5
26DF
  8
TITLE
 10
374.90029928099921
 20
68.581328728176459
 30
0.0
 11
378.2585501112809
 21
71.93957955847236
 31
0.0
  0
LINE
  5
26E0
  8
TITLE
 10
376.50169030723748
 20
72.277556697932596
 30
0.0
 11
378.2585501112809
 21
74.034416501982591
 31
0.0
  0
LINE
  5
26E1
  8
TITLE
 10
374.19267420450069
 20
69.968540595195009
 30
0.0
 11
374.50994173301478
 21
70.285808123717061
 31
0.0
  0
LINE
  5
26E2
  8
TITLE
 10
374.19267420450069
 20
69.79397084990137
 30
0.0
 11
374.68451147831001
 21
70.285808123717061
 31
0.0
  0
LINE
  5
26E3
  8
TITLE
 10
374.19267420450069
 20
69.095691868723861
 30
0.0
 11
375.3827904594873
 21
70.285808123717061
 31
0.0
  0
LINE
  5
26E4
  8
TITLE
 10
374.19267420450069
 20
69.270261614018395
 30
0.0
 11
375.20822071419212
 21
70.285808123717061
 31
0.0
  0
LINE
  5
26E5
  8
TITLE
 10
374.19267420450069
 20
69.444831359312275
 30
0.0
 11
375.0336509688978
 21
70.285808123717061
 31
0.0
  0
LINE
  5
26E6
  8
TITLE
 10
374.19267420450069
 20
69.619401104606595
 30
0.0
 11
374.85908122360343
 21
70.285808123717061
 31
0.0
  0
LINE
  5
26E7
  8
TITLE
 10
373.64049426702979
 20
72.034906837124481
 30
0.0
 11
374.50087743504889
 21
72.895290005143821
 31
0.0
  0
LINE
  5
26E8
  8
TITLE
 10
373.3451477300095
 20
72.263269535972753
 30
0.0
 11
374.41835702589111
 21
73.336478831861541
 31
0.0
  0
LINE
  5
26E9
  8
TITLE
 10
373.2466988843226
 20
72.339390435594382
 30
0.0
 11
374.33337534463408
 21
73.426066895905464
 31
0.0
  0
LINE
  5
26EA
  8
TITLE
 10
373.14825003864831
 20
72.415511335207626
 30
0.0
 11
374.24839366338972
 21
73.515654959942381
 31
0.0
  0
LINE
  5
26EB
  8
TITLE
 10
373.04980119297579
 20
72.491632234821736
 30
0.0
 11
374.16341198213291
 21
73.605243023979696
 31
0.0
  0
LINE
  5
26EC
  8
TITLE
 10
373.54204542135631
 20
72.111027736745655
 30
0.0
 11
374.50087743504889
 21
73.069859750437644
 31
0.0
  0
LINE
  5
26ED
  8
TITLE
 10
373.44359657568299
 20
72.187148636359552
 30
0.0
 11
374.50087743504889
 21
73.24442949573222
 31
0.0
  0
LINE
  5
26EE
  8
TITLE
 10
374.32963618677149
 20
71.502060539813783
 30
0.0
 11
374.50087743504889
 21
71.673301788098343
 31
0.0
  0
LINE
  5
26EF
  8
TITLE
 10
374.23118734109812
 20
71.578181439427453
 30
0.0
 11
374.50087743504889
 21
71.847871533392436
 31
0.0
  0
LINE
  5
26F0
  8
TITLE
 10
374.42808503244481
 20
71.425939640199445
 30
0.0
 11
374.50087743504889
 21
71.49873204280334
 31
0.0
  0
LINE
  5
26F1
  8
TITLE
 10
374.19267420450069
 20
70.143110340489784
 30
0.0
 11
374.33537198772137
 21
70.285808123717061
 31
0.0
  0
LINE
  5
26F2
  8
TITLE
 10
374.1327384954248
 20
71.654302339048627
 30
0.0
 11
374.50087743504889
 21
72.02244127867948
 31
0.0
  0
LINE
  5
26F3
  8
TITLE
 10
374.03428964973767
 20
71.730423238662297
 30
0.0
 11
374.50087743504889
 21
72.197011023973559
 31
0.0
  0
LINE
  5
26F4
  8
TITLE
 10
373.93584080406441
 20
71.806544138275513
 30
0.0
 11
374.50087743504889
 21
72.371580769267652
 31
0.0
  0
LINE
  5
26F5
  8
TITLE
 10
373.83739195839098
 20
71.882665037897141
 30
0.0
 11
374.50087743504889
 21
72.546150514554483
 31
0.0
  0
LINE
  5
26F6
  8
TITLE
 10
373.73894311271761
 20
71.958785937510356
 30
0.0
 11
374.50087743504889
 21
72.720720259849017
 31
0.0
  0
LINE
  5
26F7
  8
TITLE
 10
374.20202029982192
 20
68.581328728176459
 30
0.0
 11
375.90649969535491
 21
70.285808123717061
 31
0.0
  0
LINE
  5
26F8
  8
TITLE
 10
374.19267420450069
 20
68.746552378142496
 30
0.0
 11
375.73192995007508
 21
70.285808123717061
 31
0.0
  0
LINE
  5
26F9
  8
TITLE
 10
374.19267420450069
 20
68.921122123430223
 30
0.0
 11
375.55736020478071
 21
70.285808123717061
 31
0.0
  0
LINE
  5
26FA
  8
TITLE
 10
374.37659004511619
 20
68.581328728176459
 30
0.0
 11
376.08106944065003
 21
70.285808123717061
 31
0.0
  0
LINE
  5
26FB
  8
TITLE
 10
374.72572953570489
 20
68.581328728176459
 30
0.0
 11
376.4302089312377
 21
70.285808123717061
 31
0.0
  0
LINE
  5
26FC
  8
TITLE
 10
374.55115979041062
 20
68.581328728176459
 30
0.0
 11
376.2556391859444
 21
70.285808123717061
 31
0.0
  0
LINE
  5
26FD
  8
TITLE
 10
380.31196138507943
 20
68.581328728176459
 30
0.0
 11
380.46717390498731
 21
68.736541248083768
 31
0.0
  0
LINE
  5
26FE
  8
TITLE
 10
379.78825214919652
 20
68.581328728176459
 30
0.0
 11
380.46717390498731
 21
69.260250483966729
 31
0.0
  0
LINE
  5
26FF
  8
TITLE
 10
379.6136824039022
 20
68.581328728176459
 30
0.0
 11
380.46717390498731
 21
69.434820229253774
 31
0.0
  0
LINE
  5
2700
  8
TITLE
 10
379.43911265860788
 20
68.581328728176459
 30
0.0
 11
380.46717390498731
 21
69.609389974548321
 31
0.0
  0
LINE
  5
2701
  8
TITLE
 10
379.26454291331351
 20
68.581328728176459
 30
0.0
 11
380.46717390498731
 21
69.783959719835138
 31
0.0
  0
LINE
  5
2702
  8
TITLE
 10
380.13739163978522
 20
68.581328728176459
 30
0.0
 11
380.46717390498731
 21
68.911110993378529
 31
0.0
  0
LINE
  5
2703
  8
TITLE
 10
379.9628218944917
 20
68.581328728176459
 30
0.0
 11
380.46717390498731
 21
69.085680738672181
 31
0.0
  0
LINE
  5
2704
  8
TITLE
 10
379.08997316803283
 20
68.581328728176459
 30
0.0
 11
380.46717390498731
 21
69.958529465129914
 31
0.0
  0
LINE
  5
2705
  8
TITLE
 10
377.16970596981082
 20
68.581328728176459
 30
0.0
 11
378.87418536534369
 21
70.285808123717061
 31
0.0
  0
LINE
  5
2706
  8
TITLE
 10
378.91540342273942
 20
68.581328728176459
 30
0.0
 11
380.46717390498731
 21
70.133099210423552
 31
0.0
  0
LINE
  5
2707
  8
TITLE
 10
378.7408336774451
 20
68.581328728176459
 30
0.0
 11
380.44531307297888
 21
70.285808123717061
 31
0.0
  0
LINE
  5
2708
  8
TITLE
 10
378.56626393214998
 20
68.581328728176459
 30
0.0
 11
380.2707433276837
 21
70.285808123717061
 31
0.0
  0
LINE
  5
2709
  8
TITLE
 10
378.39169418685651
 20
68.581328728176459
 30
0.0
 11
380.09617358238938
 21
70.285808123717061
 31
0.0
  0
LINE
  5
270A
  8
TITLE
 10
378.21712444156219
 20
68.581328728176459
 30
0.0
 11
379.92160383709609
 21
70.285808123717061
 31
0.0
  0
LINE
  5
270B
  8
TITLE
 10
378.04255469626793
 20
68.581328728176459
 30
0.0
 11
379.74703409180171
 21
70.285808123717061
 31
0.0
  0
LINE
  5
270C
  8
TITLE
 10
377.86798495097361
 20
68.581328728176459
 30
0.0
 11
379.57246434650727
 21
70.285808123717061
 31
0.0
  0
LINE
  5
270D
  8
TITLE
 10
377.6934152056802
 20
68.581328728176459
 30
0.0
 11
379.39789460122762
 21
70.285808123717061
 31
0.0
  0
LINE
  5
270E
  8
TITLE
 10
377.51884546038491
 20
68.581328728176459
 30
0.0
 11
379.2233248559333
 21
70.285808123717061
 31
0.0
  0
LINE
  5
270F
  8
TITLE
 10
377.34427571510508
 20
68.581328728176459
 30
0.0
 11
379.04875511063801
 21
70.285808123717061
 31
0.0
  0
LINE
  5
2710
  8
TITLE
 10
371.15983209413122
 20
71.125372371853018
 30
0.0
 11
373.90846693837477
 21
73.874007216103792
 31
0.0
  0
LINE
  5
2711
  8
TITLE
 10
371.15983209413122
 20
71.299942117147793
 30
0.0
 11
373.82348525711768
 21
73.963595280140908
 31
0.0
  0
LINE
  5
2712
  8
TITLE
 10
371.15983209413122
 20
71.474511862441432
 30
0.0
 11
373.7385035758744
 21
74.053183344178265
 31
0.0
  0
LINE
  5
2713
  8
TITLE
 10
371.15983209413122
 20
69.903384154800037
 30
0.0
 11
372.83035453108829
 21
71.573906591756653
 31
0.0
  0
LINE
  5
2714
  8
TITLE
 10
371.15983209413122
 20
70.077953900094599
 30
0.0
 11
372.83035453108829
 21
71.748476337051912
 31
0.0
  0
LINE
  5
2715
  8
TITLE
 10
371.15983209413122
 20
70.252523645388692
 30
0.0
 11
372.83035453108829
 21
71.923046082345536
 31
0.0
  0
LINE
  5
2716
  8
TITLE
 10
372.45632284689322
 20
68.581328728176459
 30
0.0
 11
372.83035453108829
 21
68.955360412364371
 31
0.0
  0
LINE
  5
2717
  8
TITLE
 10
372.28175310159889
 20
68.581328728176459
 30
0.0
 11
372.83035453108829
 21
69.129930157657782
 31
0.0
  0
LINE
  5
2718
  8
TITLE
 10
372.10718335630372
 20
68.581328728176459
 30
0.0
 11
372.83035453108829
 21
69.304499902945054
 31
0.0
  0
LINE
  5
2719
  8
TITLE
 10
371.93261361101031
 20
68.581328728176459
 30
0.0
 11
372.83035453108829
 21
69.479069648239388
 31
0.0
  0
LINE
  5
271A
  8
TITLE
 10
371.75804386572969
 20
68.581328728176459
 30
0.0
 11
372.83035453108829
 21
69.653639393534149
 31
0.0
  0
LINE
  5
271B
  8
TITLE
 10
371.58347412043531
 20
68.581328728176459
 30
0.0
 11
372.83035453108829
 21
69.828209138828456
 31
0.0
  0
LINE
  5
271C
  8
TITLE
 10
371.15983209413122
 20
69.728814409513461
 30
0.0
 11
372.83035453108829
 21
71.399336846462333
 31
0.0
  0
LINE
  5
271D
  8
TITLE
 10
371.4089043751419
 20
68.581328728176459
 30
0.0
 11
372.83035453108829
 21
70.002778884122094
 31
0.0
  0
LINE
  5
271E
  8
TITLE
 10
371.23433462984758
 20
68.581328728176459
 30
0.0
 11
372.83035453108829
 21
70.177348629416656
 31
0.0
  0
LINE
  5
271F
  8
TITLE
 10
371.15983209413122
 20
68.681395937754132
 30
0.0
 11
372.83035453108829
 21
70.351918374711659
 31
0.0
  0
LINE
  5
2720
  8
TITLE
 10
371.15983209413122
 20
68.855965683049149
 30
0.0
 11
372.83035453108829
 21
70.526488120005297
 31
0.0
  0
LINE
  5
2721
  8
TITLE
 10
371.15983209413122
 20
69.030535428342773
 30
0.0
 11
372.83035453108829
 21
70.701057865292341
 31
0.0
  0
LINE
  5
2722
  8
TITLE
 10
371.15983209413122
 20
69.205105173637776
 30
0.0
 11
372.83035453108829
 21
70.875627610586889
 31
0.0
  0
LINE
  5
2723
  8
TITLE
 10
371.15983209413122
 20
69.379674918924366
 30
0.0
 11
372.83035453108829
 21
71.05019735588121
 31
0.0
  0
LINE
  5
2724
  8
TITLE
 10
371.15983209413122
 20
69.554244664218686
 30
0.0
 11
372.83035453108829
 21
71.224767101168268
 31
0.0
  0
LINE
  5
2725
  8
TITLE
 10
371.15983209413122
 20
70.427093390683453
 30
0.0
 11
372.83035453108829
 21
72.097615827639629
 31
0.0
  0
LINE
  5
2726
  8
TITLE
 10
371.15983209413122
 20
70.601663135977788
 30
0.0
 11
372.83035453108829
 21
72.272185572934191
 31
0.0
  0
LINE
  5
2727
  8
TITLE
 10
371.15983209413122
 20
70.776232881271653
 30
0.0
 11
372.83035453108829
 21
72.446755318221904
 31
0.0
  0
LINE
  5
2728
  8
TITLE
 10
371.15983209413122
 20
70.950802626566414
 30
0.0
 11
372.83035453108829
 21
72.62132506351621
 31
0.0
  0
LINE
  5
2729
  8
TITLE
 10
371.15983209413122
 20
71.998221098317345
 30
0.0
 11
373.61144525698268
 21
74.449834261169372
 31
0.0
  0
LINE
  5
272A
  8
TITLE
 10
371.01596132318338
 20
72.028920072670886
 30
0.0
 11
373.82421137774151
 21
74.837170127221725
 31
0.0
  0
LINE
  5
272B
  8
TITLE
 10
371.15983209413122
 20
71.649081607728235
 30
0.0
 11
373.65352189461748
 21
74.142771408221734
 31
0.0
  0
LINE
  5
272C
  8
TITLE
 10
371.15983209413122
 20
71.823651353022342
 30
0.0
 11
373.56854021335943
 21
74.232359472266111
 31
0.0
  0
LINE
  5
272D
  8
TITLE
 10
370.39321251615718
 20
71.755310756226891
 30
0.0
 11
374.0978206941918
 21
75.459918934261395
 31
0.0
  0
LINE
  5
272E
  8
TITLE
 10
370.12404733473619
 20
71.660715320098689
 30
0.0
 11
374.19241613030579
 21
75.729084115670261
 31
0.0
  0
LINE
  5
272F
  8
TITLE
 10
369.87332437360038
 20
71.584562104257657
 30
0.0
 11
374.26856934616171
 21
75.979807076819952
 31
0.0
  0
LINE
  5
2730
  8
TITLE
 10
370.68692255937111
 20
71.874451054146448
 30
0.0
 11
373.97868039627332
 21
75.1662088910482
 31
0.0
  0
LINE
  5
2731
  8
TITLE
 10
376.50169030723748
 20
72.452126443226447
 30
0.0
 11
378.2585501112809
 21
74.20898624727694
 31
0.0
  0
LINE
  5
2732
  8
TITLE
 10
376.50169030723748
 20
72.626696188520981
 30
0.0
 11
378.2585501112809
 21
74.383555992564425
 31
0.0
  0
LINE
  5
2733
  8
TITLE
 10
376.50169030723748
 20
72.801265933815785
 30
0.0
 11
378.2585501112809
 21
74.558125737858063
 31
0.0
  0
LINE
  5
2734
  8
TITLE
 10
376.50169030723748
 20
72.975835679102374
 30
0.0
 11
378.2585501112809
 21
74.732695483152611
 31
0.0
  0
LINE
  5
2735
  8
TITLE
 10
376.50169030723748
 20
73.15040542439624
 30
0.0
 11
378.2585501112809
 21
74.907265228446448
 31
0.0
  0
LINE
  5
2736
  8
TITLE
 10
376.50169030723748
 20
73.324975169684194
 30
0.0
 11
378.2585501112809
 21
75.081834973741707
 31
0.0
  0
LINE
  5
2737
  8
TITLE
 10
376.50169030723748
 20
73.499544914978514
 30
0.0
 11
378.2585501112809
 21
75.2564047190358
 31
0.0
  0
LINE
  5
2738
  8
TITLE
 10
376.50169030723748
 20
73.67411466027238
 30
0.0
 11
378.2585501112809
 21
75.430974464329893
 31
0.0
  0
LINE
  5
273B
  8
TITLE
 10
339.75
 20
105.0
 30
0.0
 11
339.75
 21
85.0
 31
0.0
  0
LINE
  5
273C
  8
TITLE
 10
341.35542891852771
 20
77.107766981310306
 30
0.0
 11
342.50320449115122
 21
78.25554255393331
 31
0.0
  0
LINE
  5
273D
  8
TITLE
 10
341.18085917323418
 20
77.107766981310306
 30
0.0
 11
342.32863474585611
 21
78.25554255393331
 31
0.0
  0
LINE
  5
273E
  8
TITLE
 10
341.52999866382288
 20
77.107766981310306
 30
0.0
 11
342.6777742364456
 21
78.25554255393331
 31
0.0
  0
LINE
  5
273F
  8
TITLE
 10
342.92655662616198
 20
77.107766981310306
 30
0.0
 11
343.68580460860721
 21
77.867014963756219
 31
0.0
  0
LINE
  5
2740
  8
TITLE
 10
342.75198688088221
 20
77.107766981310306
 30
0.0
 11
343.68580460860721
 21
78.041584709050753
 31
0.0
  0
LINE
  5
2741
  8
TITLE
 10
343.27569611675062
 20
77.107766981310306
 30
0.0
 11
343.68580460860721
 21
77.51787547317393
 31
0.0
  0
LINE
  5
2742
  8
TITLE
 10
343.1011263714563
 20
77.107766981310306
 30
0.0
 11
343.68580460860721
 21
77.692445218468507
 31
0.0
  0
LINE
  5
2743
  8
TITLE
 10
343.62483560733921
 20
77.107766981310306
 30
0.0
 11
343.68580460860721
 21
77.168735982585758
 31
0.0
  0
LINE
  5
2744
  8
TITLE
 10
343.45026586204489
 20
77.107766981310306
 30
0.0
 11
343.68580460860721
 21
77.343305727880292
 31
0.0
  0
LINE
  5
2745
  8
TITLE
 10
342.40284739029357
 20
77.107766981310306
 30
0.0
 11
343.55062296291618
 21
78.25554255393331
 31
0.0
  0
LINE
  5
2746
  8
TITLE
 10
342.22827764499931
 20
77.107766981310306
 30
0.0
 11
343.37605321762197
 21
78.25554255393331
 31
0.0
  0
LINE
  5
2747
  8
TITLE
 10
342.05370789970488
 20
77.107766981310306
 30
0.0
 11
343.20148347232771
 21
78.25554255393331
 31
0.0
  0
LINE
  5
2748
  8
TITLE
 10
342.57741713558789
 20
77.107766981310306
 30
0.0
 11
343.68580460860721
 21
78.216154454337811
 31
0.0
  0
LINE
  5
2749
  8
TITLE
 10
341.7045684091172
 20
77.107766981310306
 30
0.0
 11
342.85234398173912
 21
78.25554255393331
 31
0.0
  0
LINE
  5
274A
  8
TITLE
 10
341.87913815441152
 20
77.107766981310306
 30
0.0
 11
343.02691372703339
 21
78.25554255393331
 31
0.0
  0
LINE
  5
274B
  8
TITLE
 10
344.58950772008768
 20
78.072439094066098
 30
0.0
 11
344.77261068829921
 21
78.255542062262293
 31
0.0
  0
LINE
  5
274C
  8
TITLE
 10
344.58950772008768
 20
78.247008839352901
 30
0.0
 11
344.59804094300489
 21
78.255542062262293
 31
0.0
  0
LINE
  5
274D
  8
TITLE
 10
344.58950772008768
 20
77.374160112888603
 30
0.0
 11
345.470889669462
 21
78.255542062262293
 31
0.0
  0
LINE
  5
274E
  8
TITLE
 10
344.58950772008768
 20
77.025020622299479
 30
0.0
 11
345.82002916004973
 21
78.255542062262293
 31
0.0
  0
LINE
  5
274F
  8
TITLE
 10
344.58950772008768
 20
77.199590367593601
 30
0.0
 11
345.64545941475632
 21
78.255542062262293
 31
0.0
  0
LINE
  5
2750
  8
TITLE
 10
344.58950772008768
 20
77.548729858182682
 30
0.0
 11
345.29631992416762
 21
78.255542062262293
 31
0.0
  0
LINE
  5
2751
  8
TITLE
 10
344.58950772008768
 20
77.723299603476562
 30
0.0
 11
345.1217501788733
 21
78.255542062262293
 31
0.0
  0
LINE
  5
2752
  8
TITLE
 10
344.58950772008768
 20
77.897869348770882
 30
0.0
 11
344.94718043359359
 21
78.255542062262293
 31
0.0
  0
LINE
  5
2753
  8
TITLE
 10
337.46942497692447
 20
79.50627387024565
 30
0.0
 11
337.67372760938912
 21
79.710576502716307
 31
0.0
  0
LINE
  5
2754
  8
TITLE
 10
337.46942497692447
 20
79.680843615539288
 30
0.0
 11
337.4991578640948
 21
79.710576502716307
 31
0.0
  0
LINE
  5
2755
  8
TITLE
 10
337.46942497692447
 20
79.33170412495771
 30
0.0
 11
337.84829735468338
 21
79.710576502716307
 31
0.0
  0
LINE
  5
2756
  8
TITLE
 10
337.41641158848051
 20
78.580411755344343
 30
0.0
 11
338.54657633585981
 21
79.710576502716307
 31
0.0
  0
LINE
  5
2757
  8
TITLE
 10
337.46082108222799
 20
78.7993909943782
 30
0.0
 11
338.37200659056617
 21
79.710576502716307
 31
0.0
  0
LINE
  5
2758
  8
TITLE
 10
337.46942497692447
 20
78.982564634369481
 30
0.0
 11
338.19743684527202
 21
79.710576502716307
 31
0.0
  0
LINE
  5
2759
  8
TITLE
 10
337.46942497692447
 20
79.157134379663376
 30
0.0
 11
338.0228670999777
 21
79.710576502716307
 31
0.0
  0
LINE
  5
275A
  8
TITLE
 10
337.30858649637412
 20
78.298016917942732
 30
0.0
 11
338.72114608115498
 21
79.710576502716307
 31
0.0
  0
LINE
  5
275B
  8
TITLE
 10
336.84256335762967
 20
77.133714798014338
 30
0.0
 11
338.87986397059831
 21
79.171015410998052
 31
0.0
  0
LINE
  5
275C
  8
TITLE
 10
336.84256335762967
 20
77.308284543308446
 30
0.0
 11
338.87986397059831
 21
79.345585156291463
 31
0.0
  0
LINE
  5
275D
  8
TITLE
 10
336.84256335762967
 20
76.95914505272637
 30
0.0
 11
338.87986397059831
 21
78.996445665703263
 31
0.0
  0
LINE
  5
275E
  8
TITLE
 10
336.84256335762967
 20
77.482854288602979
 30
0.0
 11
338.87986397059831
 21
79.520154901586238
 31
0.0
  0
LINE
  5
275F
  8
TITLE
 10
336.84256335762967
 20
77.657424033897541
 30
0.0
 11
338.87986397059831
 21
79.694724646880559
 31
0.0
  0
LINE
  5
2760
  8
TITLE
 10
339.50672605692671
 20
78.401319534971421
 30
0.0
 11
340.81598302467222
 21
79.710576502716307
 31
0.0
  0
LINE
  5
2761
  8
TITLE
 10
339.50672605692671
 20
78.575889280265983
 30
0.0
 11
340.64141327937801
 21
79.710576502716307
 31
0.0
  0
LINE
  5
2762
  8
TITLE
 10
339.50672605692671
 20
78.750459025559621
 30
0.0
 11
340.46684353408278
 21
79.710576502716307
 31
0.0
  0
LINE
  5
2763
  8
TITLE
 10
339.50672605692671
 20
78.925028770853942
 30
0.0
 11
340.29227378878932
 21
79.710576502716307
 31
0.0
  0
LINE
  5
2764
  8
TITLE
 10
339.4351617203057
 20
77.107766981310306
 30
0.0
 11
341.12611876803572
 21
78.798724029033792
 31
0.0
  0
LINE
  5
2765
  8
TITLE
 10
339.26059197501041
 20
77.107766981310306
 30
0.0
 11
341.12611876803572
 21
78.97329377432834
 31
0.0
  0
LINE
  5
2766
  8
TITLE
 10
339.08602222973059
 20
77.107766981310306
 30
0.0
 11
341.12611876803572
 21
79.147863519615839
 31
0.0
  0
LINE
  5
2767
  8
TITLE
 10
338.91145248443632
 20
77.107766981310306
 30
0.0
 11
341.12611876803572
 21
79.322433264909449
 31
0.0
  0
LINE
  5
2768
  8
TITLE
 10
338.736882739142
 20
77.107766981310306
 30
0.0
 11
341.12611876803572
 21
79.497003010204025
 31
0.0
  0
LINE
  5
2769
  8
TITLE
 10
338.56231299384763
 20
77.107766981310306
 30
0.0
 11
341.12611876803572
 21
79.671572755491724
 31
0.0
  0
LINE
  5
276A
  8
TITLE
 10
338.38774324855331
 20
77.107766981310306
 30
0.0
 11
340.9905527699521
 21
79.710576502716307
 31
0.0
  0
LINE
  5
276B
  8
TITLE
 10
339.50672605692671
 20
77.004761572630514
 30
0.0
 11
341.12611876803572
 21
78.624154283739699
 31
0.0
  0
LINE
  5
276C
  8
TITLE
 10
339.50672605692671
 20
79.448738006730309
 30
0.0
 11
339.76856455290641
 21
79.710576502716307
 31
0.0
  0
LINE
  5
276D
  8
TITLE
 10
339.50672605692671
 20
79.623307752023933
 30
0.0
 11
339.59399480761198
 21
79.710576502716307
 31
0.0
  0
LINE
  5
276E
  8
TITLE
 10
339.50672605692671
 20
79.099598516148035
 30
0.0
 11
340.117704043495
 21
79.710576502716307
 31
0.0
  0
LINE
  5
276F
  8
TITLE
 10
339.50672605692671
 20
79.274168261442568
 30
0.0
 11
339.94313429820068
 21
79.710576502716307
 31
0.0
  0
LINE
  5
2770
  8
TITLE
 10
351.43274897107949
 20
78.456599769211152
 30
0.0
 11
352.68672570458511
 21
79.710576502716307
 31
0.0
  0
LINE
  5
2771
  8
TITLE
 10
351.43274897107949
 20
78.282030023916377
 30
0.0
 11
352.86129544987938
 21
79.710576502716307
 31
0.0
  0
LINE
  5
2772
  8
TITLE
 10
351.43274897107949
 20
79.504018240969557
 30
0.0
 11
351.63930723283369
 21
79.710576502716307
 31
0.0
  0
LINE
  5
2773
  8
TITLE
 10
351.43274897107949
 20
79.678587986263892
 30
0.0
 11
351.46473748753851
 21
79.710576502716307
 31
0.0
  0
LINE
  5
2774
  8
TITLE
 10
351.43274897107949
 20
78.980309005093659
 30
0.0
 11
352.1630164687021
 21
79.710576502716307
 31
0.0
  0
LINE
  5
2775
  8
TITLE
 10
351.43274897107949
 20
79.15487875038751
 30
0.0
 11
351.98844672340772
 21
79.710576502716307
 31
0.0
  0
LINE
  5
2776
  8
TITLE
 10
351.43274897107949
 20
79.32944849567545
 30
0.0
 11
351.81387697811272
 21
79.710576502716307
 31
0.0
  0
LINE
  5
2777
  8
TITLE
 10
351.43274897107949
 20
78.631169514504791
 30
0.0
 11
352.51215595929079
 21
79.710576502716307
 31
0.0
  0
LINE
  5
2778
  8
TITLE
 10
351.43274897107949
 20
78.805739259799324
 30
0.0
 11
352.33758621399562
 21
79.710576502716307
 31
0.0
  0
LINE
  5
2779
  8
TITLE
 10
355.64611356981101
 20
78.829429971497561
 30
0.0
 11
355.71630391446621
 21
78.899620316151882
 31
0.0
  0
LINE
  5
277A
  8
TITLE
 10
355.47154382451748
 20
78.829429971497561
 30
0.0
 11
355.71630391446621
 21
79.074190061446416
 31
0.0
  0
LINE
  5
277B
  8
TITLE
 10
355.29697407922322
 20
78.829429971497561
 30
0.0
 11
355.71630391446621
 21
79.248759806741631
 31
0.0
  0
LINE
  5
277C
  8
TITLE
 10
355.12240433392799
 20
78.829429971497561
 30
0.0
 11
355.71630391446621
 21
79.423329552035071
 31
0.0
  0
LINE
  5
277D
  8
TITLE
 10
354.94783458863373
 20
78.829429971497561
 30
0.0
 11
355.71630391446621
 21
79.597899297329377
 31
0.0
  0
LINE
  5
277E
  8
TITLE
 10
354.77326484333918
 20
78.829429971497561
 30
0.0
 11
355.65441137455952
 21
79.710576502716307
 31
0.0
  0
LINE
  5
277F
  8
TITLE
 10
354.59869509804588
 20
78.829429971497561
 30
0.0
 11
355.47984162927969
 21
79.710576502716307
 31
0.0
  0
LINE
  5
2780
  8
TITLE
 10
353.94019591529121
 20
79.392919005782218
 30
0.0
 11
354.2578534122195
 21
79.710576502716307
 31
0.0
  0
LINE
  5
2781
  8
TITLE
 10
353.94019591529121
 20
79.567488751076539
 30
0.0
 11
354.08328366692427
 21
79.710576502716307
 31
0.0
  0
LINE
  5
2782
  8
TITLE
 10
354.42412535275162
 20
78.829429971497561
 30
0.0
 11
355.30527188398452
 21
79.710576502716307
 31
0.0
  0
LINE
  5
2783
  8
TITLE
 10
354.2495556074573
 20
78.829429971497561
 30
0.0
 11
355.1307021386902
 21
79.710576502716307
 31
0.0
  0
LINE
  5
2784
  8
TITLE
 10
354.07498586216212
 20
78.829429971497561
 30
0.0
 11
354.95613239339667
 21
79.710576502716307
 31
0.0
  0
LINE
  5
2785
  8
TITLE
 10
353.94019591529121
 20
78.869209769906305
 30
0.0
 11
354.7815626481015
 21
79.710576502716307
 31
0.0
  0
LINE
  5
2786
  8
TITLE
 10
353.94019591529121
 20
79.04377951520064
 30
0.0
 11
354.60699290280718
 21
79.710576502716307
 31
0.0
  0
LINE
  5
2787
  8
TITLE
 10
353.94019591529121
 20
79.218349260495657
 30
0.0
 11
354.43242315751382
 21
79.710576502716307
 31
0.0
  0
LINE
  5
2788
  8
TITLE
 10
356.84034200056522
 20
77.055972732269765
 30
0.0
 11
357.2268672411746
 21
77.442497972885803
 31
0.0
  0
LINE
  5
2789
  8
TITLE
 10
356.84034200056522
 20
77.230542477563873
 30
0.0
 11
357.01163545070631
 21
77.401835927711545
 31
0.0
  0
LINE
  5
278A
  8
TITLE
 10
369.0716782306489
 20
77.067426791852071
 30
0.0
 11
369.96021671951439
 21
77.955965280717223
 31
0.0
  0
LINE
  5
278B
  8
TITLE
 10
369.0716782306489
 20
77.241996537146406
 30
0.0
 11
369.78564697422013
 21
77.955965280717223
 31
0.0
  0
LINE
  5
278C
  8
TITLE
 10
363.7534056151772
 20
77.335386025748221
 30
0.0
 11
364.91918812098447
 21
78.501168531555322
 31
0.0
  0
LINE
  5
278D
  8
TITLE
 10
364.17757185085969
 20
77.061273280268097
 30
0.0
 11
365.36066150257
 21
78.244362931977548
 31
0.0
  0
LINE
  5
278E
  8
TITLE
 10
364.06991096845832
 20
77.128182143159634
 30
0.0
 11
365.24805197953538
 21
78.306323154236907
 31
0.0
  0
LINE
  5
278F
  8
TITLE
 10
363.9633351839957
 20
77.196176103992457
 30
0.0
 11
365.13694936445143
 21
78.369790284433762
 31
0.0
  0
LINE
  5
2790
  8
TITLE
 10
363.8578360358423
 20
77.265246701126443
 30
0.0
 11
365.02733409091252
 21
78.434744756195656
 31
0.0
  0
LINE
  5
2791
  8
TITLE
 10
364.39618564011278
 20
76.930747578932369
 30
0.0
 11
365.59048771755999
 21
78.125049656378451
 31
0.0
  0
LINE
  5
2792
  8
TITLE
 10
364.2863268653573
 20
76.995458549470186
 30
0.0
 11
365.47479911625942
 21
78.183930800372977
 31
0.0
  0
LINE
  5
2793
  8
TITLE
 10
362.76650460649938
 20
78.094182470005308
 30
0.0
 11
363.91552871430849
 21
79.243206577822093
 31
0.0
  0
LINE
  5
2794
  8
TITLE
 10
362.67345088293769
 20
78.175698491739013
 30
0.0
 11
363.82272703655332
 21
79.324974645353905
 31
0.0
  0
LINE
  5
2795
  8
TITLE
 10
363.65003654786602
 20
77.406586703731577
 30
0.0
 11
364.81249486623437
 21
78.569045022099786
 31
0.0
  0
LINE
  5
2796
  8
TITLE
 10
363.54772197783768
 20
77.478841878996263
 30
0.0
 11
364.70723911696768
 21
78.638359018126934
 31
0.0
  0
LINE
  5
2797
  8
TITLE
 10
363.44645555174799
 20
77.552145198202197
 30
0.0
 11
364.60340697879559
 21
78.709096625248563
 31
0.0
  0
LINE
  5
2798
  8
TITLE
 10
363.34623140511582
 20
77.626490796863891
 30
0.0
 11
364.50098581596291
 21
78.781245207711663
 31
0.0
  0
LINE
  5
2799
  8
TITLE
 10
363.2470441495152
 20
77.701873286557898
 30
0.0
 11
364.39996420082213
 21
78.854793337864294
 31
0.0
  0
LINE
  5
279A
  8
TITLE
 10
363.14888886111379
 20
77.77828774344357
 30
0.0
 11
364.30033186896611
 21
78.92973075128883
 31
0.0
  0
LINE
  5
279B
  8
TITLE
 10
363.05176107016172
 20
77.855729697792427
 30
0.0
 11
364.20207967958578
 21
79.006048307202036
 31
0.0
  0
LINE
  5
279C
  8
TITLE
 10
362.95565675168098
 20
77.934195124592193
 30
0.0
 11
364.10519958074372
 21
79.083737953654222
 31
0.0
  0
LINE
  5
279D
  8
TITLE
 10
362.86057231700852
 20
78.01368043522757
 30
0.0
 11
364.00968457916218
 21
79.162792697374243
 31
0.0
  0
LINE
  5
279E
  8
TITLE
 10
362.490376527835
 20
78.341763627216991
 30
0.0
 11
363.6411713939533
 21
79.492558493335764
 31
0.0
  0
LINE
  5
279F
  8
TITLE
 10
362.40035248857572
 20
78.426309333253343
 30
0.0
 11
363.55241244079571
 21
79.57836928547249
 31
0.0
  0
LINE
  5
27A0
  8
TITLE
 10
362.58140882606222
 20
78.258226180157621
 30
0.0
 11
363.73127558915093
 21
79.408092943238913
 31
0.0
  0
LINE
  5
27A1
  8
TITLE
 10
369.0716782306489
 20
77.41656628244003
 30
0.0
 11
369.6110772289249
 21
77.955965280717223
 31
0.0
  0
LINE
  5
27A2
  8
TITLE
 10
369.0716782306489
 20
77.591136027727785
 30
0.0
 11
369.43650748363137
 21
77.955965280717223
 31
0.0
  0
LINE
  5
27A3
  8
TITLE
 10
369.0716782306489
 20
77.765705773021622
 30
0.0
 11
369.26193773833711
 21
77.955965280717223
 31
0.0
  0
LINE
  5
27A4
  8
TITLE
 10
369.0716782306489
 20
77.940275518316639
 30
0.0
 11
369.08736799305723
 21
77.955965280717223
 31
0.0
  0
LINE
  5
27A5
  8
TITLE
 10
360.7928416358609
 20
77.167937971119272
 30
0.0
 11
363.33548016745141
 21
79.710576502709728
 31
0.0
  0
LINE
  5
27A6
  8
TITLE
 10
361.34607696839612
 20
77.546603558359479
 30
0.0
 11
363.4649976802466
 21
79.665524270224978
 31
0.0
  0
LINE
  5
27A7
  8
TITLE
 10
376.50169030723748
 20
78.387497783183321
 30
0.0
 11
377.82476902676348
 21
79.710576502716307
 31
0.0
  0
LINE
  5
27A8
  8
TITLE
 10
376.50169030723748
 20
78.562067528477655
 30
0.0
 11
377.65019928146921
 21
79.710576502716307
 31
0.0
  0
LINE
  5
27A9
  8
TITLE
 10
376.50169030723748
 20
78.736637273771734
 30
0.0
 11
377.47562953617478
 21
79.710576502716307
 31
0.0
  0
LINE
  5
27AA
  8
TITLE
 10
376.50169030723748
 20
78.911207019058779
 30
0.0
 11
377.30105979088148
 21
79.710576502716307
 31
0.0
  0
LINE
  5
27AB
  8
TITLE
 10
376.50169030723748
 20
78.212928037895381
 30
0.0
 11
377.99933877205882
 21
79.710576502716307
 31
0.0
  0
LINE
  5
27AC
  8
TITLE
 10
376.50169030723748
 20
77.165509566130368
 30
0.0
 11
378.2585501112809
 21
78.922369370187184
 31
0.0
  0
LINE
  5
27AD
  8
TITLE
 10
376.50169030723748
 20
77.340079311424461
 30
0.0
 11
378.2585501112809
 21
79.096939115481504
 31
0.0
  0
LINE
  5
27AE
  8
TITLE
 10
376.50169030723748
 20
77.514649056719023
 30
0.0
 11
378.2585501112809
 21
79.271508860775626
 31
0.0
  0
LINE
  5
27AF
  8
TITLE
 10
376.50169030723748
 20
77.689218802013556
 30
0.0
 11
378.2585501112809
 21
79.446078606063324
 31
0.0
  0
LINE
  5
27B0
  8
TITLE
 10
376.50169030723748
 20
77.863788547307649
 30
0.0
 11
378.2585501112809
 21
79.620648351357659
 31
0.0
  0
LINE
  5
27B1
  8
TITLE
 10
376.50169030723748
 20
78.038358292601501
 30
0.0
 11
378.17390851735308
 21
79.710576502716307
 31
0.0
  0
LINE
  5
27B2
  8
TITLE
 10
376.50169030723748
 20
79.434916254941513
 30
0.0
 11
376.77735055501307
 21
79.710576502716307
 31
0.0
  0
LINE
  5
27B3
  8
TITLE
 10
376.50169030723748
 20
79.60948600023606
 30
0.0
 11
376.60278080971767
 21
79.710576502716307
 31
0.0
  0
LINE
  5
27B4
  8
TITLE
 10
376.50169030723748
 20
79.085776764353099
 30
0.0
 11
377.12649004560171
 21
79.710576502716307
 31
0.0
  0
LINE
  5
27B5
  8
TITLE
 10
376.50169030723748
 20
79.260346509647889
 30
0.0
 11
376.95192030030739
 21
79.710576502716307
 31
0.0
  0
LINE
  5
27B6
  8
TITLE
 10
374.84522234520767
 20
77.08016931174825
 30
0.0
 11
374.91891056579152
 21
77.153857532332495
 31
0.0
  0
LINE
  5
27B7
  8
TITLE
 10
371.15983209413122
 20
79.504720145915371
 30
0.0
 11
371.36568845093188
 21
79.710576502716307
 31
0.0
  0
LINE
  5
27B8
  8
TITLE
 10
371.15983209413122
 20
79.679289891209706
 30
0.0
 11
371.19111870563762
 21
79.710576502716307
 31
0.0
  0
LINE
  5
27B9
  8
TITLE
 10
371.15983209413122
 20
78.457301674156497
 30
0.0
 11
372.41310692268422
 21
79.710576502716307
 31
0.0
  0
LINE
  5
27BA
  8
TITLE
 10
371.15983209413122
 20
78.631871419451045
 30
0.0
 11
372.23853717738967
 21
79.710576502716307
 31
0.0
  0
LINE
  5
27BB
  8
TITLE
 10
371.15983209413122
 20
78.806441164745578
 30
0.0
 11
372.06396743209552
 21
79.710576502716307
 31
0.0
  0
LINE
  5
27BC
  8
TITLE
 10
371.15983209413122
 20
78.981010910033092
 30
0.0
 11
371.88939768680018
 21
79.710576502716307
 31
0.0
  0
LINE
  5
27BD
  8
TITLE
 10
371.15983209413122
 20
79.155580655326503
 30
0.0
 11
371.71482794152138
 21
79.710576502716307
 31
0.0
  0
LINE
  5
27BE
  8
TITLE
 10
371.15983209413122
 20
79.330150400620795
 30
0.0
 11
371.5402581962262
 21
79.710576502716307
 31
0.0
  0
LINE
  5
27BF
  8
TITLE
 10
371.15983209413122
 20
78.282731928869453
 30
0.0
 11
372.58767666797758
 21
79.710576502716307
 31
0.0
  0
LINE
  5
27C0
  8
TITLE
 10
371.15983209413122
 20
78.108162183574436
 30
0.0
 11
372.76224641327178
 21
79.710576502716307
 31
0.0
  0
LINE
  5
2BCF
  8
MODEL
 10
179.75
 20
213.3358588484561
 30
0.0
 11
259.75
 21
213.3358588484561
 31
0.0
  0
LINE
  5
2BD0
  8
MODEL
 10
259.75
 20
175.3358588484561
 30
0.0
 11
179.75
 21
175.3358588484561
 31
0.0
  0
LINE
  5
2BD3
  8
MODEL
 10
214.75
 20
199.3358588484561
 30
0.0
 11
224.75
 21
199.3358588484561
 31
0.0
  0
LINE
  5
2BD4
  8
MODEL
 10
214.75
 20
189.33585884845601
 30
0.0
 11
224.75
 21
189.33585884845601
 31
0.0
  0
ARC
  5
2BD5
  8
MODEL
 10
214.75
 20
194.33585884845601
 30
0.0
 40
5.0
 50
90.0
 51
270.0
  0
ARC
  5
2BD6
  8
MODEL
 10
224.75
 20
194.33585884845601
 30
0.0
 40
5.0
 50
270.0
 51
90.0
  0
LINE
  5
318A
  8
TITLE
 10
254.09314575050709
 20
87.34314575050756
 30
0.0
 11
265.40685424949368
 21
98.656854249492412
 31
0.0
  0
TEXT
  5
318B
  8
TITLE
 10
251.9555417401005
 20
94.031609830107001
 30
0.0
 40
5.0
  1
１
 72
     1
 11
254.12220840676719
 21
96.531609830107001
 31
0.0
 73
     2
  0
TEXT
  5
318C
  8
TITLE
 10
263.64601793057523
 20
87.041135448705347
 30
0.0
 40
5.0
  1
２
 72
     1
 11
265.97935126390848
 21
89.541135448705347
 31
0.0
 73
     2
  0
TEXT
  5
34F4
  8
TITLE
 10
57.623327699661267
 20
87.532289796396284
 30
0.0
 40
5.0
  1
H24.11.30:当て板長さ変更
 41
0.8
  0
LINE
  5
38CF
  8
MODEL
 10
113.8424157809379
 20
339.26131670321138
 30
0.0
 11
113.8424157809379
 21
346.26131670321138
 31
0.0
  0
LINE
  5
38D0
  8
MODEL
 10
313.84241578093793
 20
339.26131670321138
 30
0.0
 11
313.84241578093793
 21
346.26131670321138
 31
0.0
  0
LINE
  5
38D1
  8
MODEL
 10
113.8424157809379
 20
346.26131670321138
 30
0.0
 11
313.84241578093793
 21
346.26131670321138
 31
0.0
  0
LINE
  5
38D2
  8
MODEL
 10
313.84241578093793
 20
339.26131670321138
 30
0.0
 11
113.8424157809379
 21
339.26131670321138
 31
0.0
  0
CIRCLE
  5
38D3
  8
MODEL
 10
123.8424157809379
 20
342.76131670321138
 30
0.0
 40
1.399999999999999
  0
CIRCLE
  5
38D4
  8
MODEL
 10
168.8424157809379
 20
342.76131670321138
 30
0.0
 40
1.399999999999999
  0
CIRCLE
  5
38D5
  8
MODEL
 10
213.8424157809379
 20
342.76131670321138
 30
0.0
 40
1.399999999999999
  0
CIRCLE
  5
38D6
  8
MODEL
 10
258.84241578093798
 20
342.76131670321138
 30
0.0
 40
1.399999999999999
  0
CIRCLE
  5
38D7
  8
MODEL
 10
303.84241578093793
 20
342.76131670321138
 30
0.0
 40
1.399999999999999
  0
LINE
  5
38D8
  8
MODEL
 10
312.34241578093793
 20
280.86131670321129
 30
0.0
 11
115.3424157809379
 21
280.86131670321129
 31
0.0
  0
LINE
  5
38D9
  8
MODEL
 10
115.3424157809379
 20
284.6613167032113
 30
0.0
 11
312.34241578093793
 21
284.6613167032113
 31
0.0
  0
LINE
  5
38DA
  8
MODEL
 10
115.3424157809379
 20
280.86131670321129
 30
0.0
 11
115.3424157809379
 21
284.6613167032113
 31
0.0
  0
LINE
  5
38DB
  8
MODEL
 10
312.3424157809377
 20
280.86131670321129
 30
0.0
 11
312.3424157809377
 21
284.6613167032113
 31
0.0
  0
ARC
  5
38DC
  8
MODEL
 10
123.3424157809379
 20
282.76131670321138
 30
0.0
 40
0.5
 50
90.0
 51
270.0
  0
ARC
  5
38DD
  8
MODEL
 10
124.3424157809379
 20
282.76131670321138
 30
0.0
 40
0.5
 50
270.0
 51
90.0
  0
LINE
  5
38DE
  8
MODEL
 10
123.3424157809379
 20
283.26131670321138
 30
0.0
 11
124.3424157809379
 21
283.26131670321138
 31
0.0
  0
LINE
  5
38DF
  8
MODEL
 10
123.3424157809379
 20
282.26131670321138
 30
0.0
 11
124.3424157809379
 21
282.26131670321138
 31
0.0
  0
ARC
  5
38E0
  8
MODEL
 10
169.3424157809379
 20
282.76131670321138
 30
0.0
 40
0.5
 50
270.0
 51
90.0
  0
ARC
  5
38E1
  8
MODEL
 10
168.3424157809379
 20
282.76131670321138
 30
0.0
 40
0.5
 50
90.0
 51
270.0
  0
LINE
  5
38E2
  8
MODEL
 10
168.3424157809379
 20
282.26131670321138
 30
0.0
 11
169.3424157809379
 21
282.26131670321138
 31
0.0
  0
LINE
  5
38E3
  8
MODEL
 10
168.3424157809379
 20
283.26131670321138
 30
0.0
 11
169.3424157809379
 21
283.26131670321138
 31
0.0
  0
ARC
  5
38E4
  8
MODEL
 10
214.3424157809379
 20
282.76131670321138
 30
0.0
 40
0.5
 50
270.0
 51
90.0
  0
ARC
  5
38E5
  8
MODEL
 10
213.3424157809379
 20
282.76131670321138
 30
0.0
 40
0.5
 50
90.0
 51
270.0
  0
LINE
  5
38E6
  8
MODEL
 10
213.3424157809379
 20
282.26131670321138
 30
0.0
 11
214.3424157809379
 21
282.26131670321138
 31
0.0
  0
LINE
  5
38E7
  8
MODEL
 10
213.3424157809379
 20
283.26131670321138
 30
0.0
 11
214.3424157809379
 21
283.26131670321138
 31
0.0
  0
ARC
  5
38E8
  8
MODEL
 10
259.34241578093798
 20
282.76131670321138
 30
0.0
 40
0.5
 50
270.0
 51
90.0
  0
ARC
  5
38E9
  8
MODEL
 10
258.34241578093798
 20
282.76131670321138
 30
0.0
 40
0.5
 50
90.0
 51
270.0
  0
LINE
  5
38EA
  8
MODEL
 10
258.34241578093798
 20
282.26131670321138
 30
0.0
 11
259.34241578093798
 21
282.26131670321138
 31
0.0
  0
LINE
  5
38EB
  8
MODEL
 10
258.34241578093798
 20
283.26131670321138
 30
0.0
 11
259.34241578093798
 21
283.26131670321138
 31
0.0
  0
ARC
  5
38EC
  8
MODEL
 10
304.34241578093793
 20
282.76131670321138
 30
0.0
 40
0.5
 50
270.0
 51
90.0
  0
ARC
  5
38ED
  8
MODEL
 10
303.34241578093793
 20
282.76131670321138
 30
0.0
 40
0.5
 50
90.0
 51
270.0
  0
LINE
  5
38EE
  8
MODEL
 10
303.34241578093793
 20
282.26131670321138
 30
0.0
 11
304.34241578093793
 21
282.26131670321138
 31
0.0
  0
LINE
  5
38EF
  8
MODEL
 10
303.34241578093793
 20
283.26131670321138
 30
0.0
 11
304.34241578093793
 21
283.26131670321138
 31
0.0
  0
TEXT
  5
3FC2
  8
TITLE
 10
57.623327699661267
 20
77.532289796396284
 30
0.0
 40
5.0
  1
H27.10.2:本体厚み・定尺変更
 41
0.8
  0
LINE
  5
42E3
  8
CENTER
 10
185.25
 20
474.87366570390799
 30
0.0
 11
275.25
 21
474.87366570390799
 31
0.0
  0
ARC
  5
42E4
  8
MODEL
 10
230.25
 20
474.87366570390799
 30
0.0
 40
35.0
 50
270.0
 51
90.0
  0
LINE
  5
42E5
  8
MODEL
 10
195.25
 20
439.87366570390788
 30
0.0
 11
195.25
 21
509.87366570390788
 31
0.0
  0
LINE
  5
42E6
  8
MODEL
 10
207.25
 20
451.87366570390788
 30
0.0
 11
207.25
 21
497.87366570390788
 31
0.0
  0
LINE
  5
42E7
  8
MODEL
 10
230.25
 20
451.87366570390788
 30
0.0
 11
207.25
 21
451.87366570390788
 31
0.0
  0
LINE
  5
42E8
  8
MODEL
 10
230.25
 20
439.87366570390788
 30
0.0
 11
195.25
 21
439.87366570390788
 31
0.0
  0
LINE
  5
42E9
  8
MODEL
 10
207.25
 20
497.87366570390788
 30
0.0
 11
230.25
 21
497.87366570390788
 31
0.0
  0
LINE
  5
42EA
  8
HIDDEN
 10
195.25
 20
464.87366570390788
 30
0.0
 11
207.25
 21
464.87366570390788
 31
0.0
  0
LINE
  5
42EB
  8
HIDDEN
 10
195.25
 20
484.87366570390788
 30
0.0
 11
207.25
 21
484.87366570390788
 31
0.0
  0
LINE
  5
42EC
  8
MODEL
 10
195.25
 20
509.87366570390788
 30
0.0
 11
230.25
 21
509.87366570390788
 31
0.0
  0
LINE
  5
42ED
  8
HIDDEN
 10
248.49828759089471
 20
460.87366570390799
 30
0.0
 11
262.32802986469079
 21
460.87366570390799
 31
0.0
  0
LINE
  5
42EE
  8
HIDDEN
 10
248.49828759089471
 20
488.87366570390788
 30
0.0
 11
262.32802986469079
 21
488.87366570390788
 31
0.0
  0
TEXT
  5
43CD
  8
TITLE
 10
57.623327699661267
 20
67.532289796396284
 30
0.0
 40
5.0
  1
H28.1.5:下穴サイズ変更
 41
0.8
  0
TEXT
  5
44F0
  8
TITLE
 10
46.749999999999993
 20
67.354806053497896
 30
0.0
 40
4.0
  1
4
  0
LINE
  5
44F2
  8
DIMS
 10
235.2070110563694
 20
479.70474330587911
 30
0.0
 11
252.45049932953589
 21
496.51015871226588
 31
0.0
  0
INSERT
  5
44F3
  8
0
  2
*U46
 10
0.0
 20
0.0
 30
0.0
  0
SOLID
  5
44F4
  8
DIMS
 10
251.9851984050093
 20
496.98758880497991
 30
0.0
 11
252.91580025406239
 21
496.03272861955202
 31
0.0
 12
255.3150798858195
 22
499.30196425942552
 32
0.0
 13
255.3150798858195
 23
499.30196425942552
 33
0.0
  0
LINE
  5
44F5
  8
DIMS
 10
167.75000000182899
 20
509.87366570390788
 30
0.0
 11
152.75000000182899
 21
509.87366570390788
 31
0.0
  0
LINE
  5
44F6
  8
DIMS
 10
167.75000000182891
 20
439.87366570390788
 30
0.0
 11
152.75000000182891
 21
439.87366570390788
 31
0.0
  0
LINE
  5
44F7
  8
DIMS
 10
155.25
 20
505.8736657068344
 30
0.0
 11
155.25
 21
443.87366570098152
 31
0.0
  0
SOLID
  5
44F8
  8
DIMS
 10
154.583333333821
 20
505.8736657068344
 30
0.0
 11
155.91666666617891
 21
505.8736657068344
 31
0.0
 12
155.25
 22
509.87366570390788
 32
0.0
 13
155.25
 23
509.87366570390788
 33
0.0
  0
SOLID
  5
44F9
  8
DIMS
 10
154.583333333821
 20
443.87366570098152
 30
0.0
 11
155.91666666617891
 21
443.87366570098152
 31
0.0
 12
155.25
 22
439.87366570390788
 32
0.0
 13
155.25
 23
439.87366570390788
 33
0.0
  0
INSERT
  5
44FA
  8
0
  2
*U47
 10
0.0
 20
0.0
 30
0.0
  0
LINE
  5
44FB
  8
DIMS
 10
204.75000000182899
 20
451.87366570390788
 30
0.0
 11
167.75000000182899
 21
451.87366570390788
 31
0.0
  0
LINE
  5
44FC
  8
DIMS
 10
192.75000000182891
 20
439.87366570390788
 30
0.0
 11
167.75000000182891
 21
439.87366570390788
 31
0.0
  0
LINE
  5
44FD
  8
DIMS
 10
170.2499999999998
 20
447.8736657068344
 30
0.0
 11
170.2499999999998
 21
443.87366570098152
 31
0.0
  0
LINE
  5
44FE
  8
DIMS
 10
170.2499999999998
 20
439.87366570390788
 30
0.0
 11
170.2499999999998
 21
419.6236657187228
 31
0.0
  0
SOLID
  5
44FF
  8
DIMS
 10
169.583333333821
 20
447.8736657068344
 30
0.0
 11
170.91666666617891
 21
447.8736657068344
 31
0.0
 12
170.25
 22
451.87366570390788
 32
0.0
 13
170.25
 23
451.87366570390788
 33
0.0
  0
SOLID
  5
4500
  8
DIMS
 10
169.583333333821
 20
443.87366570098152
 30
0.0
 11
170.91666666617891
 21
443.87366570098152
 31
0.0
 12
170.2499999999998
 22
439.87366570390788
 32
0.0
 13
170.2499999999998
 23
439.87366570390788
 33
0.0
  0
INSERT
  5
4501
  8
0
  2
*U48
 10
0.0
 20
0.0
 30
0.0
  0
LINE
  5
4502
  8
DIMS
 10
192.75000000182891
 20
484.87366570390788
 30
0.0
 11
167.75000000182899
 21
484.87366570390788
 31
0.0
  0
LINE
  5
4503
  8
DIMS
 10
192.75000000182891
 20
464.87366570390788
 30
0.0
 11
167.75000000182899
 21
464.87366570390788
 31
0.0
  0
LINE
  5
4504
  8
DIMS
 10
170.25
 20
480.8736657068344
 30
0.0
 11
170.25
 21
468.87366570098152
 31
0.0
  0
SOLID
  5
4505
  8
DIMS
 10
169.58333333382109
 20
480.8736657068344
 30
0.0
 11
170.916666666179
 21
480.8736657068344
 31
0.0
 12
170.25
 22
484.87366570390788
 32
0.0
 13
170.25
 23
484.87366570390788
 33
0.0
  0
SOLID
  5
4506
  8
DIMS
 10
169.58333333382109
 20
468.87366570098152
 30
0.0
 11
170.916666666179
 21
468.87366570098152
 31
0.0
 12
170.25
 22
464.87366570390788
 32
0.0
 13
170.25
 23
464.87366570390788
 33
0.0
  0
INSERT
  5
4507
  8
0
  2
*U49
 10
0.0
 20
0.0
 30
0.0
  0
LINE
  5
4508
  8
DIMS
 10
204.75000000182899
 20
497.87366570390788
 30
0.0
 11
167.75000000182899
 21
497.87366570390788
 31
0.0
  0
LINE
  5
4509
  8
DIMS
 10
192.75000000182891
 20
509.87366570390788
 30
0.0
 11
167.75000000182899
 21
509.87366570390788
 31
0.0
  0
LINE
  5
450A
  8
DIMS
 10
170.25
 20
501.87366570098152
 30
0.0
 11
170.25
 21
505.8736657068344
 31
0.0
  0
LINE
  5
450B
  8
DIMS
 10
170.25
 20
509.87366570390788
 30
0.0
 11
170.25
 21
530.12366568909317
 31
0.0
  0
SOLID
  5
450C
  8
DIMS
 10
169.58333333382109
 20
501.87366570098152
 30
0.0
 11
170.91666666617891
 21
501.87366570098152
 31
0.0
 12
170.25
 22
497.87366570390788
 32
0.0
 13
170.25
 23
497.87366570390788
 33
0.0
  0
SOLID
  5
450D
  8
DIMS
 10
169.58333333382109
 20
505.8736657068344
 30
0.0
 11
170.91666666617891
 21
505.8736657068344
 31
0.0
 12
170.25
 22
509.87366570390788
 32
0.0
 13
170.25
 23
509.87366570390788
 33
0.0
  0
INSERT
  5
450E
  8
0
  2
*U50
 10
0.0
 20
0.0
 30
0.0
  0
LINE
  5
450F
  8
DIMS
 10
195.25
 20
417.37366570573693
 30
0.0
 11
195.25
 21
407.3822606460011
 31
0.0
  0
LINE
  5
4510
  8
DIMS
 10
265.25
 20
417.99495502839972
 30
0.0
 11
265.25
 21
407.3822606460011
 31
0.0
  0
LINE
  5
4511
  8
DIMS
 10
199.24999999707359
 20
409.88226064417199
 30
0.0
 11
261.25000000292641
 21
409.88226064417199
 31
0.0
  0
SOLID
  5
4512
  8
DIMS
 10
199.24999999707359
 20
410.54892731035108
 30
0.0
 11
199.24999999707359
 21
409.21559397799308
 31
0.0
 12
195.25
 22
409.88226064417199
 32
0.0
 13
195.25
 23
409.88226064417199
 33
0.0
  0
SOLID
  5
4513
  8
DIMS
 10
261.25000000292641
 20
410.54892731035108
 30
0.0
 11
261.25000000292641
 21
409.21559397799308
 31
0.0
 12
265.25
 22
409.88226064417199
 32
0.0
 13
265.25
 23
409.88226064417199
 33
0.0
  0
INSERT
  5
4514
  8
0
  2
*U51
 10
0.0
 20
0.0
 30
0.0
  0
LINE
  5
4515
  8
DIMS
 10
253.25
 20
472.37366570573693
 30
0.0
 11
253.25
 21
417.37366570573693
 31
0.0
  0
LINE
  5
4516
  8
DIMS
 10
265.25
 20
472.37366570573693
 30
0.0
 11
265.25
 21
417.37366570573693
 31
0.0
  0
LINE
  5
4517
  8
DIMS
 10
257.24999999707359
 20
419.87366570390799
 30
0.0
 11
261.25000000292641
 21
419.87366570390799
 31
0.0
  0
LINE
  5
4518
  8
DIMS
 10
286.97521124169663
 20
419.87366570390799
 30
0.0
 11
265.25
 21
419.87366570390799
 31
0.0
  0
INSERT
  5
4519
  8
0
  2
*U52
 10
0.0
 20
0.0
 30
0.0
  0
SOLID
  5
451A
  8
DIMS
 10
257.24999999707359
 20
420.5403323700869
 30
0.0
 11
257.24999999707359
 21
419.20699903772891
 31
0.0
 12
253.25
 22
419.87366570390799
 32
0.0
 13
253.25
 23
419.87366570390799
 33
0.0
  0
SOLID
  5
451B
  8
DIMS
 10
261.25000000292641
 20
420.5403323700869
 30
0.0
 11
261.25000000292641
 21
419.20699903772891
 31
0.0
 12
265.25
 22
419.87366570390799
 32
0.0
 13
265.25
 23
419.87366570390799
 33
0.0
  0
LINE
  5
451C
  8
DIMS
 10
207.25
 20
449.37366570573681
 30
0.0
 11
207.25
 21
417.37366570573693
 31
0.0
  0
LINE
  5
451D
  8
DIMS
 10
253.25
 20
472.37366570573693
 30
0.0
 11
253.25
 21
417.37366570573693
 31
0.0
  0
LINE
  5
451E
  8
DIMS
 10
211.24999999707359
 20
419.87366570390799
 30
0.0
 11
249.25000000292641
 21
419.87366570390799
 31
0.0
  0
SOLID
  5
451F
  8
DIMS
 10
211.24999999707359
 20
420.5403323700869
 30
0.0
 11
211.24999999707359
 21
419.20699903772891
 31
0.0
 12
207.25
 22
419.87366570390799
 32
0.0
 13
207.25
 23
419.87366570390799
 33
0.0
  0
SOLID
  5
4520
  8
DIMS
 10
249.25000000292641
 20
420.5403323700869
 30
0.0
 11
249.25000000292641
 21
419.20699903772891
 31
0.0
 12
253.25
 22
419.87366570390799
 32
0.0
 13
253.25
 23
419.87366570390799
 33
0.0
  0
INSERT
  5
4521
  8
0
  2
*U53
 10
0.0
 20
0.0
 30
0.0
  0
LINE
  5
4522
  8
DIMS
 10
195.25
 20
437.37366570573693
 30
0.0
 11
195.25
 21
417.37366570573693
 31
0.0
  0
LINE
  5
4523
  8
DIMS
 10
207.25
 20
449.37366570573681
 30
0.0
 11
207.25
 21
417.37366570573693
 31
0.0
  0
LINE
  5
4524
  8
DIMS
 10
199.24999999707359
 20
419.87366570390799
 30
0.0
 11
203.25000000292641
 21
419.87366570390799
 31
0.0
  0
LINE
  5
4525
  8
DIMS
 10
174.459590719727
 20
419.87366570390799
 30
0.0
 11
195.25
 21
419.87366570390799
 31
0.0
  0
INSERT
  5
4526
  8
0
  2
*U54
 10
0.0
 20
0.0
 30
0.0
  0
SOLID
  5
4527
  8
DIMS
 10
199.24999999707359
 20
420.5403323700869
 30
0.0
 11
199.24999999707359
 21
419.20699903772891
 31
0.0
 12
195.25
 22
419.87366570390799
 32
0.0
 13
195.25
 23
419.87366570390799
 33
0.0
  0
SOLID
  5
4528
  8
DIMS
 10
203.25000000292641
 20
420.5403323700869
 30
0.0
 11
203.25000000292641
 21
419.20699903772891
 31
0.0
 12
207.25
 22
419.87366570390799
 32
0.0
 13
207.25
 23
419.87366570390799
 33
0.0
  0
LINE
  5
4529
  8
DIMS
 10
264.8280298628618
 20
488.87366570390788
 30
0.0
 11
297.74999999817101
 21
488.87366570390788
 31
0.0
  0
LINE
  5
452A
  8
DIMS
 10
264.8280298628618
 20
460.87366570390799
 30
0.0
 11
297.74999999817101
 21
460.87366570390799
 31
0.0
  0
LINE
  5
452B
  8
DIMS
 10
295.25
 20
484.8736657068344
 30
0.0
 11
295.25
 21
464.87366570098152
 31
0.0
  0
SOLID
  5
452C
  8
DIMS
 10
294.58333333382109
 20
484.8736657068344
 30
0.0
 11
295.91666666617891
 21
484.8736657068344
 31
0.0
 12
295.25
 22
488.87366570390788
 32
0.0
 13
295.25
 23
488.87366570390788
 33
0.0
  0
SOLID
  5
452D
  8
DIMS
 10
294.58333333382109
 20
464.87366570098152
 30
0.0
 11
295.91666666617891
 21
464.87366570098152
 31
0.0
 12
295.25
 22
460.87366570390799
 32
0.0
 13
295.25
 23
460.87366570390799
 33
0.0
  0
INSERT
  5
452E
  8
0
  2
*U55
 10
0.0
 20
0.0
 30
0.0
  0
LINE
  5
452F
  8
DIMS20
 10
314.84241578093793
 20
284.6613167032113
 30
0.0
 11
336.09241578093793
 21
284.6613167032113
 31
0.0
  0
LINE
  5
4530
  8
DIMS20
 10
314.84241578093793
 20
280.86131670321129
 30
0.0
 11
336.09241578093793
 21
280.86131670321129
 31
0.0
  0
LINE
  5
4531
  8
DIMS20
 10
333.59241578093793
 20
288.66131670321141
 30
0.0
 11
333.59241578093793
 21
292.66131670321141
 31
0.0
  0
LINE
  5
4532
  8
DIMS20
 10
333.59241578093793
 20
276.8613167032114
 30
0.0
 11
333.59241578093793
 21
272.8613167032114
 31
0.0
  0
LINE
  5
4533
  8
DIMS20
 10
333.59241578093793
 20
260.27855853292681
 30
0.0
 11
333.59241578093793
 21
280.86131670321129
 31
0.0
  0
INSERT
  5
4534
  8
0
  2
*U56
 10
0.0
 20
0.0
 30
0.0
  0
LINE
  5
4535
  8
DIMS20
 10
333.59241578093793
 20
284.6613167032113
 30
0.0
 11
333.59241578093793
 21
280.86131670321129
 31
0.0
  0
LINE
  5
4536
  8
DIMS20
 10
333.59241578093793
 20
284.6613167032113
 30
0.0
 11
333.59241578093793
 21
280.86131670321129
 31
0.0
  0
SOLID
  5
4537
  8
DIMS20
 10
332.92574911427118
 20
288.66131670321141
 30
0.0
 11
334.25908244760461
 21
288.66131670321141
 31
0.0
 12
333.59241578093793
 22
284.6613167032113
 32
0.0
 13
333.59241578093793
 23
284.6613167032113
 33
0.0
  0
SOLID
  5
4538
  8
DIMS20
 10
332.92574911427118
 20
276.8613167032114
 30
0.0
 11
334.25908244760461
 21
276.8613167032114
 31
0.0
 12
333.59241578093793
 22
280.86131670321129
 32
0.0
 13
333.59241578093793
 23
280.86131670321129
 33
0.0
  0
LINE
  5
4539
  8
DIMS20
 10
115.3424157809379
 20
278.36131670321129
 30
0.0
 11
115.3424157809379
 21
258.3613167032114
 31
0.0
  0
LINE
  5
453A
  8
DIMS20
 10
312.34241578093793
 20
278.36131670321129
 30
0.0
 11
312.34241578093793
 21
258.3613167032114
 31
0.0
  0
LINE
  5
453B
  8
DIMS20
 10
119.3424157809379
 20
260.86131670321129
 30
0.0
 11
308.34241578093793
 21
260.86131670321129
 31
0.0
  0
SOLID
  5
453C
  8
DIMS20
 10
119.3424157809379
 20
261.52798336987797
 30
0.0
 11
119.3424157809379
 21
260.19465003654472
 31
0.0
 12
115.3424157809379
 22
260.86131670321129
 32
0.0
 13
115.3424157809379
 23
260.86131670321129
 33
0.0
  0
SOLID
  5
453D
  8
DIMS20
 10
308.34241578093793
 20
261.52798336987797
 30
0.0
 11
308.34241578093793
 21
260.19465003654472
 31
0.0
 12
312.34241578093793
 22
260.86131670321129
 32
0.0
 13
312.34241578093793
 23
260.86131670321129
 33
0.0
  0
INSERT
  5
453E
  8
0
  2
*U57
 10
0.0
 20
0.0
 30
0.0
  0
LINE
  5
453F
  8
DIMS20
 10
316.34241578093793
 20
346.26131670321138
 30
0.0
 11
336.34241578093793
 21
346.26131670321138
 31
0.0
  0
LINE
  5
4540
  8
DIMS20
 10
316.34241578093793
 20
339.26131670321138
 30
0.0
 11
336.34241578093793
 21
339.26131670321138
 31
0.0
  0
LINE
  5
4541
  8
DIMS20
 10
333.84241578093793
 20
350.26131670321138
 30
0.0
 11
333.84241578093793
 21
354.26131670321138
 31
0.0
  0
LINE
  5
4542
  8
DIMS20
 10
333.84241578093793
 20
335.26131670321138
 30
0.0
 11
333.84241578093793
 21
331.26131670321138
 31
0.0
  0
LINE
  5
4543
  8
DIMS20
 10
333.84241578093793
 20
363.25299857657092
 30
0.0
 11
333.84241578093793
 21
346.26131670321138
 31
0.0
  0
INSERT
  5
4544
  8
0
  2
*U58
 10
0.0
 20
0.0
 30
0.0
  0
LINE
  5
4545
  8
DIMS20
 10
333.84241578093793
 20
346.26131670321138
 30
0.0
 11
333.84241578093793
 21
339.26131670321138
 31
0.0
  0
LINE
  5
4546
  8
DIMS20
 10
333.84241578093793
 20
346.26131670321138
 30
0.0
 11
333.84241578093793
 21
339.26131670321138
 31
0.0
  0
SOLID
  5
4547
  8
DIMS20
 10
333.17574911427118
 20
350.26131670321138
 30
0.0
 11
334.50908244760461
 21
350.26131670321138
 31
0.0
 12
333.84241578093793
 22
346.26131670321138
 32
0.0
 13
333.84241578093793
 23
346.26131670321138
 33
0.0
  0
SOLID
  5
4548
  8
DIMS20
 10
333.17574911427118
 20
335.26131670321138
 30
0.0
 11
334.50908244760461
 21
335.26131670321138
 31
0.0
 12
333.84241578093793
 22
339.26131670321138
 32
0.0
 13
333.84241578093793
 23
339.26131670321138
 33
0.0
  0
LINE
  5
4549
  8
DIMS20
 10
113.8424157809379
 20
316.76131670321138
 30
0.0
 11
113.8424157809379
 21
301.76131670321138
 31
0.0
  0
LINE
  5
454A
  8
DIMS20
 10
313.84241578093793
 20
316.76131670321138
 30
0.0
 11
313.84241578093793
 21
301.76131670321138
 31
0.0
  0
LINE
  5
454B
  8
DIMS20
 10
117.8424157809379
 20
304.26131670321138
 30
0.0
 11
309.84241578093793
 21
304.26131670321138
 31
0.0
  0
SOLID
  5
454C
  8
DIMS20
 10
117.8424157809379
 20
304.92798336987801
 30
0.0
 11
117.8424157809379
 21
303.59465003654469
 31
0.0
 12
113.8424157809379
 22
304.26131670321138
 32
0.0
 13
113.8424157809379
 23
304.26131670321138
 33
0.0
  0
SOLID
  5
454D
  8
DIMS20
 10
309.84241578093793
 20
304.92798336987801
 30
0.0
 11
309.84241578093793
 21
303.59465003654469
 31
0.0
 12
313.84241578093793
 22
304.26131670321138
 32
0.0
 13
313.84241578093793
 23
304.26131670321138
 33
0.0
  0
INSERT
  5
454E
  8
0
  2
*U59
 10
0.0
 20
0.0
 30
0.0
  0
LINE
  5
454F
  8
DIMS20
 10
303.84241578093793
 20
336.76131670321138
 30
0.0
 11
303.84241578093793
 21
316.76131670321138
 31
0.0
  0
LINE
  5
4550
  8
DIMS20
 10
313.84241578093793
 20
336.76131670321138
 30
0.0
 11
313.84241578093793
 21
316.76131670321138
 31
0.0
  0
LINE
  5
4551
  8
DIMS20
 10
299.84241578093793
 20
319.26131670321138
 30
0.0
 11
295.84241578093793
 21
319.26131670321138
 31
0.0
  0
LINE
  5
4552
  8
DIMS20
 10
317.84241578093793
 20
319.26131670321138
 30
0.0
 11
321.84241578093793
 21
319.26131670321138
 31
0.0
  0
LINE
  5
4553
  8
DIMS20
 10
334.85847483176559
 20
319.26131670321138
 30
0.0
 11
313.84241578093793
 21
319.26131670321138
 31
0.0
  0
INSERT
  5
4554
  8
0
  2
*U60
 10
0.0
 20
0.0
 30
0.0
  0
LINE
  5
4555
  8
DIMS20
 10
303.84241578093793
 20
319.26131670321138
 30
0.0
 11
313.84241578093793
 21
319.26131670321138
 31
0.0
  0
LINE
  5
4556
  8
DIMS20
 10
303.84241578093793
 20
319.26131670321138
 30
0.0
 11
313.84241578093793
 21
319.26131670321138
 31
0.0
  0
SOLID
  5
4557
  8
DIMS20
 10
299.84241578093793
 20
319.92798336987812
 30
0.0
 11
299.84241578093793
 21
318.59465003654469
 31
0.0
 12
303.84241578093793
 22
319.26131670321138
 32
0.0
 13
303.84241578093793
 23
319.26131670321138
 33
0.0
  0
SOLID
  5
4558
  8
DIMS20
 10
317.84241578093793
 20
319.92798336987812
 30
0.0
 11
317.84241578093793
 21
318.59465003654469
 31
0.0
 12
313.84241578093793
 22
319.26131670321138
 32
0.0
 13
313.84241578093793
 23
319.26131670321138
 33
0.0
  0
LINE
  5
4559
  8
DIMS20
 10
258.84241578093798
 20
336.76131670321138
 30
0.0
 11
258.84241578093798
 21
316.76131670321138
 31
0.0
  0
LINE
  5
455A
  8
DIMS20
 10
303.84241578093793
 20
336.76131670321138
 30
0.0
 11
303.84241578093793
 21
316.76131670321138
 31
0.0
  0
LINE
  5
455B
  8
DIMS20
 10
262.84241578093798
 20
319.26131670321138
 30
0.0
 11
299.84241578093793
 21
319.26131670321138
 31
0.0
  0
SOLID
  5
455C
  8
DIMS20
 10
262.84241578093798
 20
319.92798336987812
 30
0.0
 11
262.84241578093798
 21
318.59465003654469
 31
0.0
 12
258.84241578093798
 22
319.26131670321138
 32
0.0
 13
258.84241578093798
 23
319.26131670321138
 33
0.0
  0
SOLID
  5
455D
  8
DIMS20
 10
299.84241578093793
 20
319.92798336987812
 30
0.0
 11
299.84241578093793
 21
318.59465003654469
 31
0.0
 12
303.84241578093793
 22
319.26131670321138
 32
0.0
 13
303.84241578093793
 23
319.26131670321138
 33
0.0
  0
INSERT
  5
455E
  8
0
  2
*U61
 10
0.0
 20
0.0
 30
0.0
  0
LINE
  5
455F
  8
DIMS20
 10
213.8424157809379
 20
336.76131670321138
 30
0.0
 11
213.8424157809379
 21
316.76131670321138
 31
0.0
  0
LINE
  5
4560
  8
DIMS20
 10
258.84241578093798
 20
336.76131670321138
 30
0.0
 11
258.84241578093798
 21
316.76131670321138
 31
0.0
  0
LINE
  5
4561
  8
DIMS20
 10
217.8424157809379
 20
319.26131670321138
 30
0.0
 11
254.8424157809379
 21
319.26131670321138
 31
0.0
  0
SOLID
  5
4562
  8
DIMS20
 10
217.8424157809379
 20
319.92798336987812
 30
0.0
 11
217.8424157809379
 21
318.59465003654469
 31
0.0
 12
213.8424157809379
 22
319.26131670321138
 32
0.0
 13
213.8424157809379
 23
319.26131670321138
 33
0.0
  0
SOLID
  5
4563
  8
DIMS20
 10
254.8424157809379
 20
319.92798336987812
 30
0.0
 11
254.8424157809379
 21
318.59465003654469
 31
0.0
 12
258.84241578093798
 22
319.26131670321138
 32
0.0
 13
258.84241578093798
 23
319.26131670321138
 33
0.0
  0
INSERT
  5
4564
  8
0
  2
*U62
 10
0.0
 20
0.0
 30
0.0
  0
LINE
  5
4565
  8
DIMS20
 10
168.8424157809379
 20
336.76131670321138
 30
0.0
 11
168.8424157809379
 21
316.76131670321138
 31
0.0
  0
LINE
  5
4566
  8
DIMS20
 10
213.8424157809379
 20
336.76131670321138
 30
0.0
 11
213.8424157809379
 21
316.76131670321138
 31
0.0
  0
LINE
  5
4567
  8
DIMS20
 10
172.8424157809379
 20
319.26131670321138
 30
0.0
 11
209.8424157809379
 21
319.26131670321138
 31
0.0
  0
SOLID
  5
4568
  8
DIMS20
 10
172.8424157809379
 20
319.92798336987812
 30
0.0
 11
172.8424157809379
 21
318.59465003654469
 31
0.0
 12
168.8424157809379
 22
319.26131670321138
 32
0.0
 13
168.8424157809379
 23
319.26131670321138
 33
0.0
  0
SOLID
  5
4569
  8
DIMS20
 10
209.8424157809379
 20
319.92798336987812
 30
0.0
 11
209.8424157809379
 21
318.59465003654469
 31
0.0
 12
213.8424157809379
 22
319.26131670321138
 32
0.0
 13
213.8424157809379
 23
319.26131670321138
 33
0.0
  0
INSERT
  5
456A
  8
0
  2
*U63
 10
0.0
 20
0.0
 30
0.0
  0
LINE
  5
456B
  8
DIMS20
 10
123.8424157809379
 20
336.76131670321138
 30
0.0
 11
123.8424157809379
 21
316.76131670321138
 31
0.0
  0
LINE
  5
456C
  8
DIMS20
 10
168.8424157809379
 20
336.76131670321138
 30
0.0
 11
168.8424157809379
 21
316.76131670321138
 31
0.0
  0
LINE
  5
456D
  8
DIMS20
 10
127.8424157809379
 20
319.26131670321138
 30
0.0
 11
164.8424157809379
 21
319.26131670321138
 31
0.0
  0
SOLID
  5
456E
  8
DIMS20
 10
127.8424157809379
 20
319.92798336987812
 30
0.0
 11
127.8424157809379
 21
318.59465003654469
 31
0.0
 12
123.8424157809379
 22
319.26131670321138
 32
0.0
 13
123.8424157809379
 23
319.26131670321138
 33
0.0
  0
SOLID
  5
456F
  8
DIMS20
 10
164.8424157809379
 20
319.92798336987812
 30
0.0
 11
164.8424157809379
 21
318.59465003654469
 31
0.0
 12
168.8424157809379
 22
319.26131670321138
 32
0.0
 13
168.8424157809379
 23
319.26131670321138
 33
0.0
  0
INSERT
  5
4570
  8
0
  2
*U64
 10
0.0
 20
0.0
 30
0.0
  0
LINE
  5
4571
  8
DIMS20
 10
113.8424157809379
 20
336.76131670321138
 30
0.0
 11
113.8424157809379
 21
316.76131670321138
 31
0.0
  0
LINE
  5
4572
  8
DIMS20
 10
123.8424157809379
 20
336.76131670321138
 30
0.0
 11
123.8424157809379
 21
316.76131670321138
 31
0.0
  0
LINE
  5
4573
  8
DIMS20
 10
109.8424157809379
 20
319.26131670321138
 30
0.0
 11
105.8424157809379
 21
319.26131670321138
 31
0.0
  0
LINE
  5
4574
  8
DIMS20
 10
127.8424157809379
 20
319.26131670321138
 30
0.0
 11
131.8424157809379
 21
319.26131670321138
 31
0.0
  0
LINE
  5
4575
  8
DIMS20
 10
93.239518276689637
 20
319.26131670321138
 30
0.0
 11
113.8424157809379
 21
319.26131670321138
 31
0.0
  0
INSERT
  5
4576
  8
0
  2
*U65
 10
0.0
 20
0.0
 30
0.0
  0
LINE
  5
4577
  8
DIMS20
 10
113.8424157809379
 20
319.26131670321138
 30
0.0
 11
123.8424157809379
 21
319.26131670321138
 31
0.0
  0
LINE
  5
4578
  8
DIMS20
 10
113.8424157809379
 20
319.26131670321138
 30
0.0
 11
123.8424157809379
 21
319.26131670321138
 31
0.0
  0
SOLID
  5
4579
  8
DIMS20
 10
109.8424157809379
 20
319.92798336987812
 30
0.0
 11
109.8424157809379
 21
318.59465003654469
 31
0.0
 12
113.8424157809379
 22
319.26131670321138
 32
0.0
 13
113.8424157809379
 23
319.26131670321138
 33
0.0
  0
SOLID
  5
457A
  8
DIMS20
 10
127.8424157809379
 20
319.92798336987812
 30
0.0
 11
127.8424157809379
 21
318.59465003654469
 31
0.0
 12
123.8424157809379
 22
319.26131670321138
 32
0.0
 13
123.8424157809379
 23
319.26131670321138
 33
0.0
  0
TEXT
  5
457B
  8
TITLE
 10
349.41666666666657
 20
88.488095238095184
 30
0.0
 40
5.0
  1
Ｈ１２．７．３
  0
LINE
  5
457C
  8
DEFPOINTS
 62
     4
 10
0.0
 20
0.0
 30
0.0
 11
420.0
 21
0.0
 31
0.0
  0
LINE
  5
457D
  8
DEFPOINTS
 62
     4
 10
420.0
 20
0.0
 30
0.0
 11
420.0
 21
594.0
 31
0.0
  0
LINE
  5
457E
  8
DEFPOINTS
 62
     4
 10
420.0
 20
594.0
 30
0.0
 11
0.0
 21
594.0
 31
0.0
  0
LINE
  5
457F
  8
DEFPOINTS
 62
     4
 10
0.0
 20
594.0
 30
0.0
 11
0.0
 21
0.0
 31
0.0
  0
LINE
  5
4580
  8
TITLE
 10
40.0
 20
25.25
 30
0.0
 11
399.5
 21
25.25
 31
0.0
  0
LINE
  5
4581
  8
TITLE
 10
399.5
 20
25.25
 30
0.0
 11
399.5
 21
568.75
 31
0.0
  0
LINE
  5
4582
  8
TITLE
 10
399.5
 20
568.75
 30
0.0
 11
40.0
 21
568.75
 31
0.0
  0
LINE
  5
4583
  8
TITLE
 10
40.0
 20
568.75
 30
0.0
 11
40.0
 21
25.25
 31
0.0
  0
LINE
  5
4584
  8
DIMS
 10
209.75
 20
191.83585882398739
 30
0.0
 11
209.75
 21
156.3093592645271
 31
0.0
  0
LINE
  5
4585
  8
DIMS
 10
229.75
 20
191.83585882398739
 30
0.0
 11
229.75
 21
156.3093592645271
 31
0.0
  0
LINE
  5
4586
  8
DIMS
 10
213.75000003915
 20
158.80935928899581
 30
0.0
 11
225.74999996085
 21
158.80935928899581
 31
0.0
  0
SOLID
  5
4587
  8
DIMS
 10
213.75000003915
 20
159.47602596218741
 30
0.0
 11
213.75000003915
 21
158.14269261580421
 31
0.0
 12
209.75
 22
158.80935928899581
 32
0.0
 13
209.75
 23
158.80935928899581
 33
0.0
  0
SOLID
  5
4588
  8
DIMS
 10
225.74999996085
 20
159.47602596218741
 30
0.0
 11
225.74999996085
 21
158.14269261580421
 31
0.0
 12
229.75
 22
158.80935928899581
 32
0.0
 13
229.75
 23
158.80935928899581
 33
0.0
  0
INSERT
  5
4589
  8
0
  2
*U66
 10
0.0
 20
0.0
 30
0.0
  0
LINE
  5
458A
  8
DIMS
 10
227.25000002446879
 20
189.33585884845601
 30
0.0
 11
255.84966210959249
 21
189.33585884845601
 31
0.0
  0
LINE
  5
458B
  8
DIMS
 10
227.25000002446879
 20
199.3358588484561
 30
0.0
 11
255.8496621095926
 21
199.3358588484561
 31
0.0
  0
LINE
  5
458C
  8
DIMS
 10
253.3496620851237
 20
185.3358588093061
 30
0.0
 11
253.3496620851237
 21
181.33585877015611
 31
0.0
  0
LINE
  5
458D
  8
DIMS
 10
253.34966208512381
 20
203.33585888760621
 30
0.0
 11
253.34966208512381
 21
207.3358589267562
 31
0.0
  0
LINE
  5
458E
  8
DIMS
 10
253.3496620851237
 20
189.33585884845601
 30
0.0
 11
253.34966208512381
 21
199.3358588484561
 31
0.0
  0
SOLID
  5
458F
  8
DIMS
 10
252.6829954119321
 20
185.3358588093061
 30
0.0
 11
254.01632875831541
 21
185.3358588093061
 31
0.0
 12
253.3496620851237
 22
189.33585884845601
 32
0.0
 13
253.3496620851237
 23
189.33585884845601
 33
0.0
  0
SOLID
  5
4590
  8
DIMS
 10
252.6829954119321
 20
203.33585888760621
 30
0.0
 11
254.01632875831541
 21
203.33585888760621
 31
0.0
 12
253.34966208512381
 22
199.3358588484561
 32
0.0
 13
253.34966208512381
 23
199.3358588484561
 33
0.0
  0
INSERT
  5
4591
  8
0
  2
*U67
 10
0.0
 20
0.0
 30
0.0
  0
TEXT
  5
4592
  8
TEXT
 10
346.55474347282058
 20
248.705109342756
 30
0.0
 40
5.0
  1
ｔ＝3.0
  0
TEXT
  5
4593
  8
TEXT
 10
167.34523809523799
 20
242.27828370198429
 30
0.0
 40
5.0
  1
本体及び当て板穴ピッチ　Ｓ＝１／20
  0
TEXT
  5
4594
  8
TITLE
 10
334.25
 20
127.3509941314132
 30
0.0
 40
5.0
  1
図  面  番  号
  0
TEXT
  5
4595
  8
TITLE
 10
341.03997042709972
 20
97.657592785082684
 30
0.0
 40
5.0
  1
日付
  0
TEXT
  5
4596
  8
TITLE
 10
281.70663709376629
 20
97.657592785082684
 30
0.0
 40
5.0
  1
仕上
  0
TEXT
  5
4597
  8
TITLE
 10
334.41666666666657
 20
112.5
 30
0.0
 40
5.0
  1
７Ｓ－０１０７
  0
TEXT
  5
4598
  8
TITLE
 10
154.58333333333329
 20
127.3509941314132
 30
0.0
 40
5.0
  1
群          別
  0
TEXT
  5
4599
  8
TITLE
 10
64.833333333333329
 20
127.3509941314132
 30
0.0
 40
5.0
  1
品          名
  0
TEXT
  5
459A
  8
TITLE
 10
221.7066370937664
 20
97.657592785082684
 30
0.0
 40
5.0
  1
縮尺
  0
TEXT
  5
459B
  8
TITLE
 10
133.8079197865309
 20
82.541466501886575
 30
0.0
 40
5.0
  1
規格
  0
TEXT
  5
459C
  8
TITLE
 10
133.8079197865309
 20
95.874799835220074
 30
0.0
 40
5.0
  1
材質
  0
TEXT
  5
459D
  8
TITLE
 10
133.8079197865309
 20
69.208133168553317
 30
0.0
 40
5.0
  1
重量
  0
TEXT
  5
459E
  8
TITLE
 10
75.974609949708793
 20
46.44137805834535
 30
0.0
 40
5.0
  1
本体：合成ゴム
  0
TEXT
  5
459F
  8
TITLE
 10
75.64127661637545
 20
38.108044725012022
 30
0.0
 40
5.0
  1
当て板：スチールＯＰ仕上
  0
TEXT
  5
45A0
  8
TITLE
 10
46.780765372688172
 20
87.269131109424734
 30
0.0
 40
4.0
  1
2
  0
LINE
  5
45A1
  8
TITLE
 10
48.75
 20
94.0
 30
0.0
 11
44.419872981077773
 21
86.5
 31
0.0
  0
LINE
  5
45A2
  8
TITLE
 10
44.419872981077773
 20
86.5
 30
0.0
 11
53.080127018922212
 21
86.5
 31
0.0
  0
LINE
  5
45A3
  8
TITLE
 10
53.080127018922212
 20
86.5
 30
0.0
 11
48.75
 21
94.0
 31
0.0
  0
TEXT
  5
45A4
  8
TITLE
 10
46.845238095238088
 20
77.354806053497882
 30
0.0
 40
4.0
  1
3
  0
TEXT
  5
45A5
  8
TITLE
 10
42.33110639383176
 20
57.478712299588317
 30
0.0
 40
5.0
  1
特記事項
  0
LINE
  5
45A6
  8
TITLE
 10
48.75
 20
74.0
 30
0.0
 11
44.419872981077773
 21
66.5
 31
0.0
  0
LINE
  5
45A7
  8
TITLE
 10
44.419872981077773
 20
66.5
 30
0.0
 11
53.080127018922212
 21
66.5
 31
0.0
  0
LINE
  5
45A8
  8
TITLE
 10
53.080127018922212
 20
66.5
 30
0.0
 11
48.75
 21
74.0
 31
0.0
  0
LINE
  5
45A9
  8
TITLE
 10
48.75
 20
84.0
 30
0.0
 11
44.419872981077773
 21
76.5
 31
0.0
  0
LINE
  5
45AA
  8
TITLE
 10
44.419872981077773
 20
76.5
 30
0.0
 11
53.080127018922212
 21
76.5
 31
0.0
  0
LINE
  5
45AB
  8
TITLE
 10
53.080127018922212
 20
76.5
 30
0.0
 11
48.75
 21
84.0
 31
0.0
  0
TEXT
  5
45AC
  8
TITLE
 10
52.5
 20
112.5
 30
0.0
 40
5.0
  1
ショックレスストッパー
  0
TEXT
  5
45AD
  8
TITLE
 10
64.666666666666643
 20
97.350994131413231
 30
0.0
 40
5.0
  1
経          歴
  0
TEXT
  5
45AE
  8
TEXT
 10
184.58333333333329
 20
144.68318676569629
 30
0.0
 40
5.0
  1
当て板穴寸法　Ｓ＝１／２
  0
TEXT
  5
45AF
  8
TITLE
 10
238.75
 20
112.5
 30
0.0
 40
5.0
  1
ＹＭＣＤ－７０７０
  0
TEXT
  5
45B0
  8
TITLE
 10
244.08333333333329
 20
127.3509941314132
 30
0.0
 40
5.0
  1
タ    イ    プ
  0
ARC
  5
47BF
  8
MODEL
 10
230.25
 20
474.87366570390799
 30
0.0
 40
23.0
 50
270.0
 51
90.0
  0
ENDSEC
  0
EOF
