  0
SECTION
  2
HEADER
  9
$ACADVER
  1
AC1009
  9
$INSBASE
 10
0.0
 20
0.0
 30
0.0
  9
$EXTMIN
 10
-0.1281640493871237
 20
-0.1812605841350887
 30
-0.0015258207003583
  9
$EXTMAX
 10
4200.1281836071612
 20
5940.1812882444137
 30
0.0000000349246037
  9
$LIMMIN
 10
0.0
 20
0.0
  9
$LIMMAX
 10
420.0
 20
297.0
  9
$ORTHOMODE
 70
     0
  9
$REGENMODE
 70
     1
  9
$FILLMODE
 70
     1
  9
$QTEXTMODE
 70
     0
  9
$MIRRTEXT
 70
     1
  9
$DRAGMODE
 70
     2
  9
$LTSCALE
 40
0.4
  9
$OSMODE
 70
    37
  9
$ATTMODE
 70
     1
  9
$TEXTSIZE
 40
2.5
  9
$TRACEWID
 40
1.0
  9
$TEXTSTYLE
  7
STANDARD
  9
$CLAYER
  8
0
  9
$CELTYPE
  6
BYLAYER
  9
$CECOLOR
 62
   256
  9
$DIMSCALE
 40
0.0
  9
$DIMASZ
 40
2.0
  9
$DIMEXO
 40
0.625
  9
$DIMDLI
 40
3.75
  9
$DIMRND
 40
0.0
  9
$DIMDLE
 40
0.0
  9
$DIMEXE
 40
1.25
  9
$DIMTP
 40
0.0
  9
$DIMTM
 40
0.0
  9
$DIMTXT
 40
2.5
  9
$DIMCEN
 40
0.0
  9
$DIMTSZ
 40
0.0
  9
$DIMTOL
 70
     0
  9
$DIMLIM
 70
     0
  9
$DIMTIH
 70
     0
  9
$DIMTOH
 70
     0
  9
$DIMSE1
 70
     0
  9
$DIMSE2
 70
     0
  9
$DIMTAD
 70
     1
  9
$DIMZIN
 70
     8
  9
$DIMBLK
  1

  9
$DIMASO
 70
     1
  9
$DIMSHO
 70
     1
  9
$DIMPOST
  1

  9
$DIMAPOST
  1

  9
$DIMALT
 70
     0
  9
$DIMALTD
 70
     3
  9
$DIMALTF
 40
0.03937007874016
  9
$DIMLFAC
 40
1.0
  9
$DIMTOFL
 70
     1
  9
$DIMTVP
 40
0.0
  9
$DIMTIX
 70
     0
  9
$DIMSOXD
 70
     0
  9
$DIMSAH
 70
     0
  9
$DIMBLK1
  1

  9
$DIMBLK2
  1

  9
$DIMSTYLE
  2
DIMS
  9
$DIMCLRD
 70
     0
  9
$DIMCLRE
 70
     0
  9
$DIMCLRT
 70
     7
  9
$DIMTFAC
 40
1.0
  9
$DIMGAP
 40
0.625
  9
$LUNITS
 70
     2
  9
$LUPREC
 70
     4
  9
$SKETCHINC
 40
1.0
  9
$FILLETRAD
 40
0.0
  9
$AUNITS
 70
     0
  9
$AUPREC
 70
     0
  9
$MENU
  1
.
  9
$ELEVATION
 40
0.0
  9
$PELEVATION
 40
0.0
  9
$THICKNESS
 40
0.0
  9
$LIMCHECK
 70
     0
  9
$BLIPMODE
 70
     0
  9
$CHAMFERA
 40
10.0
  9
$CHAMFERB
 40
10.0
  9
$SKPOLY
 70
     0
  9
$TDCREATE
 40
2451639.7154235072
  9
$TDUPDATE
 40
2458723.6445171302
  9
$TDINDWG
 40
0.1548130093
  9
$TDUSRTIMER
 40
0.1548128935
  9
$USRTIMER
 70
     1
  9
$ANGBASE
 50
0.0
  9
$ANGDIR
 70
     0
  9
$PDMODE
 70
     0
  9
$PDSIZE
 40
0.0
  9
$PLINEWID
 40
0.0
  9
$COORDS
 70
     1
  9
$SPLFRAME
 70
     0
  9
$SPLINETYPE
 70
     6
  9
$SPLINESEGS
 70
     8
  9
$ATTDIA
 70
     1
  9
$ATTREQ
 70
     1
  9
$HANDLING
 70
     1
  9
$HANDSEED
  5
4B40
  9
$SURFTAB1
 70
     6
  9
$SURFTAB2
 70
     6
  9
$SURFTYPE
 70
     6
  9
$SURFU
 70
     6
  9
$SURFV
 70
     6
  9
$UCSNAME
  2

  9
$UCSORG
 10
0.0
 20
0.0
 30
0.0
  9
$UCSXDIR
 10
1.0
 20
0.0
 30
0.0
  9
$UCSYDIR
 10
0.0
 20
1.0
 30
0.0
  9
$PUCSNAME
  2

  9
$PUCSORG
 10
0.0
 20
0.0
 30
0.0
  9
$PUCSXDIR
 10
1.0
 20
0.0
 30
0.0
  9
$PUCSYDIR
 10
0.0
 20
1.0
 30
0.0
  9
$USERI1
 70
     0
  9
$USERI2
 70
     0
  9
$USERI3
 70
     0
  9
$USERI4
 70
     0
  9
$USERI5
 70
     0
  9
$USERR1
 40
0.0
  9
$USERR2
 40
0.0
  9
$USERR3
 40
0.0
  9
$USERR4
 40
0.0
  9
$USERR5
 40
0.0
  9
$WORLDVIEW
 70
     1
  9
$SHADEDGE
 70
     3
  9
$SHADEDIF
 70
    70
  9
$TILEMODE
 70
     1
  9
$MAXACTVP
 70
    48
  9
$PLIMCHECK
 70
     0
  9
$PEXTMIN
 10
0.0
 20
0.0
 30
0.0
  9
$PEXTMAX
 10
0.0
 20
0.0
 30
0.0
  9
$PLIMMIN
 10
0.0
 20
0.0
  9
$PLIMMAX
 10
12.0
 20
9.0
  9
$UNITMODE
 70
     0
  9
$VISRETAIN
 70
     1
  9
$PLINEGEN
 70
     0
  9
$PSLTSCALE
 70
     0
  0
ENDSEC
  0
SECTION
  2
TABLES
  0
TABLE
  2
VPORT
 70
     1
  0
VPORT
  2
*ACTIVE
 70
     0
 10
0.0
 20
0.0
 11
1.0
 21
1.0
 12
2100.000009778887
 22
2970.0000138301389
 13
0.0
 23
0.0
 14
10.0
 24
10.0
 15
10.0
 25
10.0
 16
0.0
 26
0.0
 36
1.0
 17
0.0
 27
0.0
 37
0.0
 40
5999.3727728235344
 41
1.656716417910447
 42
50.0
 43
0.0
 44
0.0
 50
0.0
 51
0.0
 71
     0
 72
   100
 73
     1
 74
     3
 75
     0
 76
     0
 77
     0
 78
     0
  0
ENDTAB
  0
TABLE
  2
LTYPE
 70
     1
  0
LTYPE
  2
CONTINUOUS
 70
     0
  3
Solid line
 72
    65
 73
     0
 40
0.0
  0
ENDTAB
  0
TABLE
  2
LAYER
 70
     5
  0
LAYER
  2
0
 70
     0
 62
     7
  6
CONTINUOUS
  0
LAYER
  2
TITLE
 70
     0
 62
     7
  6
CONTINUOUS
  0
LAYER
  2
DEFPOINTS
 70
     0
 62
     7
  6
CONTINUOUS
  0
LAYER
  2
DIMS
 70
     0
 62
     1
  6
CONTINUOUS
  0
LAYER
  2
MODEL
 70
     0
 62
     7
  6
CONTINUOUS
  0
ENDTAB
  0
TABLE
  2
STYLE
 70
     3
  0
STYLE
  2
STANDARD
 70
     0
 40
0.0
 41
1.0
 50
0.0
 71
     0
 42
2.5
  3
romans.shx
  4
bigfont.shx
  0
STYLE
  2
DIMS
 70
     0
 40
0.0
 41
0.75
 50
0.0
 71
     0
 42
2.5
  3
romans.shx
  4
bigfont.shx
  0
ENDTAB
  0
TABLE
  2
VIEW
 70
     1
  0
VIEW
  2
PRINT
 70
     1
 40
128.5
 10
98.875866602002361
 20
145.24226553880581
 41
88.0
 11
0.0
 21
0.0
 31
1.0
 12
0.0
 22
0.0
 32
0.0
 42
50.0
 43
0.0
 44
0.0
 50
0.0
 71
     0
  0
ENDTAB
  0
TABLE
  2
UCS
 70
     0
  0
ENDTAB
  0
TABLE
  2
APPID
 70
    15
  0
APPID
  2
ACAD
 70
     0
  0
APPID
  2
ACAD_EXEMPT_FROM_CAD_STANDARDS
 70
     0
  0
APPID
  2
ACAD_MLEADERVER
 70
     0
  0
APPID
  2
ACAD_PSEXT
 70
     0
  0
APPID
  2
ACAD_NAV_VCDISPLAY
 70
     0
  0
APPID
  2
ACAECLAYERSTANDARD
 70
     0
  0
APPID
  2
ACCMTRANSPARENCY
 70
     0
  0
APPID
  2
ACAD_DSTYLE_DIMRADIAL_EXTENSION
 70
     0
  0
APPID
  2
ACAD_DSTYLE_DIMTALN
 70
     0
  0
APPID
  2
ACLAYERTOOLS
 70
     0
  0
APPID
  2
ACAD_DSTYLE_DIMJAG
 70
     0
  0
APPID
  2
ACAD_DSTYLE_DIMBREAK
 70
     0
  0
APPID
  2
ACAD_DSTYLE_DIM_LINETYPE
 70
     0
  0
APPID
  2
ACAD_DSTYLE_DIM_EXT1_LINETYPE
 70
     0
  0
APPID
  2
ACAD_DSTYLE_DIM_EXT2_LINETYPE
 70
     0
  0
ENDTAB
  0
TABLE
  2
DIMSTYLE
 70
     4
  0
DIMSTYLE
  2
DIMS
 70
     0
  3

  4

  5

  6

  7

 40
0.0
 41
2.0
 42
0.625
 43
3.75
 44
1.25
 45
0.0
 46
0.0
 47
0.0
 48
0.0
140
2.5
141
0.0
142
0.0
143
0.03937007874016
144
1.0
145
0.0
146
1.0
147
0.625
 71
     0
 72
     0
 73
     0
 74
     0
 75
     0
 76
     0
 77
     1
 78
     8
170
     0
171
     3
172
     1
173
     0
174
     0
175
     0
176
     0
177
     0
178
     7
  0
DIMSTYLE
  2
STANDARD
 70
     0
  3

  4

  5

  6

  7

 40
1.0
 41
0.18
 42
0.0625
 43
0.38
 44
0.18
 45
0.0
 46
0.0
 47
0.0
 48
0.0
140
0.18
141
0.09
142
0.0
143
25.399999999999999
144
1.0
145
0.0
146
1.0
147
0.09
 71
     0
 72
     0
 73
     1
 74
     1
 75
     0
 76
     0
 77
     0
 78
     0
170
     0
171
     2
172
     0
173
     0
174
     0
175
     0
176
     0
177
     0
178
     0
  0
DIMSTYLE
  2
YM塗矢
 70
     0
  3

  4

  5

  6

  7

 40
1.0
 41
2.0
 42
1.0
 43
6.0
 44
1.0
 45
0.0
 46
0.0
 47
0.0
 48
0.0
140
3.0
141
0.0
142
0.0
143
0.03937007874016
144
1.0
145
0.0
146
1.0
147
1.0
 71
     0
 72
     0
 73
     0
 74
     0
 75
     0
 76
     0
 77
     1
 78
     8
170
     0
171
     3
172
     1
173
     0
174
     1
175
     0
176
     1
177
     1
178
     7
  0
ENDTAB
  0
ENDSEC
  0
SECTION
  2
BLOCKS
  0
BLOCK
  8
0
  2
$MODEL_SPACE
 70
     0
 10
0.0
 20
0.0
 30
0.0
  3
$MODEL_SPACE
  1

  0
ENDBLK
  5
21
  8
0
  0
BLOCK
 67
     1
  8
0
  2
$PAPER_SPACE
 70
     0
 10
0.0
 20
0.0
 30
0.0
  3
$PAPER_SPACE
  1

  0
ENDBLK
  5
1960
 67
     1
  8
0
  0
BLOCK
  8
0
  2
*D0
 70
     1
 10
0.0
 20
0.0
 30
0.0
  3
*D0
  1

  0
LINE
  5
49C0
  8
DIMS
  6
CONTINUOUS
 62
     1
 10
3072.5000000000009
 20
3768.3200000000002
 30
0.0
 11
3072.5000000000009
 21
3888.3200000000002
 31
0.0
  0
LINE
  5
49C1
  8
DIMS
  6
CONTINUOUS
 62
     1
 10
3122.5000000000009
 20
3768.3200000000002
 30
0.0
 11
3122.5000000000009
 21
3888.3200000000002
 31
0.0
  0
LINE
  5
49C2
  8
DIMS
  6
CONTINUOUS
 62
     1
 10
3032.5000000000009
 20
3868.3200000000002
 30
0.0
 11
2992.5000000000009
 21
3868.3200000000002
 31
0.0
  0
LINE
  5
49C3
  8
DIMS
  6
CONTINUOUS
 62
     1
 10
3162.5000000000009
 20
3868.3200000000002
 30
0.0
 11
3202.5000000000009
 21
3868.3200000000002
 31
0.0
  0
LINE
  5
49C4
  8
DIMS
  6
CONTINUOUS
 62
     1
 10
3072.5000000000009
 20
3868.3200000000002
 30
0.0
 11
3122.5000000000009
 21
3868.3200000000002
 31
0.0
  0
SOLID
  5
49C5
  8
DIMS
  6
CONTINUOUS
 62
     1
 10
3032.5000000000009
 20
3874.9866666666662
 30
0.0
 11
3032.5000000000009
 21
3861.6533333333332
 31
0.0
 12
3072.5000000000009
 22
3868.3200000000002
 32
0.0
 13
3072.5000000000009
 23
3868.3200000000002
 33
0.0
  0
SOLID
  5
49C6
  8
DIMS
  6
CONTINUOUS
 62
     1
 10
3162.5000000000009
 20
3874.9866666666662
 30
0.0
 11
3162.5000000000009
 21
3861.6533333333332
 31
0.0
 12
3122.5000000000009
 22
3868.3200000000002
 32
0.0
 13
3122.5000000000009
 23
3868.3200000000002
 33
0.0
  0
INSERT
  5
49C7
  8
0
  2
*U5
 10
0.0
 20
0.0
 30
0.0
  0
POINT
  5
49C8
  8
DEFPOINTS
  6
CONTINUOUS
 62
     0
 10
3072.5000000000009
 20
3748.3200000000002
 30
0.0
  0
POINT
  5
49C9
  8
DEFPOINTS
  6
CONTINUOUS
 62
     0
 10
3122.5000000000009
 20
3748.3200000000002
 30
0.0
  0
POINT
  5
49CA
  8
DEFPOINTS
  6
CONTINUOUS
 62
     0
 10
3122.5000000000009
 20
3868.3200000000002
 30
0.0
  0
ENDBLK
  5
498C
  8
0
  0
BLOCK
  8
0
  2
*D1
 70
     1
 10
0.0
 20
0.0
 30
0.0
  3
*D1
  1

  0
LINE
  5
49CB
  8
DIMS
  6
CONTINUOUS
 62
     1
 10
1246.9200000000001
 20
3768.3200000000002
 30
0.0
 11
1246.9200000000001
 21
3888.3200000000002
 31
0.0
  0
LINE
  5
49CC
  8
DIMS
  6
CONTINUOUS
 62
     1
 10
2146.920000000001
 20
3768.3200000000002
 30
0.0
 11
2146.920000000001
 21
3888.3200000000002
 31
0.0
  0
LINE
  5
49CD
  8
DIMS
  6
CONTINUOUS
 62
     1
 10
1286.9200000000001
 20
3868.3200000000002
 30
0.0
 11
2106.920000000001
 21
3868.3200000000002
 31
0.0
  0
SOLID
  5
49CE
  8
DIMS
  6
CONTINUOUS
 62
     1
 10
1286.9200000000001
 20
3874.9866666666662
 30
0.0
 11
1286.9200000000001
 21
3861.6533333333332
 31
0.0
 12
1246.9200000000001
 22
3868.3200000000002
 32
0.0
 13
1246.9200000000001
 23
3868.3200000000002
 33
0.0
  0
SOLID
  5
49CF
  8
DIMS
  6
CONTINUOUS
 62
     1
 10
2106.920000000001
 20
3874.9866666666662
 30
0.0
 11
2106.920000000001
 21
3861.6533333333332
 31
0.0
 12
2146.920000000001
 22
3868.3200000000002
 32
0.0
 13
2146.920000000001
 23
3868.3200000000002
 33
0.0
  0
INSERT
  5
49D0
  8
0
  2
*U6
 10
0.0
 20
0.0
 30
0.0
  0
POINT
  5
49D1
  8
DEFPOINTS
  6
CONTINUOUS
 62
     0
 10
1246.9200000000001
 20
3748.3200000000002
 30
0.0
  0
POINT
  5
49D2
  8
DEFPOINTS
  6
CONTINUOUS
 62
     0
 10
2146.920000000001
 20
3748.3200000000002
 30
0.0
  0
POINT
  5
49D3
  8
DEFPOINTS
  6
CONTINUOUS
 62
     0
 10
2146.920000000001
 20
3868.3200000000002
 30
0.0
  0
ENDBLK
  5
499A
  8
0
  0
BLOCK
  8
0
  2
*D2
 70
     1
 10
0.0
 20
0.0
 30
0.0
  3
*D2
  1

  0
LINE
  5
49D4
  8
DIMS
  6
CONTINUOUS
 62
     1
 10
2166.920000000001
 20
4714.1599999999989
 30
0.0
 11
2286.920000000001
 21
4714.1599999999989
 31
0.0
  0
LINE
  5
49D5
  8
DIMS
  6
CONTINUOUS
 62
     1
 10
2166.920000000001
 20
4764.1599999999989
 30
0.0
 11
2286.920000000001
 21
4764.1599999999989
 31
0.0
  0
LINE
  5
49D6
  8
DIMS
  6
CONTINUOUS
 62
     1
 10
2266.920000000001
 20
4674.1599999999989
 30
0.0
 11
2266.920000000001
 21
4634.1599999999999
 31
0.0
  0
LINE
  5
49D7
  8
DIMS
  6
CONTINUOUS
 62
     1
 10
2266.920000000001
 20
4804.1599999999999
 30
0.0
 11
2266.920000000001
 21
4844.1599999999999
 31
0.0
  0
LINE
  5
49D8
  8
DIMS
  6
CONTINUOUS
 62
     1
 10
2266.920000000001
 20
4510.6076939650438
 30
0.0
 11
2266.920000000001
 21
4714.1599999999989
 31
0.0
  0
INSERT
  5
49D9
  8
0
  2
*U7
 10
0.0
 20
0.0
 30
0.0
  0
LINE
  5
49DA
  8
DIMS
  6
CONTINUOUS
 62
     1
 10
2266.920000000001
 20
4714.1599999999989
 30
0.0
 11
2266.920000000001
 21
4764.1599999999989
 31
0.0
  0
LINE
  5
49DB
  8
DIMS
  6
CONTINUOUS
 62
     1
 10
2266.920000000001
 20
4714.1599999999989
 30
0.0
 11
2266.920000000001
 21
4764.1599999999989
 31
0.0
  0
SOLID
  5
49DC
  8
DIMS
  6
CONTINUOUS
 62
     1
 10
2260.253333333334
 20
4674.1599999999989
 30
0.0
 11
2273.586666666667
 21
4674.1599999999989
 31
0.0
 12
2266.920000000001
 22
4714.1599999999989
 32
0.0
 13
2266.920000000001
 23
4714.1599999999989
 33
0.0
  0
SOLID
  5
49DD
  8
DIMS
  6
CONTINUOUS
 62
     1
 10
2260.253333333334
 20
4804.1599999999999
 30
0.0
 11
2273.586666666667
 21
4804.1599999999999
 31
0.0
 12
2266.920000000001
 22
4764.1599999999989
 32
0.0
 13
2266.920000000001
 23
4764.1599999999989
 33
0.0
  0
POINT
  5
49DE
  8
DEFPOINTS
  6
CONTINUOUS
 62
     0
 10
2146.920000000001
 20
4714.1599999999989
 30
0.0
  0
POINT
  5
49DF
  8
DEFPOINTS
  6
CONTINUOUS
 62
     0
 10
2146.920000000001
 20
4764.1599999999989
 30
0.0
  0
POINT
  5
49E0
  8
DEFPOINTS
  6
CONTINUOUS
 62
     0
 10
2266.920000000001
 20
4764.1599999999989
 30
0.0
  0
ENDBLK
  5
49A6
  8
0
  0
BLOCK
  8
0
  2
*D3
 70
     1
 10
0.0
 20
0.0
 30
0.0
  3
*D3
  1

  0
LINE
  5
49E1
  8
DIMS
  6
CONTINUOUS
 62
     1
 10
2166.920000000001
 20
2748.3200000000002
 30
0.0
 11
2286.9200000000001
 21
2748.3200000000002
 31
0.0
  0
LINE
  5
49E2
  8
DIMS
  6
CONTINUOUS
 62
     1
 10
2166.920000000001
 20
3748.3200000000002
 30
0.0
 11
2286.9200000000001
 21
3748.3200000000002
 31
0.0
  0
LINE
  5
49E3
  8
DIMS
  6
CONTINUOUS
 62
     1
 10
2266.9200000000001
 20
2788.3200000000002
 30
0.0
 11
2266.9200000000001
 21
3708.3200000000002
 31
0.0
  0
SOLID
  5
49E4
  8
DIMS
  6
CONTINUOUS
 62
     1
 10
2260.2533333333331
 20
2788.3200000000002
 30
0.0
 11
2273.5866666666661
 21
2788.3200000000002
 31
0.0
 12
2266.9200000000001
 22
2748.3200000000002
 32
0.0
 13
2266.9200000000001
 23
2748.3200000000002
 33
0.0
  0
SOLID
  5
49E5
  8
DIMS
  6
CONTINUOUS
 62
     1
 10
2260.253333333334
 20
3708.3200000000002
 30
0.0
 11
2273.586666666667
 21
3708.3200000000002
 31
0.0
 12
2266.9200000000001
 22
3748.3200000000002
 32
0.0
 13
2266.9200000000001
 23
3748.3200000000002
 33
0.0
  0
INSERT
  5
49E6
  8
0
  2
*U8
 10
0.0
 20
0.0
 30
0.0
  0
POINT
  5
49E7
  8
DEFPOINTS
  6
CONTINUOUS
 62
     0
 10
2146.920000000001
 20
2748.3200000000002
 30
0.0
  0
POINT
  5
49E8
  8
DEFPOINTS
  6
CONTINUOUS
 62
     0
 10
2146.920000000001
 20
3748.3200000000002
 30
0.0
  0
POINT
  5
49E9
  8
DEFPOINTS
  6
CONTINUOUS
 62
     0
 10
2266.9200000000001
 20
3748.3200000000002
 30
0.0
  0
ENDBLK
  5
49B6
  8
0
  0
BLOCK
  8
0
  2
*U5
 70
     1
 10
0.0
 20
0.0
 30
0.0
  3
*U5
  1

  0
TEXT
  5
4B21
  8
DIMS
 62
     7
 10
3054.6428571428578
 20
3888.3200000000002
 30
0.0
 40
60.0
  1
50
 41
0.75
  7
DIMS
  0
ENDBLK
  5
4B23
  8
0
  0
BLOCK
  8
0
  2
*U6
 70
     1
 10
0.0
 20
0.0
 30
0.0
  3
*U6
  1

  0
TEXT
  5
4B25
  8
DIMS
 62
     7
 10
1632.6342857142861
 20
3888.3200000000002
 30
0.0
 40
60.0
  1
900
 41
0.75
  7
DIMS
  0
ENDBLK
  5
4B27
  8
0
  0
BLOCK
  8
0
  2
*U7
 70
     1
 10
0.0
 20
0.0
 30
0.0
  3
*U7
  1

  0
TEXT
  5
4B29
  8
DIMS
 62
     7
 10
2246.9200000000001
 20
4524.1791225364741
 30
0.0
 40
60.0
  1
50
 50
90.0
 41
0.75
  7
DIMS
  0
ENDBLK
  5
4B2B
  8
0
  0
BLOCK
  8
0
  2
*U8
 70
     1
 10
0.0
 20
0.0
 30
0.0
  3
*U8
  1

  0
TEXT
  5
4B2D
  8
DIMS
 62
     7
 10
2246.9199999999992
 20
3159.3914285714291
 30
0.0
 40
60.0
  1
1000
 50
90.0
 41
0.75
  7
DIMS
  0
ENDBLK
  5
4B2F
  8
0
  0
BLOCK
  8
0
  2
*U9
 70
     1
 10
0.0
 20
0.0
 30
0.0
  3
*U9
  1

  0
TEXT
  5
4B31
  8
DIMS
 62
     7
 10
2246.9199999999992
 20
3159.3914285714291
 30
0.0
 40
60.0
  1
1000
 50
90.0
 41
0.75
  7
DIMS
  0
ENDBLK
  5
4B33
  8
0
  0
BLOCK
  8
0
  2
*U10
 70
     1
 10
0.0
 20
0.0
 30
0.0
  3
*U10
  1

  0
TEXT
  5
4B35
  8
DIMS
 62
     7
 10
2246.9200000000001
 20
4524.1791225364741
 30
0.0
 40
60.0
  1
50
 50
90.0
 41
0.75
  7
DIMS
  0
ENDBLK
  5
4B37
  8
0
  0
BLOCK
  8
0
  2
*U11
 70
     1
 10
0.0
 20
0.0
 30
0.0
  3
*U11
  1

  0
TEXT
  5
4B39
  8
DIMS
 62
     7
 10
1632.6342857142861
 20
3888.3200000000002
 30
0.0
 40
60.0
  1
900
 41
0.75
  7
DIMS
  0
ENDBLK
  5
4B3B
  8
0
  0
BLOCK
  8
0
  2
*U12
 70
     1
 10
0.0
 20
0.0
 30
0.0
  3
*U12
  1

  0
TEXT
  5
4B3D
  8
DIMS
 62
     7
 10
3054.6428571428578
 20
3888.3200000000002
 30
0.0
 40
60.0
  1
50
 41
0.75
  7
DIMS
  0
ENDBLK
  5
4B3F
  8
0
  0
ENDSEC
  0
SECTION
  2
ENTITIES
  0
LINE
  5
1055
  8
TITLE
 10
400.0
 20
650.0
 30
0.0
 11
3995.0
 21
650.0
 31
0.0
  0
LINE
  5
1056
  8
TITLE
 10
400.0
 20
1050.0
 30
0.0
 11
3995.0
 21
1050.0
 31
0.0
  0
LINE
  5
1057
  8
TITLE
 10
400.0
 20
1250.0
 30
0.0
 11
3995.0
 21
1250.0
 31
0.0
  0
LINE
  5
1058
  8
TITLE
 10
1297.5
 20
783.33333333333303
 30
0.0
 11
2197.4999999999991
 21
783.33333333333303
 31
0.0
  0
LINE
  5
1059
  8
TITLE
 10
1297.5
 20
916.66666666666617
 30
0.0
 11
2197.4999999999991
 21
916.66666666666617
 31
0.0
  0
LINE
  5
105A
  8
TITLE
 10
400.0
 20
1350.0
 30
0.0
 11
3995.0
 21
1350.0
 31
0.0
  0
LINE
  5
105E
  8
TITLE
 10
400.0
 20
950.0
 30
0.0
 11
1297.5
 21
950.0
 31
0.0
  0
LINE
  5
105F
  8
TITLE
 10
400.0
 20
850.0
 30
0.0
 11
1297.5
 21
850.0
 31
0.0
  0
LINE
  5
1061
  8
TITLE
 10
400.0
 20
750.0
 30
0.0
 11
1297.5
 21
750.0
 31
0.0
  0
LINE
  5
1069
  8
TITLE
 10
1297.5
 20
1350.0
 30
0.0
 11
1297.5
 21
650.0
 31
0.0
  0
LINE
  5
106E
  8
TITLE
 10
3449.3510499563381
 20
768.46908661963926
 30
0.0
 11
3463.4373839593331
 21
782.55542062262282
 31
0.0
  0
LINE
  5
106F
  8
TITLE
 10
3451.096747409279
 20
768.46908661963926
 30
0.0
 11
3465.1830814122791
 21
782.55542062262282
 31
0.0
  0
LINE
  5
1070
  8
TITLE
 10
3452.8424448622259
 20
768.46908661963926
 30
0.0
 11
3466.928778865215
 21
782.55542062262282
 31
0.0
  0
LINE
  5
1071
  8
TITLE
 10
3454.5881423150249
 20
768.46908661963926
 30
0.0
 11
3468.67447631816
 21
782.55542062262282
 31
0.0
  0
LINE
  5
1072
  8
TITLE
 10
3456.3338397679699
 20
768.46908661963926
 30
0.0
 11
3470.4201737709591
 21
782.55542062262282
 31
0.0
  0
LINE
  5
1073
  8
TITLE
 10
3458.0795372209118
 20
768.46908661963926
 30
0.0
 11
3472.1658712239082
 21
782.55542062262282
 31
0.0
  0
LINE
  5
1074
  8
TITLE
 10
3459.8252346738559
 20
768.46908661963926
 30
0.0
 11
3473.911568676845
 21
782.55542062262282
 31
0.0
  0
LINE
  5
1075
  8
TITLE
 10
3461.5709321267982
 20
768.46908661963926
 30
0.0
 11
3475.6572661297901
 21
782.55542062262282
 31
0.0
  0
LINE
  5
1076
  8
TITLE
 10
3445.895077200872
 20
686.45672848244453
 30
0.0
 11
3463.1341548341202
 21
703.69580611569506
 31
0.0
  0
LINE
  5
1077
  8
TITLE
 10
3447.0158183103358
 20
685.83177213896136
 30
0.0
 11
3465.0522060321932
 21
703.8681598606845
 31
0.0
  0
LINE
  5
1078
  8
TITLE
 10
3448.8029337909688
 20
685.87319016658057
 30
0.0
 11
3466.9844836523589
 21
704.05474002804885
 31
0.0
  0
LINE
  5
1079
  8
TITLE
 10
3450.605277188738
 20
685.92983611155751
 30
0.0
 11
3468.9313374935191
 21
704.25589641626402
 31
0.0
  0
LINE
  5
107A
  8
TITLE
 10
3452.4232569188798
 20
686.00211838868597
 30
0.0
 11
3470.8931339728679
 21
704.47199544267573
 31
0.0
  0
LINE
  5
107B
  8
TITLE
 10
3454.2573033834151
 20
686.09046740034637
 30
0.0
 11
3487.1634784242769
 21
718.99664244113421
 31
0.0
  0
LINE
  5
107C
  8
TITLE
 10
3456.1078706600351
 20
686.19533722395181
 30
0.0
 11
3487.1634784242769
 21
717.25094498818567
 31
0.0
  0
LINE
  5
107D
  8
TITLE
 10
3457.9754383599288
 20
686.31720747104043
 30
0.0
 11
3487.1634784242769
 21
715.50524753523985
 31
0.0
  0
LINE
  5
107E
  8
TITLE
 10
3459.860513680992
 20
686.45658533916344
 30
0.0
 11
3487.1634784242769
 21
713.75955008230289
 31
0.0
  0
LINE
  5
107F
  8
TITLE
 10
3461.7636336778542
 20
686.6140078829344
 30
0.0
 11
3487.1634784242769
 21
712.01385262942415
 31
0.0
  0
LINE
  5
1080
  8
TITLE
 10
3449.0293876325049
 20
740.21626504899825
 30
0.0
 11
3463.195872741831
 21
754.38275015832664
 31
0.0
  0
LINE
  5
1081
  8
TITLE
 10
3449.811803406023
 20
739.25298336958031
 30
0.0
 11
3464.9415701947701
 21
754.38275015832664
 31
0.0
  0
LINE
  5
1082
  8
TITLE
 10
3451.5575008589672
 20
739.25298336958031
 30
0.0
 11
3466.6872676477151
 21
754.38275015832664
 31
0.0
  0
LINE
  5
1083
  8
TITLE
 10
3453.303198311914
 20
739.25298336958031
 30
0.0
 11
3468.4329651006578
 21
754.38275015832664
 31
0.0
  0
LINE
  5
1084
  8
TITLE
 10
3455.0488957648608
 20
739.25298336958031
 30
0.0
 11
3470.1786625534601
 21
754.38275015832664
 31
0.0
  0
LINE
  5
1085
  8
TITLE
 10
3456.794593217799
 20
739.25298336958031
 30
0.0
 11
3471.9243600063992
 21
754.38275015832664
 31
0.0
  0
LINE
  5
1086
  8
TITLE
 10
3458.5402906705999
 20
739.25298336958031
 30
0.0
 11
3473.6700574593451
 21
754.38275015832664
 31
0.0
  0
LINE
  5
1087
  8
TITLE
 10
3460.2859881235422
 20
739.25298336958031
 30
0.0
 11
3475.4157549122929
 21
754.38275015832664
 31
0.0
  0
LINE
  5
1088
  8
TITLE
 10
3462.031685576485
 20
739.25298336958031
 30
0.0
 11
3477.1614523652361
 21
754.38275015832664
 31
0.0
  0
LINE
  5
108D
  8
TITLE
 10
2197.4999999999991
 20
850.0
 30
0.0
 11
3995.0
 21
850.0
 31
0.0
  0
LINE
  5
108E
  8
TITLE
 10
3097.4999999999982
 20
1350.0
 30
0.0
 11
3097.4999999999982
 21
1050.0
 31
0.0
  0
LINE
  5
108F
  8
TITLE
 10
2197.4999999999991
 20
1350.0
 30
0.0
 11
2197.5
 21
650.0
 31
0.0
  0
LINE
  5
1091
  8
TITLE
 10
2798.925880005123
 20
765.69767170528417
 30
0.0
 11
2827.2026749676438
 21
793.97446666780195
 31
0.0
  0
LINE
  5
1092
  8
TITLE
 10
2801.8663259105379
 20
766.89242015775574
 30
0.0
 11
2827.2026749676438
 21
792.22876921485647
 31
0.0
  0
LINE
  5
1093
  8
TITLE
 10
2804.670075644342
 20
767.9504724385456
 30
0.0
 11
2827.2026749676438
 21
790.48307176191645
 31
0.0
  0
LINE
  5
1094
  8
TITLE
 10
2792.5125277694779
 20
762.77571437551273
 30
0.0
 11
2826.5320284941208
 21
796.79521510016662
 31
0.0
  0
LINE
  5
1095
  8
TITLE
 10
2795.8209942460639
 20
764.33848339916483
 30
0.0
 11
2827.2026749676438
 21
795.72016412074549
 31
0.0
  0
LINE
  5
1096
  8
TITLE
 10
2761.6451839785718
 20
744.12825275506884
 30
0.0
 11
2810.5446648042339
 21
793.02773358081538
 31
0.0
  0
LINE
  5
1097
  8
TITLE
 10
2763.5671693497861
 20
744.30454067326275
 30
0.0
 11
2813.0242381826629
 21
793.76160950622079
 31
0.0
  0
LINE
  5
1098
  8
TITLE
 10
2763.5671693497861
 20
742.55884322039242
 30
0.0
 11
2815.4276095103119
 21
794.41928338092498
 31
0.0
  0
LINE
  5
1099
  8
TITLE
 10
2763.5671693497861
 20
740.81314576745558
 30
0.0
 11
2817.7625032548399
 21
795.00847967251718
 31
0.0
  0
LINE
  5
109A
  8
TITLE
 10
2763.5671693497861
 20
739.06744831450965
 30
0.0
 11
2820.0353514077342
 21
795.53563037245499
 31
0.0
  0
LINE
  5
109B
  8
TITLE
 10
2763.5671693497861
 20
737.32175086156997
 30
0.0
 11
2822.251578384773
 21
796.00615989670064
 31
0.0
  0
LINE
  5
109C
  8
TITLE
 10
2763.5671693497861
 20
735.57605340862426
 30
0.0
 11
2824.4158097820832
 21
796.42469384107687
 31
0.0
  0
LINE
  5
109D
  8
TITLE
 10
2758.4937160767231
 20
742.72248230609409
 30
0.0
 11
2807.9794743473731
 21
792.20824057681079
 31
0.0
  0
LINE
  5
109E
  8
TITLE
 10
2506.7646096564608
 20
822.08158241144372
 30
0.0
 11
2448.3874037412152
 21
763.70437649619498
 31
0.0
  0
LINE
  5
109F
  8
TITLE
 10
2467.6895827470262
 20
669.02525803069102
 30
0.0
 11
2543.0665222067219
 21
744.40219749034452
 31
0.0
  0
LINE
  5
10A0
  8
TITLE
 10
2465.9376819709842
 20
669.0190547075764
 30
0.0
 11
2543.072725529833
 21
746.15409826640496
 31
0.0
  0
LINE
  5
10A1
  8
TITLE
 10
2464.2247035838382
 20
669.05177377320467
 30
0.0
 11
2543.2160518916121
 21
748.04312208098816
 31
0.0
  0
LINE
  5
10A2
  8
TITLE
 10
2462.5482079093758
 20
669.12097555167975
 30
0.0
 11
2542.970804685724
 21
749.54357232818188
 31
0.0
  0
LINE
  5
10A3
  8
TITLE
 10
2460.9060485673749
 20
669.22451366285736
 30
0.0
 11
2542.8672665745621
 21
751.18573166990018
 31
0.0
  0
LINE
  5
10A4
  8
TITLE
 10
2459.2963259299731
 20
669.36048847818188
 30
0.0
 11
2542.731291759229
 21
752.79545430742792
 31
0.0
  0
LINE
  5
10A5
  8
TITLE
 10
2457.2068035588632
 20
669.01666356001795
 30
0.0
 11
2542.5645704945168
 21
754.37443049580384
 31
0.0
  0
LINE
  5
10A6
  8
TITLE
 10
2471.3217445401801
 20
669.16602491790866
 30
0.0
 11
2542.9257553194998
 21
740.77003569724423
 31
0.0
  0
LINE
  5
10A7
  8
TITLE
 10
2469.483197506418
 20
669.07317533707555
 30
0.0
 11
2543.0186049003319
 21
742.60858273103463
 31
0.0
  0
LINE
  5
10A8
  8
TITLE
 10
2477.1478199598969
 20
669.75500797881739
 30
0.0
 11
2542.3367722585908
 21
734.94396027750952
 31
0.0
  0
LINE
  5
10A9
  8
TITLE
 10
2473.2089655822219
 20
669.30754850702976
 30
0.0
 11
2542.7842317303821
 21
738.88281465518276
 31
0.0
  0
LINE
  5
10AA
  8
TITLE
 10
2475.149252987233
 20
669.50213845909502
 30
0.0
 11
2542.5896417783142
 21
736.94252725017475
 31
0.0
  0
LINE
  5
10AB
  8
TITLE
 10
2455.4611061059159
 20
669.01666356001249
 30
0.0
 11
2542.36861398973
 21
755.92417144382523
 31
0.0
  0
LINE
  5
10AC
  8
TITLE
 10
2453.7154086529072
 20
669.01666356001249
 30
0.0
 11
2542.144779248174
 21
757.44603415528354
 31
0.0
  0
LINE
  5
10AD
  8
TITLE
 10
2451.9697112000358
 20
669.01666356001249
 30
0.0
 11
2541.894289586322
 21
758.94124194629921
 31
0.0
  0
LINE
  5
10AE
  8
TITLE
 10
2450.2240137470922
 20
669.01666356001249
 30
0.0
 11
2541.618251716618
 21
760.41090152953745
 31
0.0
  0
LINE
  5
10AF
  8
TITLE
 10
2448.4783162941521
 20
669.01666356001249
 30
0.0
 11
2541.317670072322
 21
761.85601733819135
 31
0.0
  0
LINE
  5
10B0
  8
TITLE
 10
2446.7326188411571
 20
669.01666356001249
 30
0.0
 11
2540.9934588989299
 21
763.27750361766743
 31
0.0
  0
LINE
  5
10B1
  8
TITLE
 10
2444.9869213882098
 20
669.01666356001249
 30
0.0
 11
2540.6464525228721
 21
764.67619469455735
 31
0.0
  0
LINE
  5
10B2
  8
TITLE
 10
2443.2412239354662
 20
669.01666356001249
 30
0.0
 11
2540.2774141215332
 21
766.05285374608127
 31
0.0
  0
LINE
  5
10B3
  8
TITLE
 10
2441.4955264825148
 20
669.01666356001249
 30
0.0
 11
2539.8870432521421
 21
767.40818032963796
 31
0.0
  0
LINE
  5
10B4
  8
TITLE
 10
2439.7498290295739
 20
669.01666356001795
 30
0.0
 11
2539.4759823467239
 21
768.74281687715882
 31
0.0
  0
LINE
  5
10B5
  8
TITLE
 10
2438.0041315766462
 20
669.01666356001249
 30
0.0
 11
2538.7307233369802
 21
769.74325532035459
 31
0.0
  0
LINE
  5
10B6
  8
TITLE
 10
2436.258434123692
 20
669.01666356001249
 30
0.0
 11
2536.9850258840438
 21
769.74325532035459
 31
0.0
  0
LINE
  5
10B7
  8
TITLE
 10
2434.5127366707438
 20
669.01666356001795
 30
0.0
 11
2535.2393284310988
 21
769.74325532034925
 31
0.0
  0
LINE
  5
10B8
  8
TITLE
 10
2432.7670392178252
 20
669.01666356001249
 30
0.0
 11
2533.4936309781392
 21
769.74325532035459
 31
0.0
  0
LINE
  5
10B9
  8
TITLE
 10
2397.01378189968
 20
713.56548907656759
 30
0.0
 11
2505.5298752345839
 21
822.08158241144372
 31
0.0
  0
LINE
  5
10BA
  8
TITLE
 10
2396.4723506394921
 20
714.76975526930278
 30
0.0
 11
2503.7841777816288
 21
822.08158241144372
 31
0.0
  0
LINE
  5
10BB
  8
TITLE
 10
2395.9483239386359
 20
715.991426021385
 30
0.0
 11
2502.038480328672
 21
822.08158241144372
 31
0.0
  0
LINE
  5
10BC
  8
TITLE
 10
2395.4420681907031
 20
717.23086772641761
 30
0.0
 11
2500.292782875752
 21
822.08158241144372
 31
0.0
  0
LINE
  5
10BD
  8
TITLE
 10
2394.953979628357
 20
718.48847661700631
 30
0.0
 11
2498.5470854228001
 21
822.08158241144372
 31
0.0
  0
LINE
  5
10BE
  8
TITLE
 10
2391.1871806387899
 20
732.17865215657571
 30
0.0
 11
2481.0901108933722
 21
822.08158241144372
 31
0.0
  0
LINE
  5
10BF
  8
TITLE
 10
2390.9370719906628
 20
733.67424096153468
 30
0.0
 11
2479.3444134405722
 21
822.08158241144372
 31
0.0
  0
LINE
  5
10C0
  8
TITLE
 10
2392.8023562014391
 20
725.06534045492344
 30
0.0
 11
2489.8185981582351
 21
822.08158241144372
 31
0.0
  0
LINE
  5
10C1
  8
TITLE
 10
2392.4336343538971
 20
726.44231606031872
 30
0.0
 11
2488.0729007052892
 21
822.08158241144372
 31
0.0
  0
LINE
  5
10C2
  8
TITLE
 10
2392.0869552016161
 20
727.84133436090826
 30
0.0
 11
2486.3272032524128
 21
822.08158241144372
 31
0.0
  0
LINE
  5
10C3
  8
TITLE
 10
2391.7630829040008
 20
729.26315951624485
 30
0.0
 11
2484.581505799476
 21
822.08158241144372
 31
0.0
  0
LINE
  5
10C4
  8
TITLE
 10
2391.4628528882058
 20
730.70862695320113
 30
0.0
 11
2482.8358083463122
 21
822.08158241144372
 31
0.0
  0
LINE
  5
10C5
  8
TITLE
 10
2394.4844868978721
 20
719.7646813394507
 30
0.0
 11
2496.8013879698528
 21
822.08158241144372
 31
0.0
  0
LINE
  5
10C6
  8
TITLE
 10
2394.0340539709509
 20
721.05994586548275
 30
0.0
 11
2495.0556905169101
 21
822.08158241144372
 31
0.0
  0
LINE
  5
10C7
  8
TITLE
 10
2393.603183446693
 20
722.37477279417294
 30
0.0
 11
2493.3099930639778
 21
822.08158241144372
 31
0.0
  0
LINE
  5
10C8
  8
TITLE
 10
2393.1924203069561
 20
723.70970710750635
 30
0.0
 11
2491.5642956111992
 21
822.08158241144372
 31
0.0
  0
LINE
  5
10C9
  8
TITLE
 10
2425.7842494064612
 20
669.01666356001249
 30
0.0
 11
2481.3204165020161
 21
724.55283065595472
 31
0.0
  0
LINE
  5
10CA
  8
TITLE
 10
2431.0213417648629
 20
669.01666356001249
 30
0.0
 11
2531.7479335252119
 21
769.74325532035459
 31
0.0
  0
LINE
  5
10CB
  8
TITLE
 10
2429.275644311932
 20
669.01666356001249
 30
0.0
 11
2530.002236072246
 21
769.74325532034925
 31
0.0
  0
LINE
  5
10CC
  8
TITLE
 10
2427.5299468589778
 20
669.01666356001249
 30
0.0
 11
2528.2565386193128
 21
769.74325532035459
 31
0.0
  0
LINE
  5
10CD
  8
TITLE
 10
2424.038551953241
 20
669.01666356001795
 30
0.0
 11
2477.2219303005322
 21
722.20004190731595
 31
0.0
  0
LINE
  5
10CE
  8
TITLE
 10
2422.292854500281
 20
669.01666356001795
 30
0.0
 11
2474.37310419509
 21
721.09691325481185
 31
0.0
  0
LINE
  5
10CF
  8
TITLE
 10
2420.5471570473378
 20
669.01666356001249
 30
0.0
 11
2471.988369410823
 21
720.45787592349586
 31
0.0
  0
LINE
  5
10D0
  8
TITLE
 10
2418.8014595944101
 20
669.01666356001249
 30
0.0
 11
2469.8757820240639
 21
720.09098598967057
 31
0.0
  0
LINE
  5
10D1
  8
TITLE
 10
2417.0557621414519
 20
669.01666356001249
 30
0.0
 11
2467.9514973283699
 21
719.91239874691598
 31
0.0
  0
LINE
  5
10D2
  8
TITLE
 10
2415.310064688515
 20
669.0166635600101
 30
0.0
 11
2466.1698254538042
 21
719.87642432530197
 31
0.0
  0
LINE
  5
10D3
  8
TITLE
 10
2413.56436723558
 20
669.01666356001249
 30
0.0
 11
2464.5025965969999
 21
719.95489292144293
 31
0.0
  0
LINE
  5
10D4
  8
TITLE
 10
2411.8186697826332
 20
669.01666356001249
 30
0.0
 11
2462.9310099376362
 21
720.12900371501485
 31
0.0
  0
LINE
  5
10D5
  8
TITLE
 10
2410.0729723296809
 20
669.01666356001249
 30
0.0
 11
2461.4418107017359
 21
720.38550193206561
 31
0.0
  0
LINE
  5
10D6
  8
TITLE
 10
2408.3272748764562
 20
669.01666356001795
 30
0.0
 11
2460.025277873915
 21
720.71466655711447
 31
0.0
  0
LINE
  5
10D7
  8
TITLE
 10
2406.581577423935
 20
669.01666356001795
 30
0.0
 11
2458.6740728613399
 21
721.10915899740405
 31
0.0
  0
LINE
  5
10D8
  8
TITLE
 10
2404.8358799710008
 20
669.01666356001249
 30
0.0
 11
2457.382537898774
 21
721.56332148778358
 31
0.0
  0
LINE
  5
10D9
  8
TITLE
 10
2403.0901825180458
 20
669.01666356001249
 30
0.0
 11
2456.146247082942
 21
722.072728124896
 31
0.0
  0
LINE
  5
10DA
  8
TITLE
 10
2401.3444850651308
 20
669.01666356001249
 30
0.0
 11
2454.96170783973
 21
722.63388633462387
 31
0.0
  0
LINE
  5
10DB
  8
TITLE
 10
2399.5987876121758
 20
669.01666356001249
 30
0.0
 11
2453.8261564316522
 21
723.24403237949105
 31
0.0
  0
LINE
  5
10DC
  8
TITLE
 10
2397.8530901592198
 20
669.01666356001249
 30
0.0
 11
2452.7374147824899
 21
723.90098818327544
 31
0.0
  0
LINE
  5
10DD
  8
TITLE
 10
2396.1073927062721
 20
669.01666356001249
 30
0.0
 11
2451.6937888467241
 21
724.60305970045488
 31
0.0
  0
LINE
  5
10DE
  8
TITLE
 10
2392.6159978003948
 20
669.01666356001249
 30
0.0
 11
2449.7371149631922
 21
726.13778072280218
 31
0.0
  0
LINE
  5
10DF
  8
TITLE
 10
2390.8703003480659
 20
669.01666356001249
 30
0.0
 11
2448.8225491208
 21
726.96891233330325
 31
0.0
  0
LINE
  5
10E0
  8
TITLE
 10
2394.3616952533421
 20
669.0166635600101
 30
0.0
 11
2450.693996195173
 21
725.34896450183908
 31
0.0
  0
LINE
  5
10E2
  8
TITLE
 10
2393.983911685255
 20
769.8893322612571
 30
0.0
 11
2446.1761618347882
 21
822.08158241144372
 31
0.0
  0
LINE
  5
10E3
  8
TITLE
 10
2390.7136352500561
 20
735.19650167387795
 30
0.0
 11
2477.5987159876222
 21
822.08158241144372
 31
0.0
  0
LINE
  5
10E4
  8
TITLE
 10
2390.5180955552478
 20
736.74665943200353
 30
0.0
 11
2475.8530185346831
 21
822.08158241144372
 31
0.0
  0
LINE
  5
10E5
  8
TITLE
 10
2390.351812004496
 20
738.32607333419514
 30
0.0
 11
2474.1073210817349
 21
822.08158241144372
 31
0.0
  0
LINE
  5
10E6
  8
TITLE
 10
2390.2162982311538
 20
739.93625701379585
 30
0.0
 11
2472.361623628794
 21
822.08158241144372
 31
0.0
  0
LINE
  5
10E7
  8
TITLE
 10
2390.113247314272
 20
741.57890354985739
 30
0.0
 11
2470.6159261758539
 21
822.08158241144372
 31
0.0
  0
LINE
  5
10E8
  8
TITLE
 10
2390.0445621973222
 20
743.25591588566692
 30
0.0
 11
2468.8702287229089
 21
822.08158241144372
 31
0.0
  0
LINE
  5
10E9
  8
TITLE
 10
2390.0123931831508
 20
744.96944432445173
 30
0.0
 11
2467.1245312699671
 21
822.08158241144372
 31
0.0
  0
LINE
  5
10EA
  8
TITLE
 10
2390.019184631245
 20
746.72193322547571
 30
0.0
 11
2465.378833817022
 21
822.08158241144372
 31
0.0
  0
LINE
  5
10EB
  8
TITLE
 10
2390.0677337837369
 20
748.51617983072117
 30
0.0
 11
2463.6331363640752
 21
822.08158241144372
 31
0.0
  0
LINE
  5
10EC
  8
TITLE
 10
2390.1612658173208
 20
750.35540931722824
 30
0.0
 11
2461.8874389111352
 21
822.08158241144372
 31
0.0
  0
LINE
  5
10ED
  8
TITLE
 10
2390.3035309648239
 20
752.24337191791619
 30
0.0
 11
2460.1417414583352
 21
822.08158241144372
 31
0.0
  0
LINE
  5
10EE
  8
TITLE
 10
2390.4989322186161
 20
754.18447062465759
 30
0.0
 11
2458.3960440053979
 21
822.08158241144372
 31
0.0
  0
LINE
  5
10EF
  8
TITLE
 10
2390.7526963112018
 20
756.1839321701849
 30
0.0
 11
2456.6503465524479
 21
822.08158241144372
 31
0.0
  0
LINE
  5
10F0
  8
TITLE
 10
2391.0711074213618
 20
758.24804073326902
 30
0.0
 11
2454.9046490995038
 21
822.08158241144372
 31
0.0
  0
LINE
  5
10F1
  8
TITLE
 10
2391.4618343328448
 20
760.38446509770915
 30
0.0
 11
2453.158951646566
 21
822.08158241144372
 31
0.0
  0
LINE
  5
10F2
  8
TITLE
 10
2391.9344013534519
 20
762.60272957125596
 30
0.0
 11
2451.4132541936192
 21
822.08158241144372
 31
0.0
  0
LINE
  5
10F3
  8
TITLE
 10
2392.5008888871812
 20
764.91491455765595
 30
0.0
 11
2449.6675567406742
 21
822.08158241144372
 31
0.0
  0
LINE
  5
10F4
  8
TITLE
 10
2393.1770178174711
 20
767.33674094086734
 30
0.0
 11
2447.9218592877319
 21
822.08158241144372
 31
0.0
  0
LINE
  5
10F5
  8
TITLE
 10
2394.9511412608149
 20
772.60225928966645
 30
0.0
 11
2444.4304643818518
 21
822.08158241144372
 31
0.0
  0
LINE
  5
10F6
  8
TITLE
 10
2475.6843233258178
 20
769.54196361470485
 30
0.0
 11
2475.8856150314709
 21
769.74325532035459
 31
0.0
  0
LINE
  5
10F7
  8
TITLE
 10
2476.9213937549612
 20
769.0333365909147
 30
0.0
 11
2477.6313124844069
 21
769.74325532035459
 31
0.0
  0
LINE
  5
10F8
  8
TITLE
 10
2397.567494337366
 20
778.71000727268438
 30
0.0
 11
2440.9390694761069
 21
822.08158241144372
 31
0.0
  0
LINE
  5
10F9
  8
TITLE
 10
2396.1224213826058
 20
775.51923686427494
 30
0.0
 11
2442.68476692891
 21
822.08158241144372
 31
0.0
  0
LINE
  5
10FA
  8
TITLE
 10
2399.971004359234
 20
707.79422427156931
 30
0.0
 11
2441.0883804849941
 21
748.91160039730323
 31
0.0
  0
LINE
  5
10FB
  8
TITLE
 10
2399.3471481370671
 20
708.91606550239453
 30
0.0
 11
2441.4585049545758
 21
751.02742231983962
 31
0.0
  0
LINE
  5
10FC
  8
TITLE
 10
2398.7392405202959
 20
710.05385533919116
 30
0.0
 11
2442.1025036780502
 21
753.41711849639285
 31
0.0
  0
LINE
  5
10FD
  8
TITLE
 10
2398.1475282825331
 20
711.20784055419006
 30
0.0
 11
2443.2151694024501
 21
756.27548167367706
 31
0.0
  0
LINE
  5
10FE
  8
TITLE
 10
2397.572278882913
 20
712.3782886064356
 30
0.0
 11
2445.6078576524101
 21
760.41386737629387
 31
0.0
  0
LINE
  5
10FF
  8
TITLE
 10
2400.610581819411
 20
706.68810427876383
 30
0.0
 11
2440.9074304641449
 21
746.98495292349912
 31
0.0
  0
LINE
  5
1100
  8
TITLE
 10
2409.451351104572
 20
694.58050412896364
 30
0.0
 11
2445.5860235805708
 21
730.71517660476502
 31
0.0
  0
LINE
  5
1101
  8
TITLE
 10
2411.9850503222028
 20
691.87711098806574
 30
0.0
 11
2447.9500068820921
 21
727.84206754749835
 31
0.0
  0
LINE
  5
1102
  8
TITLE
 10
2411.126384926336
 20
692.76414304529089
 30
0.0
 11
2447.119490380916
 21
728.75724849926814
 31
0.0
  0
LINE
  5
1103
  8
TITLE
 10
2410.2818111462602
 20
693.66526671760425
 30
0.0
 11
2446.3312957458702
 21
729.71475131711702
 31
0.0
  0
LINE
  5
1104
  8
TITLE
 10
2407.8329165111072
 20
696.45346444117104
 30
0.0
 11
2444.2283152220261
 21
732.84886315208348
 31
0.0
  0
LINE
  5
1105
  8
TITLE
 10
2407.0450424245892
 20
697.41128780760414
 30
0.0
 11
2443.6188675895442
 21
733.98511297255777
 31
0.0
  0
LINE
  5
1106
  8
TITLE
 10
2406.2714834074541
 20
698.38342624340783
 30
0.0
 11
2443.058443646496
 21
735.1703864824525
 31
0.0
  0
LINE
  5
1107
  8
TITLE
 10
2405.5123190051422
 20
699.36995929405384
 30
0.0
 11
2442.5498166226998
 21
736.40745691160316
 31
0.0
  0
LINE
  5
1108
  8
TITLE
 10
2403.3221751428582
 20
702.41690779015823
 30
0.0
 11
2441.37474737722
 21
740.46948002488375
 31
0.0
  0
LINE
  5
1109
  8
TITLE
 10
2404.7676410208901
 20
700.37097876272492
 30
0.0
 11
2442.096491069261
 21
737.69982881109547
 31
0.0
  0
LINE
  5
110A
  8
TITLE
 10
2404.037553894957
 20
701.38658908973775
 30
0.0
 11
2441.7029084477758
 21
739.05194364255703
 31
0.0
  0
LINE
  5
110B
  8
TITLE
 10
2402.6216358552979
 20
703.46206595637284
 30
0.0
 11
2441.119375401046
 21
741.95980550162244
 31
0.0
  0
LINE
  5
110C
  8
TITLE
 10
2401.93608126975
 20
704.52220882392464
 30
0.0
 11
2440.9465554062731
 21
743.53268295980013
 31
0.0
  0
LINE
  5
110D
  8
TITLE
 10
2401.2656714116638
 20
705.59749641819894
 30
0.0
 11
2440.8696058121759
 21
745.20143081858464
 31
0.0
  0
LINE
  5
110E
  8
TITLE
 10
2408.635038054822
 20
695.5098885321496
 30
0.0
 11
2444.8846007299921
 21
731.75945120712311
 31
0.0
  0
LINE
  5
110F
  8
TITLE
 10
2434.8418745957829
 20
822.08158241144372
 30
0.0
 11
2412.4260362108762
 21
799.66574402653282
 31
0.0
  0
LINE
  5
1110
  8
TITLE
 10
2406.0472037062459
 20
792.42680900030268
 30
0.0
 11
2435.7019771172759
 21
822.08158241144372
 31
0.0
  0
LINE
  5
1111
  8
TITLE
 10
2401.9255662832129
 20
786.55947412445437
 30
0.0
 11
2437.44767457022
 21
822.08158241144372
 31
0.0
  0
LINE
  5
1112
  8
TITLE
 10
2399.4111807636732
 20
782.29939115195646
 30
0.0
 11
2439.1933720231641
 21
822.08158241144372
 31
0.0
  0
LINE
  5
1113
  8
TITLE
 10
2490.844522776275
 20
672.97752607775715
 30
0.0
 11
2539.1142541596519
 21
721.24725746113143
 31
0.0
  0
LINE
  5
1114
  8
TITLE
 10
2485.8739388418139
 20
671.49833704910475
 30
0.0
 11
2540.5934431883029
 21
726.21784139559634
 31
0.0
  0
LINE
  5
1115
  8
TITLE
 10
2488.2940281363808
 20
672.17272889072524
 30
0.0
 11
2539.919051346682
 21
723.79775210103003
 31
0.0
  0
LINE
  5
1116
  8
TITLE
 10
2483.5632279290921
 20
670.93332358932594
 30
0.0
 11
2541.1584566480851
 21
728.52855230832142
 31
0.0
  0
LINE
  5
1117
  8
TITLE
 10
2481.346238191602
 20
670.46203130477568
 30
0.0
 11
2541.6297489326162
 21
730.74554204571189
 31
0.0
  0
LINE
  5
1118
  8
TITLE
 10
2479.2109331589331
 20
670.07242372505186
 30
0.0
 11
2542.0193565123359
 21
732.88084707838175
 31
0.0
  0
LINE
  5
1119
  8
TITLE
 10
2496.4684197161118
 20
675.11002811170817
 30
0.0
 11
2536.9817521257492
 21
715.62336052140779
 31
0.0
  0
LINE
  5
111A
  8
TITLE
 10
2493.5548382712782
 20
673.94214411974315
 30
0.0
 11
2538.1496361176569
 21
718.53694196611525
 31
0.0
  0
LINE
  5
111B
  8
TITLE
 10
2499.6544867368648
 20
676.55039767944288
 30
0.0
 11
2535.5413825579658
 21
712.43729350053263
 31
0.0
  0
LINE
  5
111C
  8
TITLE
 10
2503.2366640914152
 20
678.38687758107881
 30
0.0
 11
2533.7049026562859
 21
708.85511614591564
 31
0.0
  0
LINE
  5
111F
  8
TITLE
 10
2632.4553015249348
 20
773.79683851803759
 30
0.0
 11
2655.5631666934419
 21
796.90470368661704
 31
0.0
  0
LINE
  5
1120
  8
TITLE
 10
2634.2009989778799
 20
773.79683851803759
 30
0.0
 11
2657.3088641463919
 21
796.90470368661704
 31
0.0
  0
LINE
  5
1121
  8
TITLE
 10
2635.946696430819
 20
773.79683851803759
 30
0.0
 11
2659.0545615993328
 21
796.90470368661704
 31
0.0
  0
LINE
  5
1122
  8
TITLE
 10
2637.6923938837649
 20
773.79683851803759
 30
0.0
 11
2660.8002590522719
 21
796.90470368661704
 31
0.0
  0
LINE
  5
1123
  8
TITLE
 10
2639.4380913367131
 20
773.79683851803759
 30
0.0
 11
2662.5459565052211
 21
796.90470368661704
 31
0.0
  0
LINE
  5
1124
  8
TITLE
 10
2641.1837887896522
 20
773.79683851803759
 30
0.0
 11
2664.2916539581538
 21
796.90470368661704
 31
0.0
  0
LINE
  5
1125
  8
TITLE
 10
2620.235419354482
 20
773.79683851803759
 30
0.0
 11
2643.3432845229818
 21
796.90470368661704
 31
0.0
  0
LINE
  5
1126
  8
TITLE
 10
2621.9811168074261
 20
773.79683851803759
 30
0.0
 11
2645.0889819759241
 21
796.90470368661704
 31
0.0
  0
LINE
  5
1127
  8
TITLE
 10
2623.7268142603621
 20
773.79683851803759
 30
0.0
 11
2646.8346794288732
 21
796.90470368661704
 31
0.0
  0
LINE
  5
1128
  8
TITLE
 10
2625.4725117133098
 20
773.79683851803759
 30
0.0
 11
2648.5803768818141
 21
796.90470368661704
 31
0.0
  0
LINE
  5
1129
  8
TITLE
 10
2627.2182091661061
 20
773.79683851803759
 30
0.0
 11
2650.3260743347601
 21
796.90470368661704
 31
0.0
  0
LINE
  5
112A
  8
TITLE
 10
2628.9639066190489
 20
773.79683851803759
 30
0.0
 11
2652.0717717876969
 21
796.90470368661704
 31
0.0
  0
LINE
  5
112B
  8
TITLE
 10
2630.7096040719939
 20
773.79683851803759
 30
0.0
 11
2653.817469240641
 21
796.90470368661704
 31
0.0
  0
LINE
  5
112C
  8
TITLE
 10
2631.756622935176
 20
685.81328728176368
 30
0.0
 11
2655.3762169966958
 21
709.43288134329521
 31
0.0
  0
LINE
  5
112D
  8
TITLE
 10
2633.5023203881128
 20
685.81328728176368
 30
0.0
 11
2658.6651420364742
 21
710.97610893012416
 31
0.0
  0
LINE
  5
112E
  8
TITLE
 10
2635.248017841056
 20
685.81328728176368
 30
0.0
 11
2663.8138321965762
 21
714.37910163727724
 31
0.0
  0
LINE
  5
112F
  8
TITLE
 10
2621.282438217655
 20
685.81328728176368
 30
0.0
 11
2642.4309332741218
 21
706.96178233822604
 31
0.0
  0
LINE
  5
1130
  8
TITLE
 10
2623.0281356706
 20
685.81328728176368
 30
0.0
 11
2644.210645319758
 21
706.99579693092448
 31
0.0
  0
LINE
  5
1131
  8
TITLE
 10
2624.773833123541
 20
685.81328728176368
 30
0.0
 11
2646.093754222888
 21
707.13320838125708
 31
0.0
  0
LINE
  5
1132
  8
TITLE
 10
2626.5195305763418
 20
685.81328728176368
 30
0.0
 11
2648.1039319024931
 21
707.39768860791571
 31
0.0
  0
LINE
  5
1133
  8
TITLE
 10
2628.265228029285
 20
685.81328728176368
 30
0.0
 11
2650.2753631709729
 21
707.82342242345692
 31
0.0
  0
LINE
  5
1134
  8
TITLE
 10
2630.0109254822291
 20
685.81328728176368
 30
0.0
 11
2652.6642494684629
 21
708.46661126799916
 31
0.0
  0
LINE
  5
1135
  8
TITLE
 10
2636.9937152940001
 20
685.81328728176368
 30
0.0
 11
2702.7757086755969
 21
751.59528066336179
 31
0.0
  0
LINE
  5
1136
  8
TITLE
 10
2638.7394127469411
 20
685.81328728176368
 30
0.0
 11
2702.7757086755969
 21
749.84958321041563
 31
0.0
  0
LINE
  5
1137
  8
TITLE
 10
2640.4851101998829
 20
685.81328728176368
 30
0.0
 11
2702.7757086755969
 21
748.10388575747879
 31
0.0
  0
LINE
  5
113A
  8
TITLE
 10
2487.4887205369619
 20
760.39799139067793
 30
0.0
 11
2496.8339844666439
 21
769.74325532035459
 31
0.0
  0
LINE
  5
113B
  8
TITLE
 10
2488.8477478579189
 20
758.26562380576274
 30
0.0
 11
2500.3253793725162
 21
769.74325532035459
 31
0.0
  0
LINE
  5
113C
  8
TITLE
 10
2490.0190521125151
 20
755.94553315446342
 30
0.0
 11
2503.816774278414
 21
769.74325532035459
 31
0.0
  0
LINE
  5
113D
  8
TITLE
 10
2490.5284587496299
 20
754.70924233863502
 30
0.0
 11
2505.5624717313531
 21
769.74325532035459
 31
0.0
  0
LINE
  5
113E
  8
TITLE
 10
2489.4578939027838
 20
757.13007239768694
 30
0.0
 11
2502.0710768254571
 21
769.74325532035459
 31
0.0
  0
LINE
  5
113F
  8
TITLE
 10
2488.1907920541421
 20
759.35436545491768
 30
0.0
 11
2498.579681919573
 21
769.74325532035459
 31
0.0
  0
LINE
  5
1140
  8
TITLE
 10
2486.7428157355739
 20
761.39778404223705
 30
0.0
 11
2495.0882870136938
 21
769.74325532035459
 31
0.0
  0
LINE
  5
1141
  8
TITLE
 10
2484.249712690149
 20
764.14177335509521
 30
0.0
 11
2489.85119465549
 21
769.74325532035459
 31
0.0
  0
LINE
  5
1142
  8
TITLE
 10
2485.1228679039309
 20
763.26923111679571
 30
0.0
 11
2491.5968921074382
 21
769.74325532035459
 31
0.0
  0
LINE
  5
1143
  8
TITLE
 10
2485.953999514611
 20
762.35466527420817
 30
0.0
 11
2493.3425895607502
 21
769.74325532035459
 31
0.0
  0
LINE
  5
1144
  8
TITLE
 10
2483.334531738461
 20
764.97228985621257
 30
0.0
 11
2488.1054972026832
 21
769.74325532035823
 31
0.0
  0
LINE
  5
1145
  8
TITLE
 10
2481.3766036327588
 20
766.50575665675603
 30
0.0
 11
2484.614102296382
 21
769.74325532035823
 31
0.0
  0
LINE
  5
1146
  8
TITLE
 10
2482.377028920353
 20
765.76048449149869
 30
0.0
 11
2486.3597997492211
 21
769.74325532035459
 31
0.0
  0
LINE
  5
1147
  8
TITLE
 10
2479.2429170853188
 20
767.86346501539026
 30
0.0
 11
2481.1227073902901
 21
769.74325532035459
 31
0.0
  0
LINE
  5
1148
  8
TITLE
 10
2478.1066672648521
 20
768.47291264786088
 30
0.0
 11
2479.3770099373428
 21
769.74325532035459
 31
0.0
  0
LINE
  5
1149
  8
TITLE
 10
2480.3323290304088
 20
767.20717950734274
 30
0.0
 11
2482.8684048434379
 21
769.74325532035823
 31
0.0
  0
LINE
  5
114A
  8
TITLE
 10
2513.307838724224
 20
684.96665730803875
 30
0.0
 11
2527.1251229293721
 21
698.78394151318139
 31
0.0
  0
LINE
  5
114B
  8
TITLE
 10
2507.4833737596691
 20
680.88788979642891
 30
0.0
 11
2531.2038904409828
 21
704.60840647774535
 31
0.0
  0
LINE
  5
114C
  8
TITLE
 10
2490.9826212400048
 20
753.41770737606328
 30
0.0
 11
2507.3081691843022
 21
769.74325532034925
 31
0.0
  0
LINE
  5
114D
  8
TITLE
 10
2491.3771136803398
 20
752.0665023633228
 30
0.0
 11
2509.0538666374941
 21
769.74325532034925
 31
0.0
  0
LINE
  5
114E
  8
TITLE
 10
2491.706278305342
 20
750.64996953567095
 30
0.0
 11
2510.7995640900358
 21
769.74325532035459
 31
0.0
  0
LINE
  5
114F
  8
TITLE
 10
2491.9627765223959
 20
749.16077029977566
 30
0.0
 11
2512.5452615429781
 21
769.74325532035459
 31
0.0
  0
LINE
  5
1150
  8
TITLE
 10
2492.1368873159672
 20
747.58918364041608
 30
0.0
 11
2514.2909589959099
 21
769.74325532035459
 31
0.0
  0
LINE
  5
1151
  8
TITLE
 10
2492.179381490489
 20
744.14028290904071
 30
0.0
 11
2517.782353901805
 21
769.74325532035459
 31
0.0
  0
LINE
  5
1152
  8
TITLE
 10
2492.00079424774
 20
742.21599821334905
 30
0.0
 11
2519.5280513547441
 21
769.74325532035459
 31
0.0
  0
LINE
  5
1153
  8
TITLE
 10
2491.6339043139178
 20
740.10341082658044
 30
0.0
 11
2521.2737488077018
 21
769.74325532035459
 31
0.0
  0
LINE
  5
1154
  8
TITLE
 10
2492.2153559121039
 20
745.92195478360304
 30
0.0
 11
2516.0366564488559
 21
769.74325532035459
 31
0.0
  0
LINE
  5
1155
  8
TITLE
 10
2490.9948669825958
 20
737.71867604231852
 30
0.0
 11
2523.019446260646
 21
769.74325532034925
 31
0.0
  0
LINE
  5
1156
  8
TITLE
 10
2489.8917383300959
 20
734.86984993687656
 30
0.0
 11
2524.7651437135719
 21
769.74325532034925
 31
0.0
  0
LINE
  5
1157
  8
TITLE
 10
2487.538949581558
 20
730.77136373553401
 30
0.0
 11
2526.5108411661199
 21
769.74325532035459
 31
0.0
  0
LINE
  5
1158
  8
TITLE
 10
2618.4897219015402
 20
773.79683851803759
 30
0.0
 11
2641.5975870700408
 21
796.90470368661704
 31
0.0
  0
LINE
  5
1159
  8
TITLE
 10
2614.2996484058808
 20
685.81328728176368
 30
0.0
 11
2635.4481434623408
 21
706.96178233822604
 31
0.0
  0
LINE
  5
115A
  8
TITLE
 10
2616.0453458588258
 20
685.81328728176368
 30
0.0
 11
2637.193840915289
 21
706.96178233822604
 31
0.0
  0
LINE
  5
115B
  8
TITLE
 10
2617.7910433117709
 20
685.81328728176368
 30
0.0
 11
2638.9395383682358
 21
706.96178233822604
 31
0.0
  0
LINE
  5
115C
  8
TITLE
 10
2603.2341356418701
 20
697.44184140586628
 30
0.0
 11
2612.7540765742342
 21
706.96178233822604
 31
0.0
  0
LINE
  5
115D
  8
TITLE
 10
2603.2341356418701
 20
695.69614395292342
 30
0.0
 11
2614.499774027176
 21
706.96178233822604
 31
0.0
  0
LINE
  5
115E
  8
TITLE
 10
2603.2341356418701
 20
693.95044649998647
 30
0.0
 11
2616.2454714801179
 21
706.96178233822604
 31
0.0
  0
LINE
  5
115F
  8
TITLE
 10
2603.2341356418701
 20
692.20474904703815
 30
0.0
 11
2617.9911689330588
 21
706.96178233822604
 31
0.0
  0
LINE
  5
1160
  8
TITLE
 10
2603.2341356418701
 20
690.45905159409472
 30
0.0
 11
2619.7368663859988
 21
706.96178233822604
 31
0.0
  0
LINE
  5
1161
  8
TITLE
 10
2603.2341356418701
 20
688.71335414114935
 30
0.0
 11
2621.482563838942
 21
706.96178233822604
 31
0.0
  0
LINE
  5
1162
  8
TITLE
 10
2603.2341356418701
 20
686.96765668821195
 30
0.0
 11
2623.2282612918871
 21
706.96178233822604
 31
0.0
  0
LINE
  5
1163
  8
TITLE
 10
2603.8254636883721
 20
685.81328728176368
 30
0.0
 11
2624.973958744833
 21
706.96178233822604
 31
0.0
  0
LINE
  5
1164
  8
TITLE
 10
2605.5711611413099
 20
685.81328728176368
 30
0.0
 11
2626.7196561977762
 21
706.96178233822604
 31
0.0
  0
LINE
  5
1165
  8
TITLE
 10
2607.3168585941089
 20
685.81328728176368
 30
0.0
 11
2628.465353650718
 21
706.96178233822604
 31
0.0
  0
LINE
  5
1166
  8
TITLE
 10
2609.0625560470548
 20
685.81328728176368
 30
0.0
 11
2630.2110511035198
 21
706.96178233822604
 31
0.0
  0
LINE
  5
1167
  8
TITLE
 10
2610.8082534999971
 20
685.81328728176368
 30
0.0
 11
2631.9567485564612
 21
706.96178233822604
 31
0.0
  0
LINE
  5
1168
  8
TITLE
 10
2612.5539509529422
 20
685.81328728176368
 30
0.0
 11
2633.7024460093999
 21
706.96178233822604
 31
0.0
  0
LINE
  5
1169
  8
TITLE
 10
2619.53674076471
 20
685.81328728176368
 30
0.0
 11
2640.6852358211818
 21
706.96178233822604
 31
0.0
  0
LINE
  5
116A
  8
TITLE
 10
2603.2341356418701
 20
702.67893376462234
 30
0.0
 11
2607.516984215546
 21
706.96178233822604
 31
0.0
  0
LINE
  5
116B
  8
TITLE
 10
2603.2341356418701
 20
700.93323631168198
 30
0.0
 11
2609.262681668492
 21
706.96178233822604
 31
0.0
  0
LINE
  5
116C
  8
TITLE
 10
2603.2341356418701
 20
699.18753885873616
 30
0.0
 11
2611.0083791212851
 21
706.96178233822604
 31
0.0
  0
LINE
  5
116D
  8
TITLE
 10
2603.2341356418701
 20
706.1703286704435
 30
0.0
 11
2604.025589309656
 21
706.96178233822604
 31
0.0
  0
LINE
  5
116E
  8
TITLE
 10
2603.2341356418701
 20
704.42463121750143
 30
0.0
 11
2605.7712867626042
 21
706.96178233822604
 31
0.0
  0
LINE
  5
116F
  8
TITLE
 10
2615.1045561293899
 20
740.73481604607707
 30
0.0
 11
2617.4543603609968
 21
743.08462027768314
 31
0.0
  0
LINE
  5
1170
  8
TITLE
 10
2616.8502535823382
 20
740.73481604607707
 30
0.0
 11
2617.4543603609968
 21
741.33892282474005
 31
0.0
  0
LINE
  5
1171
  8
TITLE
 10
2609.8674637705558
 20
740.73481604607707
 30
0.0
 11
2617.4543603609968
 21
748.32171263644454
 31
0.0
  0
LINE
  5
1172
  8
TITLE
 10
2611.613161223504
 20
740.73481604607707
 30
0.0
 11
2617.4543603609968
 21
746.57601518350236
 31
0.0
  0
LINE
  5
1173
  8
TITLE
 10
2613.3588586764499
 20
740.73481604607707
 30
0.0
 11
2617.4543603609968
 21
744.83031773062282
 31
0.0
  0
LINE
  5
1174
  8
TITLE
 10
2604.6303714118808
 20
740.73481604607707
 30
0.0
 11
2617.4543603609968
 21
753.55880499519787
 31
0.0
  0
LINE
  5
1175
  8
TITLE
 10
2606.3760688648131
 20
740.73481604607707
 30
0.0
 11
2617.4543603609968
 21
751.81310754225456
 31
0.0
  0
LINE
  5
1176
  8
TITLE
 10
2608.1217663177622
 20
740.73481604607707
 30
0.0
 11
2617.4543603609968
 21
750.06741008938502
 31
0.0
  0
LINE
  5
1177
  8
TITLE
 10
2597.6475816001062
 20
740.73481604607707
 30
0.0
 11
2617.4543603609968
 21
760.54159480697137
 31
0.0
  0
LINE
  5
1178
  8
TITLE
 10
2599.3932790530439
 20
740.73481604607707
 30
0.0
 11
2617.4543603609968
 21
758.79589735402931
 31
0.0
  0
LINE
  5
1179
  8
TITLE
 10
2601.1389765059912
 20
740.73481604607707
 30
0.0
 11
2617.4543603609968
 21
757.05019990108337
 31
0.0
  0
LINE
  5
117A
  8
TITLE
 10
2602.884673958938
 20
740.73481604607707
 30
0.0
 11
2617.4543603609968
 21
755.30450244814347
 31
0.0
  0
LINE
  5
117B
  8
TITLE
 10
2591.857955866572
 20
792.55320625923684
 30
0.0
 11
2596.2094532939509
 21
796.90470368661704
 31
0.0
  0
LINE
  5
117C
  8
TITLE
 10
2591.857955866572
 20
796.04460116512212
 30
0.0
 11
2592.718058388064
 21
796.90470368661704
 31
0.0
  0
LINE
  5
117D
  8
TITLE
 10
2591.857955866572
 20
794.29890371218266
 30
0.0
 11
2594.4637558410082
 21
796.90470368661704
 31
0.0
  0
LINE
  5
117E
  8
TITLE
 10
2591.857955866572
 20
780.33332408877732
 30
0.0
 11
2608.4293354644092
 21
796.90470368661704
 31
0.0
  0
LINE
  5
117F
  8
TITLE
 10
2591.857955866572
 20
778.58762663583411
 30
0.0
 11
2610.175032917356
 21
796.90470368661704
 31
0.0
  0
LINE
  5
1180
  8
TITLE
 10
2591.857955866572
 20
776.84192918288795
 30
0.0
 11
2611.9207303702942
 21
796.90470368661704
 31
0.0
  0
LINE
  5
1181
  8
TITLE
 10
2591.857955866572
 20
775.09623172995396
 30
0.0
 11
2613.6664278232361
 21
796.90470368661704
 31
0.0
  0
LINE
  5
1182
  8
TITLE
 10
2591.857955866572
 20
761.13065210654838
 30
0.0
 11
2627.6320074466389
 21
796.90470368661704
 31
0.0
  0
LINE
  5
1183
  8
TITLE
 10
2591.857955866572
 20
759.38495465360484
 30
0.0
 11
2629.3777048995821
 21
796.90470368661704
 31
0.0
  0
LINE
  5
1184
  8
TITLE
 10
2591.857955866572
 20
757.63925720066277
 30
0.0
 11
2631.123402352523
 21
796.90470368661704
 31
0.0
  0
LINE
  5
1185
  8
TITLE
 10
2591.857955866572
 20
755.89355974771695
 30
0.0
 11
2632.8690998054699
 21
796.90470368661704
 31
0.0
  0
LINE
  5
1186
  8
TITLE
 10
2591.857955866572
 20
754.14786229477636
 30
0.0
 11
2634.6147972584149
 21
796.90470368661704
 31
0.0
  0
LINE
  5
1187
  8
TITLE
 10
2591.857955866572
 20
752.40216484183134
 30
0.0
 11
2636.3604947113558
 21
796.90470368661704
 31
0.0
  0
LINE
  5
1188
  8
TITLE
 10
2591.857955866572
 20
750.65646738888529
 30
0.0
 11
2638.1061921641572
 21
796.90470368661704
 31
0.0
  0
LINE
  5
1189
  8
TITLE
 10
2591.857955866572
 20
748.91076993601757
 30
0.0
 11
2639.8518896171022
 21
796.90470368661704
 31
0.0
  0
LINE
  5
118A
  8
TITLE
 10
2591.857955866572
 20
769.85913937111707
 30
0.0
 11
2618.9035201819252
 21
796.90470368661704
 31
0.0
  0
LINE
  5
118B
  8
TITLE
 10
2591.857955866572
 20
768.11344191817636
 30
0.0
 11
2620.6492176348661
 21
796.90470368661704
 31
0.0
  0
LINE
  5
118C
  8
TITLE
 10
2591.857955866572
 20
766.36774446530444
 30
0.0
 11
2622.3949150878102
 21
796.90470368661704
 31
0.0
  0
LINE
  5
118D
  8
TITLE
 10
2591.857955866572
 20
764.62204701236124
 30
0.0
 11
2624.1406125407502
 21
796.90470368661704
 31
0.0
  0
LINE
  5
118E
  8
TITLE
 10
2591.857955866572
 20
762.8763495594153
 30
0.0
 11
2625.8863099936912
 21
796.90470368661704
 31
0.0
  0
LINE
  5
118F
  8
TITLE
 10
2591.857955866572
 20
773.35053427700495
 30
0.0
 11
2615.4121252761829
 21
796.90470368661704
 31
0.0
  0
LINE
  5
1190
  8
TITLE
 10
2591.857955866572
 20
771.60483682405959
 30
0.0
 11
2617.1578227291252
 21
796.90470368661704
 31
0.0
  0
LINE
  5
1191
  8
TITLE
 10
2591.857955866572
 20
747.16507248307528
 30
0.0
 11
2617.4543603609968
 21
772.76147697742306
 31
0.0
  0
LINE
  5
1192
  8
TITLE
 10
2591.857955866572
 20
745.41937503013526
 30
0.0
 11
2617.4543603609968
 21
771.01577952448611
 31
0.0
  0
LINE
  5
1193
  8
TITLE
 10
2592.4104892412738
 20
740.73481604607707
 30
0.0
 11
2617.4543603609968
 21
765.7786871657247
 31
0.0
  0
LINE
  5
1194
  8
TITLE
 10
2594.1561866942138
 20
740.73481604607707
 30
0.0
 11
2617.4543603609968
 21
764.03298971285415
 31
0.0
  0
LINE
  5
1195
  8
TITLE
 10
2595.9018841471561
 20
740.73481604607707
 30
0.0
 11
2617.4543603609968
 21
762.28729225991754
 31
0.0
  0
LINE
  5
1196
  8
TITLE
 10
2591.857955866572
 20
743.67367757726561
 30
0.0
 11
2617.4543603609968
 21
769.27008207161634
 31
0.0
  0
LINE
  5
1197
  8
TITLE
 10
2591.857955866572
 20
741.9279801243224
 30
0.0
 11
2617.4543603609968
 21
767.52438461867916
 31
0.0
  0
LINE
  5
1198
  8
TITLE
 10
2591.857955866572
 20
782.07902154164935
 30
0.0
 11
2606.6836380114642
 21
796.90470368661704
 31
0.0
  0
LINE
  5
1199
  8
TITLE
 10
2591.857955866572
 20
783.8247189945954
 30
0.0
 11
2604.93794055852
 21
796.90470368661704
 31
0.0
  0
LINE
  5
119A
  8
TITLE
 10
2591.857955866572
 20
787.31611390040814
 30
0.0
 11
2601.44654565264
 21
796.90470368661704
 31
0.0
  0
LINE
  5
119B
  8
TITLE
 10
2591.857955866572
 20
785.57041644747403
 30
0.0
 11
2603.1922431055768
 21
796.90470368661704
 31
0.0
  0
LINE
  5
119C
  8
TITLE
 10
2591.857955866572
 20
790.80750880629444
 30
0.0
 11
2597.9551507468932
 21
796.90470368661704
 31
0.0
  0
LINE
  5
119D
  8
TITLE
 10
2591.857955866572
 20
789.06181135335135
 30
0.0
 11
2599.7008481996932
 21
796.90470368661704
 31
0.0
  0
LINE
  5
119E
  8
TITLE
 10
2797.4999999999991
 20
1050.0
 30
0.0
 11
2797.4999999999991
 21
850.0
 31
0.0
  0
LINE
  5
119F
  8
TITLE
 10
2719.5819096527612
 20
733.48753258195427
 30
0.0
 11
2748.0170030758368
 21
761.92262600502897
 31
0.0
  0
LINE
  5
11A0
  8
TITLE
 10
2721.457712812824
 20
733.61763828921278
 30
0.0
 11
2750.6321511927722
 21
762.79207666908701
 31
0.0
  0
LINE
  5
11A1
  8
TITLE
 10
2723.3670148424062
 20
733.78124286585478
 30
0.0
 11
2753.3577774360101
 21
763.77200545931498
 31
0.0
  0
LINE
  5
11A2
  8
TITLE
 10
2712.0188547430348
 20
739.89005729561677
 30
0.0
 11
2729.8030511064721
 21
757.67425365920417
 31
0.0
  0
LINE
  5
11A3
  8
TITLE
 10
2712.0188547430348
 20
738.14435984267698
 30
0.0
 11
2731.8798635320468
 21
758.0053686317674
 31
0.0
  0
LINE
  5
11A4
  8
TITLE
 10
2712.0188547430348
 20
736.39866238973627
 30
0.0
 11
2734.0040164964762
 21
758.38382414332978
 31
0.0
  0
LINE
  5
11A5
  8
TITLE
 10
2712.0188547430348
 20
734.65296493685787
 30
0.0
 11
2736.1794253845219
 21
758.81353557842453
 31
0.0
  0
LINE
  5
11A6
  8
TITLE
 10
2712.3800825273252
 20
733.26849526828244
 30
0.0
 11
2738.4106391651139
 21
759.29905190600869
 31
0.0
  0
LINE
  5
11A7
  8
TITLE
 10
2714.1382898941929
 20
733.28100518220572
 30
0.0
 11
2740.7029947240771
 21
759.84571001209611
 31
0.0
  0
LINE
  5
11A8
  8
TITLE
 10
2715.9237490345699
 20
733.32076686970868
 30
0.0
 11
2743.0628234015021
 21
760.45984123658081
 31
0.0
  0
LINE
  5
11A9
  8
TITLE
 10
2717.737797874157
 20
733.38911825636251
 30
0.0
 11
2745.4977331270029
 21
761.14905350913807
 31
0.0
  0
LINE
  5
11AA
  8
TITLE
 10
2712.0188547430348
 20
743.38145220150193
 30
0.0
 11
2725.778276393592
 21
757.14087385207597
 31
0.0
  0
LINE
  5
11AB
  8
TITLE
 10
2712.0188547430348
 20
741.63575474855725
 30
0.0
 11
2727.7701800003128
 21
757.38708000584518
 31
0.0
  0
LINE
  5
11AC
  8
TITLE
 10
2712.0188547430348
 20
755.60133437196271
 30
0.0
 11
2712.7944484892359
 21
756.37692811831937
 31
0.0
  0
LINE
  5
11AD
  8
TITLE
 10
2642.9294862425968
 20
773.79683851803759
 30
0.0
 11
2666.037351411102
 21
796.90470368661704
 31
0.0
  0
LINE
  5
11AE
  8
TITLE
 10
2644.6751836955409
 20
773.79683851803759
 30
0.0
 11
2667.7830488640502
 21
796.90470368661704
 31
0.0
  0
LINE
  5
11AF
  8
TITLE
 10
2646.4208811483409
 20
773.79683851803759
 30
0.0
 11
2669.528746316983
 21
796.90470368661704
 31
0.0
  0
LINE
  5
11B0
  8
TITLE
 10
2648.16657860128
 20
773.79683851803759
 30
0.0
 11
2671.274443769928
 21
796.90470368661704
 31
0.0
  0
LINE
  5
11B1
  8
TITLE
 10
2649.912276054225
 20
773.79683851803759
 30
0.0
 11
2673.020141222732
 21
796.90470368661704
 31
0.0
  0
LINE
  5
11B2
  8
TITLE
 10
2651.657973507165
 20
773.79683851803759
 30
0.0
 11
2674.765838675678
 21
796.90470368661704
 31
0.0
  0
LINE
  5
11B3
  8
TITLE
 10
2653.403670960111
 20
773.79683851803759
 30
0.0
 11
2676.5115361286148
 21
796.90470368661704
 31
0.0
  0
LINE
  5
11B4
  8
TITLE
 10
2655.1493684130519
 20
773.79683851803759
 30
0.0
 11
2678.2572335815562
 21
796.90470368661704
 31
0.0
  0
LINE
  5
11B5
  8
TITLE
 10
2676.4682929452179
 20
760.20181399162993
 30
0.0
 11
2702.7757086755969
 21
786.50922972193553
 31
0.0
  0
LINE
  5
11B6
  8
TITLE
 10
2676.4682929452179
 20
758.45611653868423
 30
0.0
 11
2702.7757086755969
 21
784.76353226899869
 31
0.0
  0
LINE
  5
11B7
  8
TITLE
 10
2676.4682929452179
 20
756.71041908581196
 30
0.0
 11
2702.7757086755969
 21
783.01783481605287
 31
0.0
  0
LINE
  5
11B8
  8
TITLE
 10
2676.4682929452179
 20
754.96472163286853
 30
0.0
 11
2702.7757086755969
 21
781.27213736318345
 31
0.0
  0
LINE
  5
11B9
  8
TITLE
 10
2676.4682929452179
 20
768.93030125627456
 30
0.0
 11
2702.7757086755969
 21
795.23771698664984
 31
0.0
  0
LINE
  5
11BA
  8
TITLE
 10
2676.4682929452179
 20
767.18460380332931
 30
0.0
 11
2702.7757086755969
 21
793.49201953370414
 31
0.0
  0
LINE
  5
11BB
  8
TITLE
 10
2676.4682929452179
 20
765.43890635038883
 30
0.0
 11
2702.7757086755969
 21
791.74632208076434
 31
0.0
  0
LINE
  5
11BC
  8
TITLE
 10
2676.4682929452179
 20
763.69320889744301
 30
0.0
 11
2702.7757086755969
 21
790.00062462782739
 31
0.0
  0
LINE
  5
11BD
  8
TITLE
 10
2676.4682929452179
 20
761.9475114444981
 30
0.0
 11
2702.7757086755969
 21
788.25492717488135
 31
0.0
  0
LINE
  5
11BE
  8
TITLE
 10
2656.8950658659951
 20
773.79683851803759
 30
0.0
 11
2680.0029310345021
 21
796.90470368661704
 31
0.0
  0
LINE
  5
11BF
  8
TITLE
 10
2658.6407633189369
 20
773.79683851803759
 30
0.0
 11
2681.7486284874449
 21
796.90470368661704
 31
0.0
  0
LINE
  5
11C0
  8
TITLE
 10
2660.3864607718838
 20
773.79683851803759
 30
0.0
 11
2683.4943259403899
 21
796.90470368661704
 31
0.0
  0
LINE
  5
11C1
  8
TITLE
 10
2662.1321582248261
 20
773.79683851803759
 30
0.0
 11
2685.2400233933358
 21
796.90470368661704
 31
0.0
  0
LINE
  5
11C2
  8
TITLE
 10
2663.8778556776251
 20
773.79683851803759
 30
0.0
 11
2686.9857208462781
 21
796.90470368661704
 31
0.0
  0
LINE
  5
11C3
  8
TITLE
 10
2665.6235531305729
 20
773.79683851803759
 30
0.0
 11
2688.7314182992218
 21
796.90470368661704
 31
0.0
  0
LINE
  5
11C4
  8
TITLE
 10
2667.3692505835129
 20
773.79683851803759
 30
0.0
 11
2690.4771157521609
 21
796.90470368661704
 31
0.0
  0
LINE
  5
11C5
  8
TITLE
 10
2669.1149480364511
 20
773.79683851803759
 30
0.0
 11
2692.2228132049581
 21
796.90470368661704
 31
0.0
  0
LINE
  5
11C6
  8
TITLE
 10
2676.4682929452179
 20
770.67599870921765
 30
0.0
 11
2702.6969979226169
 21
796.90470368661704
 31
0.0
  0
LINE
  5
11C7
  8
TITLE
 10
2670.860645489402
 20
773.79683851803759
 30
0.0
 11
2693.9685106578991
 21
796.90470368661704
 31
0.0
  0
LINE
  5
11C8
  8
TITLE
 10
2672.6063429423398
 20
773.79683851803759
 30
0.0
 11
2695.714208110845
 21
796.90470368661704
 31
0.0
  0
LINE
  5
11C9
  8
TITLE
 10
2674.3520403952839
 20
773.79683851803759
 30
0.0
 11
2697.4599055637941
 21
796.90470368661704
 31
0.0
  0
LINE
  5
11CA
  8
TITLE
 10
2676.097737848223
 20
773.79683851803759
 30
0.0
 11
2699.20560301673
 21
796.90470368661704
 31
0.0
  0
LINE
  5
11CB
  8
TITLE
 10
2676.4682929452179
 20
772.42169616216643
 30
0.0
 11
2700.9513004696769
 21
796.90470368661704
 31
0.0
  0
LINE
  5
11CC
  8
TITLE
 10
2679.2981700445089
 20
694.94949042663836
 30
0.0
 11
2693.6395055307198
 21
709.29082591285749
 31
0.0
  0
LINE
  5
11CD
  8
TITLE
 10
2642.2308076528302
 20
685.81328728176368
 30
0.0
 11
2702.7757086755969
 21
746.35818830453013
 31
0.0
  0
LINE
  5
11CE
  8
TITLE
 10
2643.9765051056302
 20
685.81328728176368
 30
0.0
 11
2702.7757086755969
 21
744.61249085165946
 31
0.0
  0
LINE
  5
11CF
  8
TITLE
 10
2645.722202558577
 20
685.81328728176368
 30
0.0
 11
2702.7757086755969
 21
742.86679339871637
 31
0.0
  0
LINE
  5
11D0
  8
TITLE
 10
2647.4679000115161
 20
685.81328728176368
 30
0.0
 11
2702.7757086755969
 21
741.12109594584979
 31
0.0
  0
LINE
  5
11D1
  8
TITLE
 10
2649.2135974644561
 20
685.81328728176368
 30
0.0
 11
2702.7757086755969
 21
739.37539849290374
 31
0.0
  0
LINE
  5
11D2
  8
TITLE
 10
2650.9812893306198
 20
685.83528169498675
 30
0.0
 11
2702.753714262376
 21
737.60770662673849
 31
0.0
  0
LINE
  5
11D3
  8
TITLE
 10
2652.8110257442968
 20
685.91932065578339
 30
0.0
 11
2702.669675301504
 21
735.77797021299602
 31
0.0
  0
LINE
  5
11D4
  8
TITLE
 10
2654.7108407422429
 20
686.07343820072538
 30
0.0
 11
2702.515557756642
 21
733.87815521511448
 31
0.0
  0
LINE
  5
11D5
  8
TITLE
 10
2656.6902036023962
 20
686.30710360799935
 30
0.0
 11
2702.2818923492919
 21
731.89879235496414
 31
0.0
  0
LINE
  5
11D6
  8
TITLE
 10
2658.7613373636168
 20
686.63253991620559
 30
0.0
 11
2701.9564560411518
 21
729.82765859373694
 31
0.0
  0
LINE
  5
11D7
  8
TITLE
 10
2660.9404939078122
 20
687.06599900760375
 30
0.0
 11
2701.5229969497618
 21
727.64850204948243
 31
0.0
  0
LINE
  5
11D8
  8
TITLE
 10
2663.2501125293761
 20
687.62992017614965
 30
0.0
 11
2700.9590757811438
 21
725.33888342799048
 31
0.0
  0
LINE
  5
11D9
  8
TITLE
 10
2665.7227526012048
 20
688.35686279496372
 30
0.0
 11
2700.2321331623948
 21
722.86624335616136
 31
0.0
  0
LINE
  5
11DA
  8
TITLE
 10
2668.409000658995
 20
689.29741339996463
 30
0.0
 11
2699.2915825574019
 21
720.17999529836607
 31
0.0
  0
LINE
  5
11DB
  8
TITLE
 10
2669.0509736461649
 20
719.61624308694491
 30
0.0
 11
2702.7757086755969
 21
753.34097811630386
 31
0.0
  0
LINE
  5
11DC
  8
TITLE
 10
2674.8591116854959
 20
692.25612952056417
 30
0.0
 11
2696.332866436785
 21
713.72988427186567
 31
0.0
  0
LINE
  5
11DD
  8
TITLE
 10
2671.3957675298889
 20
690.53848281791488
 30
0.0
 11
2698.050513139453
 21
717.19322842746374
 31
0.0
  0
LINE
  5
11DE
  8
TITLE
 10
2676.4682929452179
 20
747.98193182109776
 30
0.0
 11
2702.7757086755969
 21
774.28934755147566
 31
0.0
  0
LINE
  5
11DF
  8
TITLE
 10
2676.4682929452179
 20
746.23623436816388
 30
0.0
 11
2702.7757086755969
 21
772.54365009853279
 31
0.0
  0
LINE
  5
11E0
  8
TITLE
 10
2676.4682929452179
 20
744.49053691521783
 30
0.0
 11
2702.7757086755969
 21
770.79795264559584
 31
0.0
  0
LINE
  5
11E1
  8
TITLE
 10
2676.434278352524
 20
739.21942996376345
 30
0.0
 11
2702.7757086755969
 21
765.56086028676441
 31
0.0
  0
LINE
  5
11E2
  8
TITLE
 10
2676.2968669021921
 20
737.33632106055234
 30
0.0
 11
2702.7757086755969
 21
763.81516283388601
 31
0.0
  0
LINE
  5
11E3
  8
TITLE
 10
2676.0323866756739
 20
735.32614338095061
 30
0.0
 11
2702.7757086755969
 21
762.06946538095212
 31
0.0
  0
LINE
  5
11E4
  8
TITLE
 10
2676.4682929452179
 20
742.74483946234204
 30
0.0
 11
2702.7757086755969
 21
769.05225519265002
 31
0.0
  0
LINE
  5
11E5
  8
TITLE
 10
2676.4682929452179
 20
740.99914200939611
 30
0.0
 11
2702.7757086755969
 21
767.30655773970386
 31
0.0
  0
LINE
  5
11E6
  8
TITLE
 10
2675.6066528599958
 20
733.15471211247893
 30
0.0
 11
2702.7757086755969
 21
760.32376792800596
 31
0.0
  0
LINE
  5
11E7
  8
TITLE
 10
2674.9634640155832
 20
730.76582581504817
 30
0.0
 11
2702.7757086755969
 21
758.57807047513813
 31
0.0
  0
LINE
  5
11E8
  8
TITLE
 10
2673.9971939401548
 20
728.05385828674537
 30
0.0
 11
2702.7757086755969
 21
756.83237302218924
 31
0.0
  0
LINE
  5
11E9
  8
TITLE
 10
2672.4539663533151
 20
724.76493324704143
 30
0.0
 11
2702.7757086755969
 21
755.0866755692407
 31
0.0
  0
LINE
  5
11EA
  8
TITLE
 10
2712.0188547430348
 20
750.36424201320142
 30
0.0
 11
2718.1721477106912
 21
756.51753498093535
 31
0.0
  0
LINE
  5
11EB
  8
TITLE
 10
2712.0188547430348
 20
748.61854456033075
 30
0.0
 11
2720.0236180762031
 21
756.6233078935079
 31
0.0
  0
LINE
  5
11EC
  8
TITLE
 10
2712.0188547430348
 20
746.87284710738822
 30
0.0
 11
2721.9071910940752
 21
756.76118345844543
 31
0.0
  0
LINE
  5
11ED
  8
TITLE
 10
2712.0188547430348
 20
745.12714965444275
 30
0.0
 11
2723.8247207059221
 21
756.9330156173329
 31
0.0
  0
LINE
  5
11EE
  8
TITLE
 10
2712.0188547430348
 20
753.85563691902576
 30
0.0
 11
2714.559001156766
 21
756.39578333289603
 31
0.0
  0
LINE
  5
11EF
  8
TITLE
 10
2712.0188547430348
 20
752.10993946614326
 30
0.0
 11
2716.3511114366779
 21
756.44219615986844
 31
0.0
  0
LINE
  5
11F0
  8
TITLE
 10
2676.4682929452179
 20
749.72762927404017
 30
0.0
 11
2702.7757086755969
 21
776.03504500441545
 31
0.0
  0
LINE
  5
11F1
  8
TITLE
 10
2676.4682929452179
 20
753.21902417992908
 30
0.0
 11
2702.7757086755969
 21
779.52643991023717
 31
0.0
  0
LINE
  5
11F2
  8
TITLE
 10
2676.4682929452179
 20
751.47332672698599
 30
0.0
 11
2702.7757086755969
 21
777.78074245736127
 31
0.0
  0
LINE
  5
11F3
  8
TITLE
 10
2763.5671693497861
 20
718.11907887933876
 30
0.0
 11
2789.8745850800169
 21
744.42649460971393
 31
0.0
  0
LINE
  5
11F4
  8
TITLE
 10
2763.5671693497861
 20
716.37338142639248
 30
0.0
 11
2789.8745850800169
 21
742.68079715676788
 31
0.0
  0
LINE
  5
11F5
  8
TITLE
 10
2763.5671693497861
 20
714.62768397345576
 30
0.0
 11
2789.8745850800169
 21
740.9350997038274
 31
0.0
  0
LINE
  5
11F6
  8
TITLE
 10
2763.5671693497861
 20
712.88198652051278
 30
0.0
 11
2789.8745850800169
 21
739.18940225088522
 31
0.0
  0
LINE
  5
11F7
  8
TITLE
 10
2763.5671693497861
 20
711.13628906763392
 30
0.0
 11
2789.8745850800169
 21
737.44370479794497
 31
0.0
  0
LINE
  5
11F8
  8
TITLE
 10
2763.5671693497861
 20
709.39059161469459
 30
0.0
 11
2789.8745850800169
 21
735.69800734500245
 31
0.0
  0
LINE
  5
11F9
  8
TITLE
 10
2763.5671693497861
 20
707.6448941618188
 30
0.0
 11
2789.8745850800169
 21
733.95230989205652
 31
0.0
  0
LINE
  5
11FA
  8
TITLE
 10
2763.5671693497861
 20
695.4250119912216
 30
0.0
 11
2789.8745850800169
 21
721.73242772159608
 31
0.0
  0
LINE
  5
11FB
  8
TITLE
 10
2763.5671693497861
 20
693.67931453834569
 30
0.0
 11
2789.8745850800169
 21
719.9867302686539
 31
0.0
  0
LINE
  5
11FC
  8
TITLE
 10
2763.5671693497861
 20
705.89919670887252
 30
0.0
 11
2789.8745850800169
 21
732.20661243918062
 31
0.0
  0
LINE
  5
11FD
  8
TITLE
 10
2763.5671693497861
 20
704.15349925593557
 30
0.0
 11
2789.8745850800169
 21
730.46091498624105
 31
0.0
  0
LINE
  5
11FE
  8
TITLE
 10
2763.5671693497861
 20
702.40780180298987
 30
0.0
 11
2789.8745850800169
 21
728.71521753329796
 31
0.0
  0
LINE
  5
11FF
  8
TITLE
 10
2763.5671693497861
 20
700.66210435004393
 30
0.0
 11
2789.8745850800169
 21
726.96952008042445
 31
0.0
  0
LINE
  5
1200
  8
TITLE
 10
2763.5671693497861
 20
698.91640689710437
 30
0.0
 11
2789.8745850800169
 21
725.22382262748238
 31
0.0
  0
LINE
  5
1201
  8
TITLE
 10
2763.5671693497861
 20
697.17070944416128
 30
0.0
 11
2789.8745850800169
 21
723.47812517453656
 31
0.0
  0
LINE
  5
1202
  8
TITLE
 10
2763.5671693497861
 20
691.93361708539976
 30
0.0
 11
2789.8745850800169
 21
718.24103281571286
 31
0.0
  0
LINE
  5
1203
  8
TITLE
 10
2763.5671693497861
 20
690.18791963246281
 30
0.0
 11
2789.8745850800169
 21
716.49533536276806
 31
0.0
  0
LINE
  5
1204
  8
TITLE
 10
2763.5671693497861
 20
688.44222217958975
 30
0.0
 11
2789.8745850800169
 21
714.74963790989773
 31
0.0
  0
LINE
  5
1205
  8
TITLE
 10
2763.5671693497861
 20
686.6965247266437
 30
0.0
 11
2789.8745850800169
 21
713.00394045695475
 31
0.0
  0
LINE
  5
1206
  8
TITLE
 10
2764.4296293578382
 20
685.81328728176368
 30
0.0
 11
2789.8745850800169
 21
711.25824300400939
 31
0.0
  0
LINE
  5
1207
  8
TITLE
 10
2771.412419169611
 20
685.81328728176368
 30
0.0
 11
2789.8745850800169
 21
704.27545319231047
 31
0.0
  0
LINE
  5
1208
  8
TITLE
 10
2773.1581166224119
 20
685.81328728176368
 30
0.0
 11
2789.8745850800169
 21
702.5297557393709
 31
0.0
  0
LINE
  5
1209
  8
TITLE
 10
2774.9038140753528
 20
685.81328728176368
 30
0.0
 11
2789.8745850800169
 21
700.78405828642497
 31
0.0
  0
LINE
  5
120A
  8
TITLE
 10
2776.6495115282951
 20
685.81328728176368
 30
0.0
 11
2789.8745850800169
 21
699.03836083348176
 31
0.0
  0
LINE
  5
120B
  8
TITLE
 10
2769.6667217166691
 20
685.81328728176368
 30
0.0
 11
2789.8745850800169
 21
706.02115064525628
 31
0.0
  0
LINE
  5
120C
  8
TITLE
 10
2766.1753268107859
 20
685.81328728176368
 30
0.0
 11
2789.8745850800169
 21
709.5125455511419
 31
0.0
  0
LINE
  5
120D
  8
TITLE
 10
2767.9210242637232
 20
685.81328728176368
 30
0.0
 11
2789.8745850800169
 21
707.76684809819596
 31
0.0
  0
LINE
  5
120E
  8
TITLE
 10
2778.3952089812419
 20
685.81328728176368
 30
0.0
 11
2789.8745850800169
 21
697.29266338053685
 31
0.0
  0
LINE
  5
120F
  8
TITLE
 10
2780.1409064341829
 20
685.81328728176368
 30
0.0
 11
2789.8745850800169
 21
695.54696592766641
 31
0.0
  0
LINE
  5
1210
  8
TITLE
 10
2781.8866038871261
 20
685.81328728176368
 30
0.0
 11
2789.8745850800169
 21
693.80126847472627
 31
0.0
  0
LINE
  5
1211
  8
TITLE
 10
2783.6323013400738
 20
685.81328728176368
 30
0.0
 11
2789.8745850800169
 21
692.05557102178341
 31
0.0
  0
LINE
  5
1212
  8
TITLE
 10
2785.3779987930152
 20
685.81328728176368
 30
0.0
 11
2789.8745850800169
 21
690.30987356891626
 31
0.0
  0
LINE
  5
1213
  8
TITLE
 10
2787.1236962459539
 20
685.81328728176368
 30
0.0
 11
2789.8745850800169
 21
688.56417611597635
 31
0.0
  0
LINE
  5
1214
  8
TITLE
 10
2788.8693936988961
 20
685.81328728176368
 30
0.0
 11
2789.8745850800169
 21
686.81847866302462
 31
0.0
  0
LINE
  5
1215
  8
TITLE
 10
2763.5671693497861
 20
721.61047378522142
 30
0.0
 11
2789.8745850800169
 21
747.91788951552928
 31
0.0
  0
LINE
  5
1216
  8
TITLE
 10
2763.5671693497861
 20
719.8647763322756
 30
0.0
 11
2789.8745850800169
 21
746.17219206266225
 31
0.0
  0
LINE
  5
1217
  8
TITLE
 10
2763.5671693497861
 20
726.84756614398282
 30
0.0
 11
2789.8745850800169
 21
753.1549818742908
 31
0.0
  0
LINE
  5
1218
  8
TITLE
 10
2763.5671693497861
 20
725.10186869110385
 30
0.0
 11
2789.8745850800169
 21
751.40928442134509
 31
0.0
  0
LINE
  5
1219
  8
TITLE
 10
2763.5671693497861
 20
723.35617123816735
 30
0.0
 11
2789.8745850800169
 21
749.66358696847556
 31
0.0
  0
LINE
  5
121A
  8
TITLE
 10
2763.5671693497861
 20
733.83035595568094
 30
0.0
 11
2789.8745850800169
 21
760.13777168605645
 31
0.0
  0
LINE
  5
121B
  8
TITLE
 10
2763.5671693497861
 20
732.08465850273581
 30
0.0
 11
2789.8745850800169
 21
758.39207423311677
 31
0.0
  0
LINE
  5
121C
  8
TITLE
 10
2763.5671693497861
 20
730.33896104986525
 30
0.0
 11
2789.8745850800169
 21
756.64637678017641
 31
0.0
  0
LINE
  5
121D
  8
TITLE
 10
2763.5671693497861
 20
728.59326359692602
 30
0.0
 11
2789.8745850800169
 21
754.90067932723696
 31
0.0
  0
LINE
  5
121E
  8
TITLE
 10
2725.3118310778982
 20
733.98036164825714
 30
0.0
 11
2756.2128668923519
 21
764.88139746278205
 31
0.0
  0
LINE
  5
121F
  8
TITLE
 10
2727.294419794996
 20
734.21725291255677
 30
0.0
 11
2759.2229029338851
 21
766.14573605137809
 31
0.0
  0
LINE
  5
1220
  8
TITLE
 10
2747.4116408619811
 20
738.62319690320078
 30
0.0
 11
2796.5736816481522
 21
787.78523768936918
 31
0.0
  0
LINE
  5
1221
  8
TITLE
 10
2740.1537705461219
 20
736.60241894601916
 30
0.0
 11
2785.9852131639709
 21
782.43386156387396
 31
0.0
  0
LINE
  5
1222
  8
TITLE
 10
2742.496970614372
 20
737.19992156139699
 30
0.0
 11
2789.8162541103438
 21
784.51920505744454
 31
0.0
  0
LINE
  5
1223
  8
TITLE
 10
2744.9133142396381
 20
737.87056773365885
 30
0.0
 11
2793.317854249774
 21
786.27510774393556
 31
0.0
  0
LINE
  5
1224
  8
TITLE
 10
2750.0028740234852
 20
739.46873261169014
 30
0.0
 11
2799.636567103722
 21
789.10242569185039
 31
0.0
  0
LINE
  5
1225
  8
TITLE
 10
2752.7007865525379
 20
740.4209476878699
 30
0.0
 11
2802.5424225562379
 21
790.26258369156028
 31
0.0
  0
LINE
  5
1226
  8
TITLE
 10
2755.5231712714858
 20
741.49763495372417
 30
0.0
 11
2805.316989508312
 21
791.29145319070506
 31
0.0
  0
LINE
  5
1227
  8
TITLE
 10
2733.496030101117
 20
735.1817708598486
 30
0.0
 11
2769.6708817923331
 21
771.35662255106774
 31
0.0
  0
LINE
  5
1228
  8
TITLE
 10
2729.317325354501
 20
734.49446101911622
 30
0.0
 11
2762.423507814216
 21
767.60064347883826
 31
0.0
  0
LINE
  5
1229
  8
TITLE
 10
2731.3834317885362
 20
734.81487000014238
 30
0.0
 11
2765.8672279661819
 21
769.29866617785603
 31
0.0
  0
LINE
  5
122A
  8
TITLE
 10
2735.6589038422412
 20
735.59894714802795
 30
0.0
 11
2776.575944006855
 21
776.51598731264346
 31
0.0
  0
LINE
  5
122B
  8
TITLE
 10
2737.8764394236532
 20
736.07078527657745
 30
0.0
 11
2781.6767902006809
 21
779.87113605359627
 31
0.0
  0
LINE
  5
122C
  8
TITLE
 10
3125.1453102872688
 20
779.43725791304951
 30
0.0
 11
3142.8138174013789
 21
797.10576502716344
 31
0.0
  0
LINE
  5
122D
  8
TITLE
 10
3125.1453102872688
 20
777.69156046018213
 30
0.0
 11
3144.5595148543248
 21
797.10576502716344
 31
0.0
  0
LINE
  5
122E
  8
TITLE
 10
3125.1453102872688
 20
775.94586300723688
 30
0.0
 11
3146.3052123072698
 21
797.10576502716344
 31
0.0
  0
LINE
  5
122F
  8
TITLE
 10
3125.1453102872688
 20
765.47167828964962
 30
0.0
 11
3156.779397024779
 21
797.10576502716344
 31
0.0
  0
LINE
  5
1230
  8
TITLE
 10
3125.1453102872688
 20
763.72598083670925
 30
0.0
 11
3158.5250944777249
 21
797.10576502716344
 31
0.0
  0
LINE
  5
1231
  8
TITLE
 10
3125.1453102872688
 20
761.98028338376412
 30
0.0
 11
3160.2707919306708
 21
797.10576502716344
 31
0.0
  0
LINE
  5
1232
  8
TITLE
 10
3125.1453102872688
 20
768.96307319553205
 30
0.0
 11
3153.2880021190408
 21
797.10576502716344
 31
0.0
  0
LINE
  5
1233
  8
TITLE
 10
3125.1453102872688
 20
767.21737574258907
 30
0.0
 11
3155.0336995718412
 21
797.10576502716344
 31
0.0
  0
LINE
  5
1234
  8
TITLE
 10
3125.1453102872688
 20
774.20016555429925
 30
0.0
 11
3148.0509097602121
 21
797.10576502716344
 31
0.0
  0
LINE
  5
1235
  8
TITLE
 10
3125.1453102872688
 20
772.45446810142323
 30
0.0
 11
3149.796607213153
 21
797.10576502716344
 31
0.0
  0
LINE
  5
1236
  8
TITLE
 10
3125.1453102872688
 20
770.70877064848378
 30
0.0
 11
3151.5423046660981
 21
797.10576502716344
 31
0.0
  0
LINE
  5
1237
  8
TITLE
 10
3125.1453102872688
 20
756.74319102500556
 30
0.0
 11
3145.0536248940421
 21
776.6515056317071
 31
0.0
  0
LINE
  5
1238
  8
TITLE
 10
3125.1453102872688
 20
754.99749357213523
 30
0.0
 11
3145.0536248940421
 21
774.90580817883381
 31
0.0
  0
LINE
  5
1239
  8
TITLE
 10
3125.1453102872688
 20
760.2345859308183
 30
0.0
 11
3145.0536248940421
 21
780.14290053759532
 31
0.0
  0
LINE
  5
123A
  8
TITLE
 10
3125.1453102872688
 20
758.48888847794501
 30
0.0
 11
3145.0536248940421
 21
778.39720308464928
 31
0.0
  0
LINE
  5
123B
  8
TITLE
 10
3117.5645695656399
 20
780.58500445599873
 30
0.0
 11
3134.0853301368088
 21
797.10576502716344
 31
0.0
  0
LINE
  5
123C
  8
TITLE
 10
3119.3102670185849
 20
780.58500445599873
 30
0.0
 11
3135.8310275896142
 21
797.10576502716344
 31
0.0
  0
LINE
  5
123D
  8
TITLE
 10
3121.0559644715331
 20
780.58500445599873
 30
0.0
 11
3137.5767250425579
 21
797.10576502716344
 31
0.0
  0
LINE
  5
123E
  8
TITLE
 10
3122.8016619243358
 20
780.58500445599873
 30
0.0
 11
3139.3224224954952
 21
797.10576502716344
 31
0.0
  0
LINE
  5
123F
  8
TITLE
 10
3124.5473593772708
 20
780.58500445599873
 30
0.0
 11
3141.0681199484352
 21
797.10576502716344
 31
0.0
  0
LINE
  5
1240
  8
TITLE
 10
3108.3320275849001
 20
685.81328728176368
 30
0.0
 11
3145.0536248940421
 21
722.53488459089783
 31
0.0
  0
LINE
  5
1241
  8
TITLE
 10
3110.0777250378401
 20
685.81328728176368
 30
0.0
 11
3145.0536248940421
 21
720.78918713803375
 31
0.0
  0
LINE
  5
1242
  8
TITLE
 10
3125.1453102872688
 20
711.35505724884308
 30
0.0
 11
3145.0536248940421
 21
731.26337185561465
 31
0.0
  0
LINE
  5
1243
  8
TITLE
 10
3125.1453102872688
 20
709.60935979590113
 30
0.0
 11
3145.0536248940421
 21
729.51767440267747
 31
0.0
  0
LINE
  5
1244
  8
TITLE
 10
3125.1453102872688
 20
707.86366234295519
 30
0.0
 11
3145.0536248940421
 21
727.77197694972915
 31
0.0
  0
LINE
  5
1245
  8
TITLE
 10
3125.1453102872688
 20
706.11796489001813
 30
0.0
 11
3145.0536248940421
 21
726.02627949678333
 31
0.0
  0
LINE
  5
1246
  8
TITLE
 10
3125.1453102872688
 20
704.37226743714234
 30
0.0
 11
3145.0536248940421
 21
724.28058204384934
 31
0.0
  0
LINE
  5
1247
  8
TITLE
 10
3125.1453102872688
 20
718.33784706061499
 30
0.0
 11
3145.0536248940421
 21
738.2461616673221
 31
0.0
  0
LINE
  5
1248
  8
TITLE
 10
3125.1453102872688
 20
716.59214960767736
 30
0.0
 11
3145.0536248940421
 21
736.50046421437082
 31
0.0
  0
LINE
  5
1249
  8
TITLE
 10
3125.1453102872688
 20
714.84645215472881
 30
0.0
 11
3145.0536248940421
 21
734.75476676150606
 31
0.0
  0
LINE
  5
124A
  8
TITLE
 10
3125.1453102872688
 20
713.10075470178367
 30
0.0
 11
3145.0536248940421
 21
733.00906930855774
 31
0.0
  0
LINE
  5
124B
  8
TITLE
 10
3111.8234224907851
 20
685.81328728176368
 30
0.0
 11
3145.0536248940421
 21
719.04348968508498
 31
0.0
  0
LINE
  5
124C
  8
TITLE
 10
3113.5691199437301
 20
685.81328728176368
 30
0.0
 11
3145.0536248940421
 21
717.29779223214211
 31
0.0
  0
LINE
  5
124D
  8
TITLE
 10
3115.314817396677
 20
685.81328728176368
 30
0.0
 11
3145.0536248940421
 21
715.55209477927508
 31
0.0
  0
LINE
  5
124E
  8
TITLE
 10
3117.0605148496161
 20
685.81328728176368
 30
0.0
 11
3145.0536248940421
 21
713.80639732632903
 31
0.0
  0
LINE
  5
124F
  8
TITLE
 10
3118.8062123024142
 20
685.81328728176368
 30
0.0
 11
3145.0536248940421
 21
712.06069987338958
 31
0.0
  0
LINE
  5
1250
  8
TITLE
 10
3120.5519097553538
 20
685.81328728176368
 30
0.0
 11
3145.0536248940421
 21
710.31500242044353
 31
0.0
  0
LINE
  5
1251
  8
TITLE
 10
3122.297607208302
 20
685.81328728176368
 30
0.0
 11
3145.0536248940421
 21
708.56930496750658
 31
0.0
  0
LINE
  5
1252
  8
TITLE
 10
3124.0433046612502
 20
685.81328728176368
 30
0.0
 11
3145.0536248940421
 21
706.82360751455838
 31
0.0
  0
LINE
  5
1253
  8
TITLE
 10
3125.7890021141889
 20
685.81328728176368
 30
0.0
 11
3145.0536248940421
 21
705.07791006161494
 31
0.0
  0
LINE
  5
1254
  8
TITLE
 10
3127.5346995671389
 20
685.81328728176368
 30
0.0
 11
3145.0536248940421
 21
703.33221260866867
 31
0.0
  0
LINE
  5
1255
  8
TITLE
 10
3129.2803970200771
 20
685.81328728176368
 30
0.0
 11
3146.3290382873338
 21
702.8619285490953
 31
0.0
  0
LINE
  5
1256
  8
TITLE
 10
3131.026094473018
 20
685.81328728176368
 30
0.0
 11
3148.0747357402729
 21
702.8619285490953
 31
0.0
  0
LINE
  5
1257
  8
TITLE
 10
3132.771791925959
 20
685.81328728176368
 30
0.0
 11
3149.8204331932179
 21
702.8619285490953
 31
0.0
  0
LINE
  5
1258
  8
TITLE
 10
3125.1453102872688
 20
734.04912413695445
 30
0.0
 11
3145.0536248940421
 21
753.95743874365871
 31
0.0
  0
LINE
  5
1259
  8
TITLE
 10
3125.1453102872688
 20
732.30342668401806
 30
0.0
 11
3145.0536248940421
 21
752.21174129079498
 31
0.0
  0
LINE
  5
125A
  8
TITLE
 10
3125.1453102872688
 20
730.55772923107725
 30
0.0
 11
3145.0536248940421
 21
750.46604383784893
 31
0.0
  0
LINE
  5
125B
  8
TITLE
 10
3125.1453102872688
 20
728.81203177813256
 30
0.0
 11
3145.0536248940421
 21
748.72034638490027
 31
0.0
  0
LINE
  5
125C
  8
TITLE
 10
3125.1453102872688
 20
727.06633432519436
 30
0.0
 11
3145.0536248940421
 21
746.97464893195513
 31
0.0
  0
LINE
  5
125D
  8
TITLE
 10
3125.1453102872688
 20
725.32063687224081
 30
0.0
 11
3145.0536248940421
 21
745.22895147901465
 31
0.0
  0
LINE
  5
125E
  8
TITLE
 10
3125.1453102872688
 20
723.57493941937389
 30
0.0
 11
3145.0536248940421
 21
743.48325402607782
 31
0.0
  0
LINE
  5
125F
  8
TITLE
 10
3125.1453102872688
 20
721.82924196642807
 30
0.0
 11
3145.0536248940421
 21
741.73755657313473
 31
0.0
  0
LINE
  5
1260
  8
TITLE
 10
3125.1453102872688
 20
720.08354451348725
 30
0.0
 11
3145.0536248940421
 21
739.99185912018618
 31
0.0
  0
LINE
  5
1261
  8
TITLE
 10
3125.1453102872688
 20
753.25179611918918
 30
0.0
 11
3145.0536248940421
 21
773.16011072588492
 31
0.0
  0
LINE
  5
1262
  8
TITLE
 10
3125.1453102872688
 20
751.50609866624325
 30
0.0
 11
3145.0536248940421
 21
771.41441327295615
 31
0.0
  0
LINE
  5
1263
  8
TITLE
 10
3125.1453102872688
 20
744.52330885447748
 30
0.0
 11
3145.0536248940421
 21
764.43162346124063
 31
0.0
  0
LINE
  5
1264
  8
TITLE
 10
3125.1453102872688
 20
742.77761140152904
 30
0.0
 11
3145.0536248940421
 21
762.68592600830414
 31
0.0
  0
LINE
  5
1265
  8
TITLE
 10
3125.1453102872688
 20
749.76040121330379
 30
0.0
 11
3145.0536248940421
 21
769.66871582007775
 31
0.0
  0
LINE
  5
1266
  8
TITLE
 10
3125.1453102872688
 20
748.01470376035775
 30
0.0
 11
3145.0536248940421
 21
767.92301836713807
 31
0.0
  0
LINE
  5
1267
  8
TITLE
 10
3125.1453102872688
 20
746.26900630741488
 30
0.0
 11
3145.0536248940421
 21
766.17732091418952
 31
0.0
  0
LINE
  5
1268
  8
TITLE
 10
3125.1453102872688
 20
739.28621649571369
 30
0.0
 11
3145.0536248940421
 21
759.19453110241477
 31
0.0
  0
LINE
  5
1269
  8
TITLE
 10
3125.1453102872688
 20
737.54051904277662
 30
0.0
 11
3145.0536248940421
 21
757.44883364954535
 31
0.0
  0
LINE
  5
126A
  8
TITLE
 10
3125.1453102872688
 20
735.79482158990061
 30
0.0
 11
3145.0536248940421
 21
755.70313619660499
 31
0.0
  0
LINE
  5
126B
  8
TITLE
 10
3125.1453102872688
 20
741.03191394866212
 30
0.0
 11
3145.0536248940421
 21
760.94022855536105
 31
0.0
  0
LINE
  5
126E
  8
TITLE
 10
2952.9637492826541
 20
691.04917464898654
 30
0.0
 11
2992.3841010028418
 21
730.46952636916876
 31
0.0
  0
LINE
  5
126F
  8
TITLE
 10
2952.9637492826541
 20
689.30347719603787
 30
0.0
 11
2991.4665345812618
 21
727.80626249466195
 31
0.0
  0
LINE
  5
1270
  8
TITLE
 10
2952.9637492826541
 20
687.55777974309558
 30
0.0
 11
2990.5489681596951
 21
725.14299862021301
 31
0.0
  0
LINE
  5
1271
  8
TITLE
 10
2952.9649542742568
 20
685.81328728176368
 30
0.0
 11
2989.6314017381242
 21
722.47973474569562
 31
0.0
  0
LINE
  5
1272
  8
TITLE
 10
2954.7106517270581
 20
685.81328728176368
 30
0.0
 11
2988.7138353165492
 21
719.81647087125498
 31
0.0
  0
LINE
  5
1273
  8
TITLE
 10
2952.9637492826541
 20
696.28626700781501
 30
0.0
 11
2995.1368002675608
 21
738.4593179927183
 31
0.0
  0
LINE
  5
1274
  8
TITLE
 10
2952.9637492826541
 20
694.54056955486919
 30
0.0
 11
2994.219233845984
 21
735.79605411820592
 31
0.0
  0
LINE
  5
1275
  8
TITLE
 10
2952.9637492826541
 20
692.79487210192406
 30
0.0
 11
2993.30166742441
 21
733.13279024369365
 31
0.0
  0
LINE
  5
1276
  8
TITLE
 10
2952.9637492826541
 20
706.76045172532986
 30
0.0
 11
3000.642198796852
 21
754.43890123966878
 31
0.0
  0
LINE
  5
1277
  8
TITLE
 10
2952.9637492826541
 20
705.01475427238086
 30
0.0
 11
2999.7246323752779
 21
751.77563736515367
 31
0.0
  0
LINE
  5
1278
  8
TITLE
 10
2952.9637492826541
 20
703.269056819517
 30
0.0
 11
2998.8070659537052
 21
749.11237349064322
 31
0.0
  0
LINE
  5
1279
  8
TITLE
 10
2952.9637492826541
 20
701.52335936656812
 30
0.0
 11
2997.889499532132
 21
746.44910961612231
 31
0.0
  0
LINE
  5
127A
  8
TITLE
 10
2952.9637492826541
 20
699.7776619136223
 30
0.0
 11
2996.9719331107008
 21
743.78584574168485
 31
0.0
  0
LINE
  5
127B
  8
TITLE
 10
2952.9637492826541
 20
698.03196446075515
 30
0.0
 11
2996.0543666891349
 21
741.12258186716144
 31
0.0
  0
LINE
  5
127C
  8
TITLE
 10
2956.4563491799991
 20
685.81328728176368
 30
0.0
 11
2987.7962688949729
 21
717.15320699673623
 31
0.0
  0
LINE
  5
127D
  8
TITLE
 10
2958.2020466329441
 20
685.81328728176368
 30
0.0
 11
2986.8787024734011
 21
714.48994312222135
 31
0.0
  0
LINE
  5
127E
  8
TITLE
 10
2965.1848364447151
 20
685.81328728176368
 30
0.0
 11
2987.3807016890692
 21
708.00915252611526
 31
0.0
  0
LINE
  5
127F
  8
TITLE
 10
2966.9305338976578
 20
685.81328728176368
 30
0.0
 11
2989.1263991418718
 21
708.00915252611526
 31
0.0
  0
LINE
  5
1280
  8
TITLE
 10
2968.6762313506028
 20
685.81328728176368
 30
0.0
 11
2990.8720965948169
 21
708.00915252611526
 31
0.0
  0
LINE
  5
1281
  8
TITLE
 10
2959.9477440858841
 20
685.81328728176368
 30
0.0
 11
2985.9611360518288
 21
711.82667924770556
 31
0.0
  0
LINE
  5
1282
  8
TITLE
 10
2961.6934415388318
 20
685.81328728176368
 30
0.0
 11
2985.0435696302579
 21
709.16341537319317
 31
0.0
  0
LINE
  5
1283
  8
TITLE
 10
2963.4391389917741
 20
685.81328728176368
 30
0.0
 11
2985.6350042361319
 21
708.00915252611526
 31
0.0
  0
LINE
  5
1284
  8
TITLE
 10
2968.2924996875731
 20
734.30908430085435
 30
0.0
 11
3007.0651637478568
 21
773.08174836113847
 31
0.0
  0
LINE
  5
1285
  8
TITLE
 10
2967.3749332660009
 20
731.64582042633936
 30
0.0
 11
3006.1475973262918
 21
770.41848448663154
 31
0.0
  0
LINE
  5
1286
  8
TITLE
 10
2961.6721242521962
 20
717.21452414789064
 30
0.0
 11
3001.5597652184219
 21
757.10216511419276
 31
0.0
  0
LINE
  5
1287
  8
TITLE
 10
2965.5398004228582
 20
726.31929267737758
 30
0.0
 11
3004.312464483145
 21
765.091956737597
 31
0.0
  0
LINE
  5
1288
  8
TITLE
 10
2964.6222340012841
 20
723.65602880293557
 30
0.0
 11
3003.3948980615701
 21
762.42869286315204
 31
0.0
  0
LINE
  5
1289
  8
TITLE
 10
2966.4573668444318
 20
728.98255655182595
 30
0.0
 11
3005.2300309047132
 21
767.75522061210393
 31
0.0
  0
LINE
  5
128A
  8
TITLE
 10
2963.7046675798611
 20
720.99276492841682
 30
0.0
 11
3002.4773316399978
 21
759.76542898863886
 31
0.0
  0
LINE
  5
128B
  8
TITLE
 10
2969.2100661091508
 20
736.97234817537276
 30
0.0
 11
3007.9827301694331
 21
775.74501223566244
 31
0.0
  0
LINE
  5
128C
  8
TITLE
 10
2873.2406524958451
 20
768.43884862576704
 30
0.0
 11
2901.9075688971038
 21
797.10576502716344
 31
0.0
  0
LINE
  5
128D
  8
TITLE
 10
2873.2406524958451
 20
766.69315117290034
 30
0.0
 11
2903.6532663500452
 21
797.10576502716344
 31
0.0
  0
LINE
  5
128E
  8
TITLE
 10
2873.2406524958451
 20
764.94745371995418
 30
0.0
 11
2905.3989638029861
 21
797.10576502716344
 31
0.0
  0
LINE
  5
128F
  8
TITLE
 10
2873.2406524958451
 20
763.20175626701462
 30
0.0
 11
2907.1446612559298
 21
797.10576502716344
 31
0.0
  0
LINE
  5
1290
  8
TITLE
 10
2873.2406524958451
 20
761.45605881413894
 30
0.0
 11
2908.890358708873
 21
797.10576502716344
 31
0.0
  0
LINE
  5
1291
  8
TITLE
 10
2873.2406524958451
 20
759.71036136119289
 30
0.0
 11
2910.6360561618199
 21
797.10576502716344
 31
0.0
  0
LINE
  5
1292
  8
TITLE
 10
2873.2406524958451
 20
757.96466390825594
 30
0.0
 11
2912.381753614764
 21
797.10576502716344
 31
0.0
  0
LINE
  5
1293
  8
TITLE
 10
2873.2406524958451
 20
756.21896645531569
 30
0.0
 11
2914.1274510677008
 21
797.10576502716344
 31
0.0
  0
LINE
  5
1294
  8
TITLE
 10
2873.2406524958451
 20
754.47326900236419
 30
0.0
 11
2915.8731485206431
 21
797.10576502716344
 31
0.0
  0
LINE
  5
1295
  8
TITLE
 10
2867.4452770714538
 20
774.86335537197033
 30
0.0
 11
2889.6876867266428
 21
797.10576502716344
 31
0.0
  0
LINE
  5
1296
  8
TITLE
 10
2869.1909745243911
 20
774.86335537197033
 30
0.0
 11
2891.433384179586
 21
797.10576502716344
 31
0.0
  0
LINE
  5
1297
  8
TITLE
 10
2870.9366719773361
 20
774.86335537197033
 30
0.0
 11
2893.179081632532
 21
797.10576502716344
 31
0.0
  0
LINE
  5
1298
  8
TITLE
 10
2872.6823694302761
 20
774.86335537197033
 30
0.0
 11
2894.924779085472
 21
797.10576502716344
 31
0.0
  0
LINE
  5
1299
  8
TITLE
 10
2873.2406524958451
 20
773.67594098459597
 30
0.0
 11
2896.6704765384211
 21
797.10576502716344
 31
0.0
  0
LINE
  5
129A
  8
TITLE
 10
2873.2406524958451
 20
771.93024353165902
 30
0.0
 11
2898.4161739913611
 21
797.10576502716344
 31
0.0
  0
LINE
  5
129B
  8
TITLE
 10
2873.2406524958451
 20
770.18454607871024
 30
0.0
 11
2900.1618714441611
 21
797.10576502716344
 31
0.0
  0
LINE
  5
129C
  8
TITLE
 10
2879.6456612512211
 20
685.81328728176368
 30
0.0
 11
2902.2161787795949
 21
708.38380481013837
 31
0.0
  0
LINE
  5
129D
  8
TITLE
 10
2881.391358704022
 20
685.81328728176368
 30
0.0
 11
2903.9618762323948
 21
708.38380481013837
 31
0.0
  0
LINE
  5
129E
  8
TITLE
 10
2883.1370561569638
 20
685.81328728176368
 30
0.0
 11
2905.7075736853399
 21
708.38380481013837
 31
0.0
  0
LINE
  5
129F
  8
TITLE
 10
2884.8827536099052
 20
685.81328728176368
 30
0.0
 11
2907.4532711382922
 21
708.38380481013837
 31
0.0
  0
LINE
  5
12A0
  8
TITLE
 10
2886.6284510628529
 20
685.81328728176368
 30
0.0
 11
2909.198968591234
 21
708.38380481013837
 31
0.0
  0
LINE
  5
12A1
  8
TITLE
 10
2851.7145020042758
 20
685.81328728176368
 30
0.0
 11
2898.1260457541698
 21
732.22483103172635
 31
0.0
  0
LINE
  5
12A2
  8
TITLE
 10
2853.4601994572199
 20
685.81328728176368
 30
0.0
 11
2898.1260457541698
 21
730.47913357878326
 31
0.0
  0
LINE
  5
12A3
  8
TITLE
 10
2855.2058969101608
 20
685.81328728176368
 30
0.0
 11
2898.1260457541698
 21
728.73343612584677
 31
0.0
  0
LINE
  5
12A4
  8
TITLE
 10
2856.951594363105
 20
685.81328728176368
 30
0.0
 11
2898.1260457541698
 21
726.98773867297632
 31
0.0
  0
LINE
  5
12A5
  8
TITLE
 10
2858.697291816045
 20
685.81328728176368
 30
0.0
 11
2898.1260457541698
 21
725.24204122002459
 31
0.0
  0
LINE
  5
12A6
  8
TITLE
 10
2860.4429892689932
 20
685.81328728176368
 30
0.0
 11
2898.1260457541698
 21
723.49634376707604
 31
0.0
  0
LINE
  5
12A7
  8
TITLE
 10
2862.1886867217968
 20
685.81328728176368
 30
0.0
 11
2898.1260457541698
 21
721.75064631414205
 31
0.0
  0
LINE
  5
12A8
  8
TITLE
 10
2863.9343841747391
 20
685.81328728176368
 30
0.0
 11
2898.1260457541698
 21
720.00494886119589
 31
0.0
  0
LINE
  5
12A9
  8
TITLE
 10
2865.6800816276818
 20
685.81328728176368
 30
0.0
 11
2898.1260457541698
 21
718.25925140825609
 31
0.0
  0
LINE
  5
12AA
  8
TITLE
 10
2867.4257790806219
 20
685.81328728176368
 30
0.0
 11
2898.1260457541698
 21
716.5135539553105
 31
0.0
  0
LINE
  5
12AB
  8
TITLE
 10
2873.2406524958451
 20
719.55931994379841
 30
0.0
 11
2898.1260457541698
 21
744.44471320225625
 31
0.0
  0
LINE
  5
12AC
  8
TITLE
 10
2873.2406524958451
 20
717.81362249085009
 30
0.0
 11
2898.1260457541698
 21
742.69901574931282
 31
0.0
  0
LINE
  5
12AD
  8
TITLE
 10
2873.2406524958451
 20
716.06792503790393
 30
0.0
 11
2898.1260457541698
 21
740.95331829637087
 31
0.0
  0
LINE
  5
12AE
  8
TITLE
 10
2873.2406524958451
 20
714.32222758495504
 30
0.0
 11
2898.1260457541698
 21
739.20762084342778
 31
0.0
  0
LINE
  5
12AF
  8
TITLE
 10
2873.2406524958451
 20
712.5765301320854
 30
0.0
 11
2898.1260457541698
 21
737.46192339049105
 31
0.0
  0
LINE
  5
12B0
  8
TITLE
 10
2873.2406524958451
 20
710.83083267915435
 30
0.0
 11
2898.1260457541698
 21
735.71622593754228
 31
0.0
  0
LINE
  5
12B1
  8
TITLE
 10
2873.2406524958451
 20
709.08513522620535
 30
0.0
 11
2898.1260457541698
 21
733.97052848459612
 31
0.0
  0
LINE
  5
12B2
  8
TITLE
 10
2869.1714765335678
 20
685.81328728176368
 30
0.0
 11
2898.1260457541698
 21
714.76785650236457
 31
0.0
  0
LINE
  5
12B3
  8
TITLE
 10
2870.9171739865051
 20
685.81328728176368
 30
0.0
 11
2898.1260457541698
 21
713.02215904949526
 31
0.0
  0
LINE
  5
12B4
  8
TITLE
 10
2872.6628714394542
 20
685.81328728176368
 30
0.0
 11
2898.1260457541698
 21
711.27646159655205
 31
0.0
  0
LINE
  5
12B5
  8
TITLE
 10
2874.4085688923919
 20
685.81328728176368
 30
0.0
 11
2898.1260457541698
 21
709.53076414368502
 31
0.0
  0
LINE
  5
12B6
  8
TITLE
 10
2876.1542663453338
 20
685.81328728176368
 30
0.0
 11
2898.7247838737162
 21
708.38380481013837
 31
0.0
  0
LINE
  5
12B7
  8
TITLE
 10
2877.8999637982761
 20
685.81328728176368
 30
0.0
 11
2900.4704813266571
 21
708.38380481013837
 31
0.0
  0
LINE
  5
12B8
  8
TITLE
 10
2873.2406524958451
 20
723.05071484967584
 30
0.0
 11
2898.1260457541698
 21
747.93610810808104
 31
0.0
  0
LINE
  5
12B9
  8
TITLE
 10
2873.2406524958451
 20
721.3050173967348
 30
0.0
 11
2898.1260457541698
 21
746.190410655135
 31
0.0
  0
LINE
  5
12BA
  8
TITLE
 10
2873.2406524958451
 20
728.28780720843724
 30
0.0
 11
2898.1260457541698
 21
753.17320046683028
 31
0.0
  0
LINE
  5
12BB
  8
TITLE
 10
2873.2406524958451
 20
726.54210975549404
 30
0.0
 11
2898.1260457541698
 21
751.42750301388799
 31
0.0
  0
LINE
  5
12BC
  8
TITLE
 10
2873.2406524958451
 20
724.79641230261507
 30
0.0
 11
2898.1260457541698
 21
749.68180556101765
 31
0.0
  0
LINE
  5
12BD
  8
TITLE
 10
2873.2406524958451
 20
752.72757154942428
 30
0.0
 11
2917.6188459734458
 21
797.10576502716344
 31
0.0
  0
LINE
  5
12BE
  8
TITLE
 10
2873.2406524958451
 20
750.98187409648131
 30
0.0
 11
2919.3645434263908
 21
797.10576502716344
 31
0.0
  0
LINE
  5
12BF
  8
TITLE
 10
2873.2406524958451
 20
749.23617664354197
 30
0.0
 11
2898.1260457541698
 21
774.12156990200242
 31
0.0
  0
LINE
  5
12C0
  8
TITLE
 10
2873.2406524958451
 20
747.49047919067129
 30
0.0
 11
2898.1260457541698
 21
772.37587244905626
 31
0.0
  0
LINE
  5
12C1
  8
TITLE
 10
2873.2406524958451
 20
745.74478173771979
 30
0.0
 11
2898.1260457541698
 21
770.63017499611703
 31
0.0
  0
LINE
  5
12C2
  8
TITLE
 10
2873.2406524958451
 20
743.99908428484957
 30
0.0
 11
2898.1260457541698
 21
768.88447754317644
 31
0.0
  0
LINE
  5
12C3
  8
TITLE
 10
2873.2406524958451
 20
742.25338683190444
 30
0.0
 11
2898.1260457541698
 21
767.13878009030327
 31
0.0
  0
LINE
  5
12C4
  8
TITLE
 10
2873.2406524958451
 20
740.50768937896396
 30
0.0
 11
2898.1260457541698
 21
765.39308263735825
 31
0.0
  0
LINE
  5
12C5
  8
TITLE
 10
2873.2406524958451
 20
738.76199192602735
 30
0.0
 11
2898.1260457541698
 21
763.64738518449337
 31
0.0
  0
LINE
  5
12C6
  8
TITLE
 10
2873.2406524958451
 20
737.01629447307585
 30
0.0
 11
2898.1260457541698
 21
761.9016877315446
 31
0.0
  0
LINE
  5
12C7
  8
TITLE
 10
2873.2406524958451
 20
735.27059702013901
 30
0.0
 11
2898.1260457541698
 21
760.15599027860537
 31
0.0
  0
LINE
  5
12C8
  8
TITLE
 10
2873.2406524958451
 20
733.52489956719035
 30
0.0
 11
2898.1260457541698
 21
758.41029282566194
 31
0.0
  0
LINE
  5
12C9
  8
TITLE
 10
2873.2406524958451
 20
731.77920211424703
 30
0.0
 11
2898.1260457541698
 21
756.66459537271669
 31
0.0
  0
LINE
  5
12CA
  8
TITLE
 10
2873.2406524958451
 20
730.03350466138033
 30
0.0
 11
2898.1260457541698
 21
754.91889791977644
 31
0.0
  0
LINE
  5
12CB
  8
TITLE
 10
2855.2253949009942
 20
774.86335537197033
 30
0.0
 11
2877.4678045561809
 21
797.10576502716344
 31
0.0
  0
LINE
  5
12CC
  8
TITLE
 10
2856.9710923537941
 20
774.86335537197033
 30
0.0
 11
2879.2135020091291
 21
797.10576502716344
 31
0.0
  0
LINE
  5
12CD
  8
TITLE
 10
2858.716789806741
 20
774.86335537197033
 30
0.0
 11
2880.9591994619232
 21
797.10576502716344
 31
0.0
  0
LINE
  5
12CE
  8
TITLE
 10
2860.4624872596828
 20
774.86335537197033
 30
0.0
 11
2882.7048969148732
 21
797.10576502716344
 31
0.0
  0
LINE
  5
12CF
  8
TITLE
 10
2862.2081847126219
 20
774.86335537197033
 30
0.0
 11
2884.4505943678132
 21
797.10576502716344
 31
0.0
  0
LINE
  5
12D0
  8
TITLE
 10
2863.9538821655651
 20
774.86335537197033
 30
0.0
 11
2886.196291820756
 21
797.10576502716344
 31
0.0
  0
LINE
  5
12D1
  8
TITLE
 10
2865.6995796185088
 20
774.86335537197033
 30
0.0
 11
2887.9419892737019
 21
797.10576502716344
 31
0.0
  0
LINE
  5
12D2
  8
TITLE
 10
2846.4969076362809
 20
774.86335537197033
 30
0.0
 11
2868.739317291474
 21
797.10576502716344
 31
0.0
  0
LINE
  5
12D3
  8
TITLE
 10
2848.2426050892259
 20
774.86335537197033
 30
0.0
 11
2870.4850147444131
 21
797.10576502716344
 31
0.0
  0
LINE
  5
12D4
  8
TITLE
 10
2849.9883025421618
 20
774.86335537197033
 30
0.0
 11
2872.2307121973572
 21
797.10576502716344
 31
0.0
  0
LINE
  5
12D5
  8
TITLE
 10
2851.7339999951059
 20
774.86335537197033
 30
0.0
 11
2873.9764096503
 21
797.10576502716344
 31
0.0
  0
LINE
  5
12D6
  8
TITLE
 10
2853.4796974480432
 20
774.86335537197033
 30
0.0
 11
2875.722107103245
 21
797.10576502716344
 31
0.0
  0
LINE
  5
12D7
  8
TITLE
 10
2844.7512101833331
 20
774.86335537197033
 30
0.0
 11
2866.9936198385308
 21
797.10576502716344
 31
0.0
  0
LINE
  5
12D8
  8
TITLE
 10
2843.0055127303881
 20
774.86335537197033
 30
0.0
 11
2865.2479223855862
 21
797.10576502716344
 31
0.0
  0
LINE
  5
12D9
  8
TITLE
 10
2807.3576522611702
 20
768.89235160249893
 30
0.0
 11
2827.2026749676438
 21
788.73737430904941
 31
0.0
  0
LINE
  5
12DA
  8
TITLE
 10
2809.9447498955451
 20
769.73375178393712
 30
0.0
 11
2827.2026749676438
 21
786.99167685610382
 31
0.0
  0
LINE
  5
12DB
  8
TITLE
 10
2812.4436931332511
 20
770.48699756883843
 30
0.0
 11
2827.2026749676438
 21
785.24597940322781
 31
0.0
  0
LINE
  5
12DC
  8
TITLE
 10
2814.8643733543822
 20
771.16198033694343
 30
0.0
 11
2827.2026749676438
 21
783.50028195029063
 31
0.0
  0
LINE
  5
12DD
  8
TITLE
 10
2817.2148745045602
 20
771.76678403418907
 30
0.0
 11
2827.2026749676438
 21
781.75458449734504
 31
0.0
  0
LINE
  5
12DE
  8
TITLE
 10
2826.0345523203132
 20
773.60367203817395
 30
0.0
 11
2827.2026749676438
 21
774.77179468556778
 31
0.0
  0
LINE
  5
12DF
  8
TITLE
 10
2823.9072833712321
 20
773.22210054202924
 30
0.0
 11
2827.2026749676438
 21
776.5174921385136
 31
0.0
  0
LINE
  5
12E0
  8
TITLE
 10
2819.5019056978022
 20
772.30811777440658
 30
0.0
 11
2827.2026749676438
 21
780.00888704440536
 31
0.0
  0
LINE
  5
12E1
  8
TITLE
 10
2821.7311089308951
 20
772.79162355470805
 30
0.0
 11
2827.2026749676438
 21
778.26318959145681
 31
0.0
  0
LINE
  5
12E2
  8
TITLE
 10
2836.2680682261221
 20
792.56567520869805
 30
0.0
 11
2840.8081580446651
 21
797.10576502716344
 31
0.0
  0
LINE
  5
12E3
  8
TITLE
 10
2836.2680682261221
 20
790.81997775574951
 30
0.0
 11
2842.5538554976129
 21
797.10576502716344
 31
0.0
  0
LINE
  5
12E4
  8
TITLE
 10
2836.2680682261221
 20
796.05707011451375
 30
0.0
 11
2837.316763138781
 21
797.10576502716344
 31
0.0
  0
LINE
  5
12E5
  8
TITLE
 10
2836.2680682261221
 20
794.31137266156486
 30
0.0
 11
2839.0624605917192
 21
797.10576502716344
 31
0.0
  0
LINE
  5
12E6
  8
TITLE
 10
2836.2680682261221
 20
780.34579303816213
 30
0.0
 11
2853.0280402151252
 21
797.10576502716344
 31
0.0
  0
LINE
  5
12E7
  8
TITLE
 10
2836.2680682261221
 20
778.60009558522518
 30
0.0
 11
2854.7737376680739
 21
797.10576502716344
 31
0.0
  0
LINE
  5
12E8
  8
TITLE
 10
2836.2680682261221
 20
776.85439813227663
 30
0.0
 11
2856.5194351210112
 21
797.10576502716344
 31
0.0
  0
LINE
  5
12E9
  8
TITLE
 10
2836.2680682261221
 20
775.10870067933354
 30
0.0
 11
2858.2651325739571
 21
797.10576502716344
 31
0.0
  0
LINE
  5
12EA
  8
TITLE
 10
2837.7684203715621
 20
774.86335537197033
 30
0.0
 11
2860.0108300268948
 21
797.10576502716344
 31
0.0
  0
LINE
  5
12EB
  8
TITLE
 10
2839.514117824504
 20
774.86335537197033
 30
0.0
 11
2861.7565274798412
 21
797.10576502716344
 31
0.0
  0
LINE
  5
12EC
  8
TITLE
 10
2841.2598152774522
 20
774.86335537197033
 30
0.0
 11
2863.5022249326398
 21
797.10576502716344
 31
0.0
  0
LINE
  5
12ED
  8
TITLE
 10
2836.2680682261221
 20
782.09149049110454
 30
0.0
 11
2851.2823427621788
 21
797.10576502716344
 31
0.0
  0
LINE
  5
12EE
  8
TITLE
 10
2836.2680682261221
 20
789.07428030281551
 30
0.0
 11
2844.2995529504128
 21
797.10576502716344
 31
0.0
  0
LINE
  5
12EF
  8
TITLE
 10
2836.2680682261221
 20
787.32858284993586
 30
0.0
 11
2846.0452504033501
 21
797.10576502716344
 31
0.0
  0
LINE
  5
12F0
  8
TITLE
 10
2836.2680682261221
 20
785.58288539699913
 30
0.0
 11
2847.790947856297
 21
797.10576502716344
 31
0.0
  0
LINE
  5
12F1
  8
TITLE
 10
2836.2680682261221
 20
783.83718794405297
 30
0.0
 11
2849.5366453092411
 21
797.10576502716344
 31
0.0
  0
LINE
  5
12F2
  8
TITLE
 10
2846.4774096454448
 20
685.81328728176368
 30
0.0
 11
2869.047927173825
 21
708.38380481013837
 31
0.0
  0
LINE
  5
12F3
  8
TITLE
 10
2848.223107098388
 20
685.81328728176368
 30
0.0
 11
2870.7936246267618
 21
708.38380481013837
 31
0.0
  0
LINE
  5
12F4
  8
TITLE
 10
2849.9688045513408
 20
685.81328728176368
 30
0.0
 11
2872.5393220797132
 21
708.38380481013837
 31
0.0
  0
LINE
  5
12F5
  8
TITLE
 10
2844.7317121925071
 20
685.81328728176368
 30
0.0
 11
2867.3022297210182
 21
708.38380481013837
 31
0.0
  0
LINE
  5
12F6
  8
TITLE
 10
2842.9860147397062
 20
685.81328728176368
 30
0.0
 11
2865.5565322680809
 21
708.38380481013837
 31
0.0
  0
LINE
  5
12F7
  8
TITLE
 10
2827.2026749676438
 20
696.21540930377478
 30
0.0
 11
2839.371070474077
 21
708.38380481013837
 31
0.0
  0
LINE
  5
12F8
  8
TITLE
 10
2827.2026749676438
 20
694.46971185090683
 30
0.0
 11
2841.1167679270188
 21
708.38380481013837
 31
0.0
  0
LINE
  5
12F9
  8
TITLE
 10
2827.2026749676438
 20
697.96110675672026
 30
0.0
 11
2837.6253730211329
 21
708.38380481013837
 31
0.0
  0
LINE
  5
12FA
  8
TITLE
 10
2827.2026749676438
 20
703.19819911547927
 30
0.0
 11
2832.388280662301
 21
708.38380481013837
 31
0.0
  0
LINE
  5
12FB
  8
TITLE
 10
2827.2026749676438
 20
701.45250166253868
 30
0.0
 11
2834.1339781152492
 21
708.38380481013837
 31
0.0
  0
LINE
  5
12FC
  8
TITLE
 10
2827.2026749676438
 20
699.70680420959627
 30
0.0
 11
2835.8796755681951
 21
708.38380481013837
 31
0.0
  0
LINE
  5
12FD
  8
TITLE
 10
2827.2026749676438
 20
706.68959402136477
 30
0.0
 11
2828.8968857565628
 21
708.38380481013837
 31
0.0
  0
LINE
  5
12FE
  8
TITLE
 10
2827.2026749676438
 20
704.94389656842429
 30
0.0
 11
2830.6425832093628
 21
708.38380481013837
 31
0.0
  0
LINE
  5
12FF
  8
TITLE
 10
2827.2026749676438
 20
692.72401439796454
 30
0.0
 11
2842.8624653799689
 21
708.38380481013837
 31
0.0
  0
LINE
  5
1300
  8
TITLE
 10
2827.2026749676438
 20
690.97831694502133
 30
0.0
 11
2844.6081628329111
 21
708.38380481013837
 31
0.0
  0
LINE
  5
1301
  8
TITLE
 10
2827.2026749676438
 20
689.23261949207563
 30
0.0
 11
2846.3538602858521
 21
708.38380481013837
 31
0.0
  0
LINE
  5
1302
  8
TITLE
 10
2827.2026749676438
 20
687.48692203914152
 30
0.0
 11
2848.0995577386511
 21
708.38380481013837
 31
0.0
  0
LINE
  5
1303
  8
TITLE
 10
2827.2747376632201
 20
685.81328728176368
 30
0.0
 11
2849.8452551915971
 21
708.38380481013837
 31
0.0
  0
LINE
  5
1304
  8
TITLE
 10
2829.0204351161578
 20
685.81328728176368
 30
0.0
 11
2851.590952644533
 21
708.38380481013837
 31
0.0
  0
LINE
  5
1305
  8
TITLE
 10
2830.7661325690992
 20
685.81328728176368
 30
0.0
 11
2853.3366500974771
 21
708.38380481013837
 31
0.0
  0
LINE
  5
1306
  8
TITLE
 10
2832.5118300220452
 20
685.81328728176368
 30
0.0
 11
2855.0823475504199
 21
708.38380481013837
 31
0.0
  0
LINE
  5
1307
  8
TITLE
 10
2834.2575274749902
 20
685.81328728176368
 30
0.0
 11
2856.8280450033631
 21
708.38380481013837
 31
0.0
  0
LINE
  5
1308
  8
TITLE
 10
2836.0032249279311
 20
685.81328728176368
 30
0.0
 11
2858.573742456304
 21
708.38380481013837
 31
0.0
  0
LINE
  5
1309
  8
TITLE
 10
2837.7489223808811
 20
685.81328728176368
 30
0.0
 11
2860.319439909249
 21
708.38380481013837
 31
0.0
  0
LINE
  5
130A
  8
TITLE
 10
2839.4946198338162
 20
685.81328728176368
 30
0.0
 11
2862.0651373621959
 21
708.38380481013837
 31
0.0
  0
LINE
  5
130B
  8
TITLE
 10
2841.2403172867648
 20
685.81328728176368
 30
0.0
 11
2863.8108348151418
 21
708.38380481013837
 31
0.0
  0
LINE
  5
130C
  8
TITLE
 10
2925.0532930181398
 20
774.86335537197033
 30
0.0
 11
2935.098630023891
 21
784.9086923777254
 31
0.0
  0
LINE
  5
130D
  8
TITLE
 10
2926.7989904710839
 20
774.86335537197033
 30
0.0
 11
2935.098630023891
 21
783.16299492478504
 31
0.0
  0
LINE
  5
130E
  8
TITLE
 10
2928.5446879238821
 20
774.86335537197033
 30
0.0
 11
2935.098630023891
 21
781.41729747184263
 31
0.0
  0
LINE
  5
130F
  8
TITLE
 10
2933.7817802827199
 20
774.86335537197033
 30
0.0
 11
2935.098630023891
 21
776.18020511308021
 31
0.0
  0
LINE
  5
1310
  8
TITLE
 10
2930.2903853768339
 20
774.86335537197033
 30
0.0
 11
2935.098630023891
 21
779.67160001896275
 31
0.0
  0
LINE
  5
1311
  8
TITLE
 10
2932.0360828297689
 20
774.86335537197033
 30
0.0
 11
2935.098630023891
 21
777.92590256602057
 31
0.0
  0
LINE
  5
1312
  8
TITLE
 10
2952.9637492826541
 20
708.50614917826385
 30
0.0
 11
2953.2342616440028
 21
708.77666153963435
 31
0.0
  0
LINE
  5
1313
  8
TITLE
 10
2925.033795027312
 20
685.81328728176368
 30
0.0
 11
2944.164023282372
 21
704.94351553682657
 31
0.0
  0
LINE
  5
1314
  8
TITLE
 10
2926.779492480257
 20
685.81328728176368
 30
0.0
 11
2944.164023282372
 21
703.19781808388143
 31
0.0
  0
LINE
  5
1315
  8
TITLE
 10
2928.5251899331961
 20
685.81328728176368
 30
0.0
 11
2944.164023282372
 21
701.45212063093595
 31
0.0
  0
LINE
  5
1316
  8
TITLE
 10
2930.2708873861388
 20
685.81328728176368
 30
0.0
 11
2944.164023282372
 21
699.70642317799889
 31
0.0
  0
LINE
  5
1317
  8
TITLE
 10
2932.0165848390839
 20
685.81328728176368
 30
0.0
 11
2944.164023282372
 21
697.96072572505045
 31
0.0
  0
LINE
  5
1318
  8
TITLE
 10
2933.762282292033
 20
685.81328728176368
 30
0.0
 11
2944.164023282372
 21
696.21502827210429
 31
0.0
  0
LINE
  5
1319
  8
TITLE
 10
2935.5079797448338
 20
685.81328728176368
 30
0.0
 11
2944.164023282372
 21
694.46933081916097
 31
0.0
  0
LINE
  5
131A
  8
TITLE
 10
2937.253677197768
 20
685.81328728176368
 30
0.0
 11
2944.164023282372
 21
692.72363336621902
 31
0.0
  0
LINE
  5
131B
  8
TITLE
 10
2938.9993746507139
 20
685.81328728176368
 30
0.0
 11
2944.164023282372
 21
690.97793591335403
 31
0.0
  0
LINE
  5
131C
  8
TITLE
 10
2940.7450721036571
 20
685.81328728176368
 30
0.0
 11
2944.164023282372
 21
689.23223846040514
 31
0.0
  0
LINE
  5
131D
  8
TITLE
 10
2942.4907695565962
 20
685.81328728176368
 30
0.0
 11
2944.164023282372
 21
687.48654100746285
 31
0.0
  0
LINE
  5
131E
  8
TITLE
 10
2898.8678312241409
 20
774.86335537197033
 30
0.0
 11
2921.110240879334
 21
797.10576502716344
 31
0.0
  0
LINE
  5
131F
  8
TITLE
 10
2900.6135286770791
 20
774.86335537197033
 30
0.0
 11
2922.8559383322772
 21
797.10576502716344
 31
0.0
  0
LINE
  5
1320
  8
TITLE
 10
2902.3592261300241
 20
774.86335537197033
 30
0.0
 11
2924.60163578522
 21
797.10576502716344
 31
0.0
  0
LINE
  5
1321
  8
TITLE
 10
2888.3741485157948
 20
685.81328728176368
 30
0.0
 11
2910.9446660441699
 21
708.38380481013837
 31
0.0
  0
LINE
  5
1322
  8
TITLE
 10
2890.119845968738
 20
685.81328728176368
 30
0.0
 11
2912.6903634971131
 21
708.38380481013837
 31
0.0
  0
LINE
  5
1323
  8
TITLE
 10
2891.8655434216798
 20
685.81328728176368
 30
0.0
 11
2914.4360609500559
 21
708.38380481013837
 31
0.0
  0
LINE
  5
1324
  8
TITLE
 10
2893.6112408746299
 20
685.81328728176368
 30
0.0
 11
2916.1817584030018
 21
708.38380481013837
 31
0.0
  0
LINE
  5
1325
  8
TITLE
 10
2895.3569383275671
 20
685.81328728176368
 30
0.0
 11
2917.9274558559432
 21
708.38380481013837
 31
0.0
  0
LINE
  5
1326
  8
TITLE
 10
2897.1026357805108
 20
685.81328728176368
 30
0.0
 11
2919.673153308886
 21
708.38380481013837
 31
0.0
  0
LINE
  5
1327
  8
TITLE
 10
2898.8483332333039
 20
685.81328728176368
 30
0.0
 11
2921.4188507616859
 21
708.38380481013837
 31
0.0
  0
LINE
  5
1328
  8
TITLE
 10
2900.5940306862499
 20
685.81328728176368
 30
0.0
 11
2923.1645482146291
 21
708.38380481013837
 31
0.0
  0
LINE
  5
1329
  8
TITLE
 10
2911.0877133946001
 20
774.86335537197033
 30
0.0
 11
2933.3301230499319
 21
797.10576502716344
 31
0.0
  0
LINE
  5
132A
  8
TITLE
 10
2912.833410847536
 20
774.86335537197033
 30
0.0
 11
2935.0758205028819
 21
797.10576502716344
 31
0.0
  0
LINE
  5
132B
  8
TITLE
 10
2914.5791083004792
 20
774.86335537197033
 30
0.0
 11
2935.098630023891
 21
795.38287709531551
 31
0.0
  0
LINE
  5
132C
  8
TITLE
 10
2916.324805753422
 20
774.86335537197033
 30
0.0
 11
2935.098630023891
 21
793.63717964243574
 31
0.0
  0
LINE
  5
132D
  8
TITLE
 10
2918.070503206372
 20
774.86335537197033
 30
0.0
 11
2935.098630023891
 21
791.89148218949344
 31
0.0
  0
LINE
  5
132E
  8
TITLE
 10
2919.816200659307
 20
774.86335537197033
 30
0.0
 11
2935.098630023891
 21
790.14578473655035
 31
0.0
  0
LINE
  5
132F
  8
TITLE
 10
2921.5618981122589
 20
774.86335537197033
 30
0.0
 11
2935.098630023891
 21
788.40008728360442
 31
0.0
  0
LINE
  5
1330
  8
TITLE
 10
2923.3075955652021
 20
774.86335537197033
 30
0.0
 11
2935.098630023891
 21
786.65438983066736
 31
0.0
  0
LINE
  5
1331
  8
TITLE
 10
2909.3420159417979
 20
774.86335537197033
 30
0.0
 11
2931.5844255969928
 21
797.10576502716344
 31
0.0
  0
LINE
  5
1332
  8
TITLE
 10
2904.1049235829701
 20
774.86335537197033
 30
0.0
 11
2926.3473332381618
 21
797.10576502716344
 31
0.0
  0
LINE
  5
1333
  8
TITLE
 10
2905.8506210359178
 20
774.86335537197033
 30
0.0
 11
2928.0930306911032
 21
797.10576502716344
 31
0.0
  0
LINE
  5
1334
  8
TITLE
 10
2907.596318488861
 20
774.86335537197033
 30
0.0
 11
2929.8387281440432
 21
797.10576502716344
 31
0.0
  0
LINE
  5
1335
  8
TITLE
 10
2911.06821540391
 20
685.81328728176368
 30
0.0
 11
2933.6387329322861
 21
708.38380481013837
 31
0.0
  0
LINE
  5
1336
  8
TITLE
 10
2912.813912856855
 20
685.81328728176368
 30
0.0
 11
2935.3844303852302
 21
708.38380481013837
 31
0.0
  0
LINE
  5
1337
  8
TITLE
 10
2914.5596103097978
 20
685.81328728176368
 30
0.0
 11
2937.130127838177
 21
708.38380481013837
 31
0.0
  0
LINE
  5
1338
  8
TITLE
 10
2916.305307762741
 20
685.81328728176368
 30
0.0
 11
2938.8758252911161
 21
708.38380481013837
 31
0.0
  0
LINE
  5
1339
  8
TITLE
 10
2918.051005215536
 20
685.81328728176368
 30
0.0
 11
2940.6215227439138
 21
708.38380481013837
 31
0.0
  0
LINE
  5
133A
  8
TITLE
 10
2919.7967026684801
 20
685.81328728176368
 30
0.0
 11
2942.3672201968561
 21
708.38380481013837
 31
0.0
  0
LINE
  5
133B
  8
TITLE
 10
2921.5424001214251
 20
685.81328728176368
 30
0.0
 11
2944.1129176497998
 21
708.38380481013837
 31
0.0
  0
LINE
  5
133C
  8
TITLE
 10
2923.288097574366
 20
685.81328728176368
 30
0.0
 11
2944.164023282372
 21
706.68921298969735
 31
0.0
  0
LINE
  5
133D
  8
TITLE
 10
2902.3397281391958
 20
685.81328728176368
 30
0.0
 11
2924.9102456675751
 21
708.38380481013837
 31
0.0
  0
LINE
  5
133E
  8
TITLE
 10
2904.0854255921381
 20
685.81328728176368
 30
0.0
 11
2926.6559431205128
 21
708.38380481013837
 31
0.0
  0
LINE
  5
133F
  8
TITLE
 10
2905.8311230450859
 20
685.81328728176368
 30
0.0
 11
2928.401640573456
 21
708.38380481013837
 31
0.0
  0
LINE
  5
1340
  8
TITLE
 10
2907.5768204980232
 20
685.81328728176368
 30
0.0
 11
2930.1473380264019
 21
708.38380481013837
 31
0.0
  0
LINE
  5
1341
  8
TITLE
 10
2909.3225179509718
 20
685.81328728176368
 30
0.0
 11
2931.8930354793451
 21
708.38380481013837
 31
0.0
  0
LINE
  5
1343
  8
TITLE
 10
3019.301457485522
 20
685.81328728176368
 30
0.0
 11
3060.9967917879462
 21
727.50862158425525
 31
0.0
  0
LINE
  5
1344
  8
TITLE
 10
3021.0471549384579
 20
685.81328728176368
 30
0.0
 11
3061.32040665767
 21
726.08653900104423
 31
0.0
  0
LINE
  5
1345
  8
TITLE
 10
3022.7928523914038
 20
685.81328728176368
 30
0.0
 11
3061.6440215274001
 21
724.66445641783434
 31
0.0
  0
LINE
  5
1346
  8
TITLE
 10
3024.5385498443488
 20
685.81328728176368
 30
0.0
 11
3061.967636397128
 21
723.24237383461559
 31
0.0
  0
LINE
  5
1347
  8
TITLE
 10
3026.2842472972939
 20
685.81328728176368
 30
0.0
 11
3062.291251266859
 21
721.82029125139275
 31
0.0
  0
LINE
  5
1348
  8
TITLE
 10
3028.0299447500979
 20
685.81328728176368
 30
0.0
 11
3062.614866136581
 21
720.39820866818843
 31
0.0
  0
LINE
  5
1349
  8
TITLE
 10
3039.9689855364891
 20
711.71790769149482
 30
0.0
 11
3060.0259471789041
 21
731.77486933390367
 31
0.0
  0
LINE
  5
134A
  8
TITLE
 10
3040.292600406071
 20
710.29582510827504
 30
0.0
 11
3060.349562048496
 21
730.3527867506848
 31
0.0
  0
LINE
  5
134B
  8
TITLE
 10
3040.6162152758038
 20
708.87374252505595
 30
0.0
 11
3060.673176918217
 21
728.93070416748049
 31
0.0
  0
LINE
  5
134C
  8
TITLE
 10
3038.3509111878589
 20
718.82832060756425
 30
0.0
 11
3058.4078728302688
 21
738.88528224997958
 31
0.0
  0
LINE
  5
134D
  8
TITLE
 10
3038.6745260575799
 20
717.40623802435061
 30
0.0
 11
3058.7314876999981
 21
737.46319966676344
 31
0.0
  0
LINE
  5
134E
  8
TITLE
 10
3038.9981409273109
 20
715.98415544113993
 30
0.0
 11
3059.05510256973
 21
736.04111708354969
 31
0.0
  0
LINE
  5
134F
  8
TITLE
 10
3039.3217557970329
 20
714.56207285792379
 30
0.0
 11
3059.3787174394561
 21
734.61903450033913
 31
0.0
  0
LINE
  5
1350
  8
TITLE
 10
3039.6453706667648
 20
713.13999027470459
 30
0.0
 11
3059.7023323091798
 21
733.19695191712276
 31
0.0
  0
LINE
  5
1351
  8
TITLE
 10
3029.7756422030352
 20
685.81328728176368
 30
0.0
 11
3062.9384810063129
 21
718.97612608489385
 31
0.0
  0
LINE
  5
1352
  8
TITLE
 10
3031.5213396559811
 20
685.81328728176368
 30
0.0
 11
3063.2620958758962
 21
717.55404350167726
 31
0.0
  0
LINE
  5
1353
  8
TITLE
 10
3033.2670371089189
 20
685.81328728176368
 30
0.0
 11
3063.5857107456241
 21
716.13196091846419
 31
0.0
  0
LINE
  5
1354
  8
TITLE
 10
3035.012734561863
 20
685.81328728176368
 30
0.0
 11
3063.9093256153542
 21
714.70987833524509
 31
0.0
  0
LINE
  5
1355
  8
TITLE
 10
3036.7584320148098
 20
685.81328728176368
 30
0.0
 11
3064.2329404850798
 21
713.28779575203725
 31
0.0
  0
LINE
  5
1356
  8
TITLE
 10
3038.5041294677521
 20
685.81328728176368
 30
0.0
 11
3064.556555354809
 21
711.86571316881805
 31
0.0
  0
LINE
  5
1357
  8
TITLE
 10
3040.249826920694
 20
685.81328728176368
 30
0.0
 11
3064.8801702245401
 21
710.44363058560464
 31
0.0
  0
LINE
  5
1358
  8
TITLE
 10
3041.9955243736399
 20
685.81328728176368
 30
0.0
 11
3065.2037850942588
 21
709.02154800238804
 31
0.0
  0
LINE
  5
1359
  8
TITLE
 10
3043.7412218265808
 20
685.81328728176368
 30
0.0
 11
3065.527399963994
 21
707.59946541917861
 31
0.0
  0
LINE
  5
135A
  8
TITLE
 10
3045.4869192793808
 20
685.81328728176368
 30
0.0
 11
3065.8510148335749
 21
706.177382835956
 31
0.0
  0
LINE
  5
135B
  8
TITLE
 10
3047.2326167323199
 20
685.81328728176368
 30
0.0
 11
3066.1746297033028
 21
704.75530025274577
 31
0.0
  0
LINE
  5
135C
  8
TITLE
 10
3048.9783141852649
 20
685.81328728176368
 30
0.0
 11
3066.4982445730361
 21
703.33321766952974
 31
0.0
  0
LINE
  5
135D
  8
TITLE
 10
3050.724011638209
 20
685.81328728176368
 30
0.0
 11
3066.8218594427649
 21
701.91113508630997
 31
0.0
  0
LINE
  5
135E
  8
TITLE
 10
3034.467532751265
 20
735.89331160622567
 30
0.0
 11
3052.9083845475529
 21
754.33416340251301
 31
0.0
  0
LINE
  5
135F
  8
TITLE
 10
3034.7911476209879
 20
734.47122902300907
 30
0.0
 11
3054.6540820004948
 21
754.33416340251301
 31
0.0
  0
LINE
  5
1360
  8
TITLE
 10
3035.1147624907148
 20
733.04914643979055
 30
0.0
 11
3055.171724133138
 21
753.10610808220861
 31
0.0
  0
LINE
  5
1361
  8
TITLE
 10
3035.4383773604559
 20
731.62706385658055
 30
0.0
 11
3055.49533900286
 21
751.68402549898974
 31
0.0
  0
LINE
  5
1362
  8
TITLE
 10
3035.7619922301719
 20
730.20498127335782
 30
0.0
 11
3055.8189538725901
 21
750.2619429157761
 31
0.0
  0
LINE
  5
1363
  8
TITLE
 10
3036.0856070999012
 20
728.78289869014134
 30
0.0
 11
3056.1425687423148
 21
748.83986033255724
 31
0.0
  0
LINE
  5
1364
  8
TITLE
 10
3036.4092219696299
 20
727.36081610693714
 30
0.0
 11
3056.4661836120449
 21
747.41777774934621
 31
0.0
  0
LINE
  5
1365
  8
TITLE
 10
3036.732836839356
 20
725.93873352371793
 30
0.0
 11
3056.7897984817719
 21
745.99569516612996
 31
0.0
  0
LINE
  5
1366
  8
TITLE
 10
3037.0564517090852
 20
724.51665094049918
 30
0.0
 11
3057.1134133514952
 21
744.57361258291735
 31
0.0
  0
LINE
  5
1367
  8
TITLE
 10
3037.3800665786721
 20
723.0945683572827
 30
0.0
 11
3057.4370282210789
 21
743.15152999969735
 31
0.0
  0
LINE
  5
1368
  8
TITLE
 10
3037.7036814483999
 20
721.67248577406929
 30
0.0
 11
3057.7606430908099
 21
741.72944741641743
 31
0.0
  0
LINE
  5
1369
  8
TITLE
 10
3038.027296318126
 20
720.25040319085315
 30
0.0
 11
3058.0842579605392
 21
740.30736483319879
 31
0.0
  0
LINE
  5
136A
  8
TITLE
 10
2983.8911288541708
 20
779.58457016726629
 30
0.0
 11
3001.4123237141398
 21
797.10576502716344
 31
0.0
  0
LINE
  5
136B
  8
TITLE
 10
2982.9735624325949
 20
776.92130629282701
 30
0.0
 11
3003.1580211670821
 21
797.10576502716344
 31
0.0
  0
LINE
  5
136C
  8
TITLE
 10
2982.0559960110249
 20
774.25804241831452
 30
0.0
 11
3004.9037186200239
 21
797.10576502716344
 31
0.0
  0
LINE
  5
136D
  8
TITLE
 10
2981.1384295896019
 20
771.59477854378963
 30
0.0
 11
3006.649416072969
 21
797.10576502716344
 31
0.0
  0
LINE
  5
136E
  8
TITLE
 10
2986.6438281188898
 20
787.57436179074307
 30
0.0
 11
2996.175231355307
 21
797.10576502716344
 31
0.0
  0
LINE
  5
136F
  8
TITLE
 10
2985.7262616973148
 20
784.91109791622546
 30
0.0
 11
2997.9209288082561
 21
797.10576502716344
 31
0.0
  0
LINE
  5
1370
  8
TITLE
 10
2984.808695275743
 20
782.24783404178208
 30
0.0
 11
2999.6666262611971
 21
797.10576502716344
 31
0.0
  0
LINE
  5
1371
  8
TITLE
 10
2988.4789609620389
 20
792.90088953977511
 30
0.0
 11
2992.6838364494261
 21
797.10576502716344
 31
0.0
  0
LINE
  5
1372
  8
TITLE
 10
2987.5613945404621
 20
790.23762566526443
 30
0.0
 11
2994.4295339023688
 21
797.10576502716344
 31
0.0
  0
LINE
  5
1373
  8
TITLE
 10
2989.3965273836111
 20
795.56415341428988
 30
0.0
 11
2990.938138996481
 21
797.10576502716344
 31
0.0
  0
LINE
  5
1374
  8
TITLE
 10
2977.4681639033051
 20
760.94172304580309
 30
0.0
 11
3013.6322058845981
 21
797.10576502716344
 31
0.0
  0
LINE
  5
1375
  8
TITLE
 10
2976.550597481732
 20
758.27845917135483
 30
0.0
 11
3015.323261541876
 21
797.05112323156595
 31
0.0
  0
LINE
  5
1376
  8
TITLE
 10
2975.6330310601611
 20
755.6151952968396
 30
0.0
 11
3014.4056951204429
 21
794.38785935705266
 31
0.0
  0
LINE
  5
1377
  8
TITLE
 10
2980.2208631680251
 20
768.93151466927463
 30
0.0
 11
3008.3951135257721
 21
797.10576502716344
 31
0.0
  0
LINE
  5
1378
  8
TITLE
 10
2979.3032967464528
 20
766.26825079476475
 30
0.0
 11
3010.1408109787139
 21
797.10576502716344
 31
0.0
  0
LINE
  5
1379
  8
TITLE
 10
2978.385730324881
 20
763.60498692031933
 30
0.0
 11
3011.8865084316549
 21
797.10576502716344
 31
0.0
  0
LINE
  5
137A
  8
TITLE
 10
3007.0815753150641
 20
685.81328728176368
 30
0.0
 11
3029.2774405592741
 21
708.00915252611526
 31
0.0
  0
LINE
  5
137B
  8
TITLE
 10
3008.8272727678632
 20
685.81328728176368
 30
0.0
 11
3031.02313801222
 21
708.00915252611526
 31
0.0
  0
LINE
  5
137C
  8
TITLE
 10
3010.5729702208032
 20
685.81328728176368
 30
0.0
 11
3032.7688354651559
 21
708.00915252611526
 31
0.0
  0
LINE
  5
137D
  8
TITLE
 10
3012.3186676737491
 20
685.81328728176368
 30
0.0
 11
3034.5145329181059
 21
708.00915252611526
 31
0.0
  0
LINE
  5
137E
  8
TITLE
 10
3014.0643651266919
 20
685.81328728176368
 30
0.0
 11
3036.2602303710491
 21
708.00915252611526
 31
0.0
  0
LINE
  5
137F
  8
TITLE
 10
3015.8100625796328
 20
685.81328728176368
 30
0.0
 11
3038.0059278239919
 21
708.00915252611526
 31
0.0
  0
LINE
  5
1380
  8
TITLE
 10
3017.555760032581
 20
685.81328728176368
 30
0.0
 11
3039.751625276936
 21
708.00915252611526
 31
0.0
  0
LINE
  5
1381
  8
TITLE
 10
3033.4966881422229
 20
740.15955935586874
 30
0.0
 11
3047.6712921888702
 21
754.33416340251301
 31
0.0
  0
LINE
  5
1382
  8
TITLE
 10
3033.820303011953
 20
738.73747677264987
 30
0.0
 11
3049.4169896416638
 21
754.33416340251301
 31
0.0
  0
LINE
  5
1383
  8
TITLE
 10
3034.143917881675
 20
737.31539418943635
 30
0.0
 11
3051.1626870946088
 21
754.33416340251301
 31
0.0
  0
LINE
  5
1384
  8
TITLE
 10
3032.5258435330352
 20
744.42580710551726
 30
0.0
 11
3042.4341998300388
 21
754.33416340251301
 31
0.0
  0
LINE
  5
1385
  8
TITLE
 10
3032.849458402763
 20
743.00372452229885
 30
0.0
 11
3044.1798972829838
 21
754.33416340251301
 31
0.0
  0
LINE
  5
1386
  8
TITLE
 10
3033.1730732724959
 20
741.58164193907623
 30
0.0
 11
3045.9255947359202
 21
754.33416340251301
 31
0.0
  0
LINE
  5
1387
  8
TITLE
 10
3031.2313840542729
 20
750.11413743837375
 30
0.0
 11
3035.4514100182628
 21
754.33416340251301
 31
0.0
  0
LINE
  5
1388
  8
TITLE
 10
3031.5549989238571
 20
748.69205485516648
 30
0.0
 11
3037.197107471211
 21
754.33416340251301
 31
0.0
  0
LINE
  5
1389
  8
TITLE
 10
3031.8786137935858
 20
747.26997227194465
 30
0.0
 11
3038.9428049241519
 21
754.33416340251301
 31
0.0
  0
LINE
  5
138A
  8
TITLE
 10
3032.2022286633141
 20
745.84788968872863
 30
0.0
 11
3040.6885023770928
 21
754.33416340251301
 31
0.0
  0
LINE
  5
138B
  8
TITLE
 10
3030.5841543148199
 20
752.9583026048125
 30
0.0
 11
3031.9600151123782
 21
754.33416340251301
 31
0.0
  0
LINE
  5
138C
  8
TITLE
 10
3030.9077691845409
 20
751.53622002158716
 30
0.0
 11
3033.7057125653209
 21
754.33416340251301
 31
0.0
  0
LINE
  5
138D
  8
TITLE
 10
2970.4219288035461
 20
685.81328728176368
 30
0.0
 11
2992.6177940477628
 21
708.00915252611526
 31
0.0
  0
LINE
  5
138E
  8
TITLE
 10
2972.167626256346
 20
685.81328728176368
 30
0.0
 11
2994.363491500701
 21
708.00915252611526
 31
0.0
  0
LINE
  5
138F
  8
TITLE
 10
2973.9133237092942
 20
685.81328728176368
 30
0.0
 11
2996.109188953646
 21
708.00915252611526
 31
0.0
  0
LINE
  5
1390
  8
TITLE
 10
2975.6590211622329
 20
685.81328728176368
 30
0.0
 11
2997.854886406586
 21
708.00915252611526
 31
0.0
  0
LINE
  5
1391
  8
TITLE
 10
2977.4047186151738
 20
685.81328728176368
 30
0.0
 11
2999.6005838595329
 21
708.00915252611526
 31
0.0
  0
LINE
  5
1392
  8
TITLE
 10
2979.1504160681138
 20
685.81328728176368
 30
0.0
 11
3001.346281312472
 21
708.00915252611526
 31
0.0
  0
LINE
  5
1393
  8
TITLE
 10
2980.8961135210629
 20
685.81328728176368
 30
0.0
 11
3003.0919787654152
 21
708.00915252611526
 31
0.0
  0
LINE
  5
1394
  8
TITLE
 10
2982.6418109740021
 20
685.81328728176368
 30
0.0
 11
3004.8376762183648
 21
708.00915252611526
 31
0.0
  0
LINE
  5
1395
  8
TITLE
 10
2984.387508426953
 20
685.81328728176368
 30
0.0
 11
3006.5833736711579
 21
708.00915252611526
 31
0.0
  0
LINE
  5
1396
  8
TITLE
 10
2986.1332058798898
 20
685.81328728176368
 30
0.0
 11
3008.3290711241038
 21
708.00915252611526
 31
0.0
  0
LINE
  5
1397
  8
TITLE
 10
3003.5901804091818
 20
685.81328728176368
 30
0.0
 11
3025.7860456533858
 21
708.00915252611526
 31
0.0
  0
LINE
  5
1398
  8
TITLE
 10
3005.3358778621168
 20
685.81328728176368
 30
0.0
 11
3027.5317431063331
 21
708.00915252611526
 31
0.0
  0
LINE
  5
1399
  8
TITLE
 10
2987.8789033328312
 20
685.81328728176368
 30
0.0
 11
3010.074768577043
 21
708.00915252611526
 31
0.0
  0
LINE
  5
139A
  8
TITLE
 10
2989.6246007857758
 20
685.81328728176368
 30
0.0
 11
3011.820466029993
 21
708.00915252611526
 31
0.0
  0
LINE
  5
139B
  8
TITLE
 10
2991.3702982385798
 20
685.81328728176368
 30
0.0
 11
3013.5661634829289
 21
708.00915252611526
 31
0.0
  0
LINE
  5
139C
  8
TITLE
 10
2993.1159956915189
 20
685.81328728176368
 30
0.0
 11
3015.3118609358721
 21
708.00915252611526
 31
0.0
  0
LINE
  5
139D
  8
TITLE
 10
2994.8616931444558
 20
685.81328728176368
 30
0.0
 11
3017.0575583888221
 21
708.00915252611526
 31
0.0
  0
LINE
  5
139E
  8
TITLE
 10
2996.6073905974031
 20
685.81328728176368
 30
0.0
 11
3018.803255841759
 21
708.00915252611526
 31
0.0
  0
LINE
  5
139F
  8
TITLE
 10
2998.3530880503449
 20
685.81328728176368
 30
0.0
 11
3020.5489532947022
 21
708.00915252611526
 31
0.0
  0
LINE
  5
13A0
  8
TITLE
 10
3000.0987855032931
 20
685.81328728176368
 30
0.0
 11
3022.294650747654
 21
708.00915252611526
 31
0.0
  0
LINE
  5
13A1
  8
TITLE
 10
3001.8444829562318
 20
685.81328728176368
 30
0.0
 11
3024.0403482004431
 21
708.00915252611526
 31
0.0
  0
LINE
  5
13A2
  8
TITLE
 10
2974.7154646385829
 20
752.95193142232915
 30
0.0
 11
3013.4881286988689
 21
791.72459548260406
 31
0.0
  0
LINE
  5
13A3
  8
TITLE
 10
2973.7978982170121
 20
750.28866754780233
 30
0.0
 11
3012.5705622773012
 21
789.06133160809463
 31
0.0
  0
LINE
  5
13A4
  8
TITLE
 10
2972.8803317954339
 20
747.62540367329825
 30
0.0
 11
3011.6529958557212
 21
786.39806773357566
 31
0.0
  0
LINE
  5
13A5
  8
TITLE
 10
2971.9627653738739
 20
744.96213979885226
 30
0.0
 11
3010.7354294341508
 21
783.73480385906089
 31
0.0
  0
LINE
  5
13A6
  8
TITLE
 10
2971.045198952293
 20
742.29887592440093
 30
0.0
 11
3009.8178630125808
 21
781.0715399845426
 31
0.0
  0
LINE
  5
13A7
  8
TITLE
 10
2970.1276325307258
 20
739.63561204988889
 30
0.0
 11
3008.9002965910031
 21
778.40827611010582
 31
0.0
  0
LINE
  5
13A8
  8
TITLE
 10
3089.6334103186969
 20
780.58500445599873
 30
0.0
 11
3106.1541708898658
 21
797.10576502716344
 31
0.0
  0
LINE
  5
13A9
  8
TITLE
 10
3091.3791077716401
 20
780.58500445599873
 30
0.0
 11
3107.8998683428099
 21
797.10576502716344
 31
0.0
  0
LINE
  5
13AA
  8
TITLE
 10
3093.1248052245792
 20
780.58500445599873
 30
0.0
 11
3109.6455657957522
 21
797.10576502716344
 31
0.0
  0
LINE
  5
13AB
  8
TITLE
 10
3094.8705026775228
 20
780.58500445599873
 30
0.0
 11
3111.3912632486922
 21
797.10576502716344
 31
0.0
  0
LINE
  5
13AC
  8
TITLE
 10
3096.6162001304701
 20
780.58500445599873
 30
0.0
 11
3113.1369607016418
 21
797.10576502716344
 31
0.0
  0
LINE
  5
13AD
  8
TITLE
 10
3098.3618975834088
 20
780.58500445599873
 30
0.0
 11
3114.8826581545768
 21
797.10576502716344
 31
0.0
  0
LINE
  5
13AE
  8
TITLE
 10
3100.1075950363538
 20
780.58500445599873
 30
0.0
 11
3116.62835560752
 21
797.10576502716344
 31
0.0
  0
LINE
  5
13AF
  8
TITLE
 10
3101.8532924892979
 20
780.58500445599873
 30
0.0
 11
3118.37405306032
 21
797.10576502716344
 31
0.0
  0
LINE
  5
13B0
  8
TITLE
 10
3103.5989899420979
 20
780.58500445599873
 30
0.0
 11
3120.1197505132659
 21
797.10576502716344
 31
0.0
  0
LINE
  5
13B1
  8
TITLE
 10
3105.344687395042
 20
780.58500445599873
 30
0.0
 11
3121.8654479662132
 21
797.10576502716344
 31
0.0
  0
LINE
  5
13B2
  8
TITLE
 10
3107.0903848479852
 20
780.58500445599873
 30
0.0
 11
3123.6111454191519
 21
797.10576502716344
 31
0.0
  0
LINE
  5
13B3
  8
TITLE
 10
3108.8360823009289
 20
780.58500445599873
 30
0.0
 11
3125.3568428720969
 21
797.10576502716344
 31
0.0
  0
LINE
  5
13B4
  8
TITLE
 10
3110.5817797538698
 20
780.58500445599873
 30
0.0
 11
3127.1025403250351
 21
797.10576502716344
 31
0.0
  0
LINE
  5
13B5
  8
TITLE
 10
3112.3274772068189
 20
780.58500445599873
 30
0.0
 11
3128.8482377779842
 21
797.10576502716344
 31
0.0
  0
LINE
  5
13B6
  8
TITLE
 10
3114.0731746597589
 20
780.58500445599873
 30
0.0
 11
3130.5939352309251
 21
797.10576502716344
 31
0.0
  0
LINE
  5
13B7
  8
TITLE
 10
3115.8188721127021
 20
780.58500445599873
 30
0.0
 11
3132.3396326838701
 21
797.10576502716344
 31
0.0
  0
LINE
  5
13B8
  8
TITLE
 10
3089.1293556026699
 20
685.81328728176368
 30
0.0
 11
3106.1779968699279
 21
702.8619285490953
 31
0.0
  0
LINE
  5
13B9
  8
TITLE
 10
3090.8750530556149
 20
685.81328728176368
 30
0.0
 11
3107.9236943228689
 21
702.8619285490953
 31
0.0
  0
LINE
  5
13BA
  8
TITLE
 10
3092.6207505085608
 20
685.81328728176368
 30
0.0
 11
3109.6693917758171
 21
702.8619285490953
 31
0.0
  0
LINE
  5
13BB
  8
TITLE
 10
3094.3664479615022
 20
685.81328728176368
 30
0.0
 11
3111.4150892287598
 21
702.8619285490953
 31
0.0
  0
LINE
  5
13BC
  8
TITLE
 10
3096.1121454144409
 20
685.81328728176368
 30
0.0
 11
3113.1607866816948
 21
702.8619285490953
 31
0.0
  0
LINE
  5
13BD
  8
TITLE
 10
3097.857842867385
 20
685.81328728176368
 30
0.0
 11
3114.9064841346399
 21
702.8619285490953
 31
0.0
  0
LINE
  5
13BE
  8
TITLE
 10
3099.603540320179
 20
685.81328728176368
 30
0.0
 11
3116.6521815875949
 21
702.8619285490953
 31
0.0
  0
LINE
  5
13BF
  8
TITLE
 10
3101.3492377731291
 20
685.81328728176368
 30
0.0
 11
3118.3978790405299
 21
702.8619285490953
 31
0.0
  0
LINE
  5
13C0
  8
TITLE
 10
3103.094935226075
 20
685.81328728176368
 30
0.0
 11
3120.143576493474
 21
702.8619285490953
 31
0.0
  0
LINE
  5
13C1
  8
TITLE
 10
3104.8406326790182
 20
685.81328728176368
 30
0.0
 11
3121.88927394642
 21
702.8619285490953
 31
0.0
  0
LINE
  5
13C2
  8
TITLE
 10
3106.5863301319559
 20
685.81328728176368
 30
0.0
 11
3123.6349713992149
 21
702.8619285490953
 31
0.0
  0
LINE
  5
13C3
  8
TITLE
 10
3084.0766447691481
 20
792.48521343573555
 30
0.0
 11
3088.6971963605738
 21
797.10576502716344
 31
0.0
  0
LINE
  5
13C4
  8
TITLE
 10
3084.0766447691481
 20
795.97660834155204
 30
0.0
 11
3085.2058014546901
 21
797.10576502716344
 31
0.0
  0
LINE
  5
13C5
  8
TITLE
 10
3084.0766447691481
 20
794.23091088861486
 30
0.0
 11
3086.9514989076329
 21
797.10576502716344
 31
0.0
  0
LINE
  5
13C6
  8
TITLE
 10
3080.5215885893731
 20
696.40819225068878
 30
0.0
 11
3086.975324887695
 21
702.8619285490953
 31
0.0
  0
LINE
  5
13C7
  8
TITLE
 10
3080.5215885893731
 20
694.6624947977491
 30
0.0
 11
3088.721022340636
 21
702.8619285490953
 31
0.0
  0
LINE
  5
13C8
  8
TITLE
 10
3080.5215885893731
 20
698.15388970363472
 30
0.0
 11
3085.2296274347532
 21
702.8619285490953
 31
0.0
  0
LINE
  5
13C9
  8
TITLE
 10
3052.4697090911559
 20
685.81328728176368
 30
0.0
 11
3067.1454743124859
 21
700.48905250309735
 31
0.0
  0
LINE
  5
13CA
  8
TITLE
 10
3054.2154065440982
 20
685.81328728176368
 30
0.0
 11
3067.469089182222
 21
699.06696991988099
 31
0.0
  0
LINE
  5
13CB
  8
TITLE
 10
3055.96110399704
 20
685.81328728176368
 30
0.0
 11
3067.7927040519421
 21
697.64488733666735
 31
0.0
  0
LINE
  5
13CC
  8
TITLE
 10
3057.706801449981
 20
685.81328728176368
 30
0.0
 11
3068.1163189216709
 21
696.22280475345656
 31
0.0
  0
LINE
  5
13CD
  8
TITLE
 10
3059.4524989029251
 20
685.81328728176368
 30
0.0
 11
3068.439933791396
 21
694.80072217023769
 31
0.0
  0
LINE
  5
13CE
  8
TITLE
 10
3061.1981963558701
 20
685.81328728176368
 30
0.0
 11
3068.763548660992
 21
693.37863958701882
 31
0.0
  0
LINE
  5
13CF
  8
TITLE
 10
3062.9438938086701
 20
685.81328728176368
 30
0.0
 11
3069.0871635307121
 21
691.95655700380235
 31
0.0
  0
LINE
  5
13D0
  8
TITLE
 10
3064.6895912616151
 20
685.81328728176368
 30
0.0
 11
3069.410778400445
 21
690.53447442058894
 31
0.0
  0
LINE
  5
13D1
  8
TITLE
 10
3066.4352887145542
 20
685.81328728176368
 30
0.0
 11
3069.7343932701692
 21
689.11239183737825
 31
0.0
  0
LINE
  5
13D2
  8
TITLE
 10
3068.1809861674951
 20
685.81328728176368
 30
0.0
 11
3070.058008139893
 21
687.69030925416155
 31
0.0
  0
LINE
  5
13D3
  8
TITLE
 10
3069.9266836204401
 20
685.81328728176368
 30
0.0
 11
3070.3816230096172
 21
686.26822667094291
 31
0.0
  0
LINE
  5
13D4
  8
TITLE
 10
3080.5215885893731
 20
701.64528460945655
 30
0.0
 11
3081.7382325290168
 21
702.8619285490953
 31
0.0
  0
LINE
  5
13D5
  8
TITLE
 10
3080.5215885893731
 20
699.89958715657792
 30
0.0
 11
3083.483929981956
 21
702.8619285490953
 31
0.0
  0
LINE
  5
13D6
  8
TITLE
 10
3082.1465657908948
 20
685.81328728176368
 30
0.0
 11
3099.1952070583011
 21
702.8619285490953
 31
0.0
  0
LINE
  5
13D7
  8
TITLE
 10
3083.8922632438412
 20
685.81328728176368
 30
0.0
 11
3100.9409045112402
 21
702.8619285490953
 31
0.0
  0
LINE
  5
13D8
  8
TITLE
 10
3085.6379606967789
 20
685.81328728176368
 30
0.0
 11
3102.686601964183
 21
702.8619285490953
 31
0.0
  0
LINE
  5
13D9
  8
TITLE
 10
3087.3836581497289
 20
685.81328728176368
 30
0.0
 11
3104.4322994169852
 21
702.8619285490953
 31
0.0
  0
LINE
  5
13DA
  8
TITLE
 10
3080.5215885893731
 20
685.93400753310505
 30
0.0
 11
3097.4495096053579
 21
702.8619285490953
 31
0.0
  0
LINE
  5
13DB
  8
TITLE
 10
3080.5215885893731
 20
692.91679734480329
 30
0.0
 11
3090.4667197935851
 21
702.8619285490953
 31
0.0
  0
LINE
  5
13DC
  8
TITLE
 10
3080.5215885893731
 20
691.1710998918611
 30
0.0
 11
3092.2124172465251
 21
702.8619285490953
 31
0.0
  0
LINE
  5
13DD
  8
TITLE
 10
3080.5215885893731
 20
689.42540243891779
 30
0.0
 11
3093.9581146994701
 21
702.8619285490953
 31
0.0
  0
LINE
  5
13DE
  8
TITLE
 10
3080.5215885893731
 20
687.67970498598368
 30
0.0
 11
3095.7038121524151
 21
702.8619285490953
 31
0.0
  0
LINE
  5
13DF
  8
TITLE
 10
3084.0766447691481
 20
783.75672617102146
 30
0.0
 11
3097.425683625298
 21
797.10576502716344
 31
0.0
  0
LINE
  5
13E0
  8
TITLE
 10
3084.0766447691481
 20
782.01102871807632
 30
0.0
 11
3099.171381078093
 21
797.10576502716344
 31
0.0
  0
LINE
  5
13E1
  8
TITLE
 10
3084.3963179600082
 20
780.58500445599873
 30
0.0
 11
3100.9170785310362
 21
797.10576502716344
 31
0.0
  0
LINE
  5
13E2
  8
TITLE
 10
3086.1420154128132
 20
780.58500445599873
 30
0.0
 11
3102.6627759839739
 21
797.10576502716344
 31
0.0
  0
LINE
  5
13E3
  8
TITLE
 10
3087.887712865755
 20
780.58500445599873
 30
0.0
 11
3104.4084734369221
 21
797.10576502716344
 31
0.0
  0
LINE
  5
13E4
  8
TITLE
 10
3084.0766447691481
 20
790.73951598279837
 30
0.0
 11
3090.4428938135152
 21
797.10576502716344
 31
0.0
  0
LINE
  5
13E5
  8
TITLE
 10
3084.0766447691481
 20
788.99381852985005
 30
0.0
 11
3092.1885912664588
 21
797.10576502716344
 31
0.0
  0
LINE
  5
13E6
  8
TITLE
 10
3084.0766447691481
 20
787.24812107690786
 30
0.0
 11
3093.9342887194039
 21
797.10576502716344
 31
0.0
  0
LINE
  5
13E7
  8
TITLE
 10
3084.0766447691481
 20
785.50242362396455
 30
0.0
 11
3095.6799861723521
 21
797.10576502716344
 31
0.0
  0
LINE
  5
13E9
  8
TITLE
 10
3292.0378012589381
 20
775.25139849766595
 30
0.0
 11
3305.0807049346349
 21
788.29430217329377
 31
0.0
  0
LINE
  5
13EA
  8
TITLE
 10
3293.7834987118799
 20
775.25139849766595
 30
0.0
 11
3306.8264023875809
 21
788.29430217329377
 31
0.0
  0
LINE
  5
13EB
  8
TITLE
 10
3295.52919616482
 20
775.25139849766595
 30
0.0
 11
3308.5720998403799
 21
788.29430217329377
 31
0.0
  0
LINE
  5
13EC
  8
TITLE
 10
3297.2748936177618
 20
775.25139849766595
 30
0.0
 11
3310.317797293319
 21
788.29430217329377
 31
0.0
  0
LINE
  5
13ED
  8
TITLE
 10
3266.975495804918
 20
755.42618540239368
 30
0.0
 11
3299.8436125758099
 21
788.29430217329377
 31
0.0
  0
LINE
  5
13EE
  8
TITLE
 10
3268.7211932578539
 20
755.42618540239368
 30
0.0
 11
3301.589310028749
 21
788.29430217329377
 31
0.0
  0
LINE
  5
13EF
  8
TITLE
 10
3270.4668907108021
 20
755.42618540239368
 30
0.0
 11
3303.335007481694
 21
788.29430217329377
 31
0.0
  0
LINE
  5
13F0
  8
TITLE
 10
3273.843115161174
 20
769.27659457042535
 30
0.0
 11
3301.6722856179172
 21
797.10576502716344
 31
0.0
  0
LINE
  5
13F1
  8
TITLE
 10
3273.4059912783409
 20
767.09377323450485
 30
0.0
 11
3303.2766814272218
 21
796.96446338353348
 31
0.0
  0
LINE
  5
13F2
  8
TITLE
 10
3274.7173629271128
 20
773.64223724211695
 30
0.0
 11
3298.180890712174
 21
797.10576502716344
 31
0.0
  0
LINE
  5
13F3
  8
TITLE
 10
3274.2802390441361
 20
771.45941590626364
 30
0.0
 11
3299.926588164969
 21
797.10576502716344
 31
0.0
  0
LINE
  5
13F4
  8
TITLE
 10
3287.9238652400859
 20
755.42618540239368
 30
0.0
 11
3299.4016209663118
 21
766.90394112862509
 31
0.0
  0
LINE
  5
13F5
  8
TITLE
 10
3289.6695626928899
 20
755.42618540239368
 30
0.0
 11
3301.1473184191118
 21
766.90394112862509
 31
0.0
  0
LINE
  5
13F6
  8
TITLE
 10
3291.4152601458318
 20
755.42618540239368
 30
0.0
 11
3302.893015872055
 21
766.90394112862509
 31
0.0
  0
LINE
  5
13F7
  8
TITLE
 10
3293.1609575987709
 20
755.42618540239368
 30
0.0
 11
3304.638713325
 21
766.90394112862509
 31
0.0
  0
LINE
  5
13F8
  8
TITLE
 10
3294.906655051715
 20
755.42618540239368
 30
0.0
 11
3306.3844107779391
 21
766.90394112862509
 31
0.0
  0
LINE
  5
13F9
  8
TITLE
 10
3296.652352504655
 20
755.42618540239368
 30
0.0
 11
3308.1301082308801
 21
766.90394112862509
 31
0.0
  0
LINE
  5
13FA
  8
TITLE
 10
3288.4244804668128
 20
715.77575921171638
 30
0.0
 11
3298.3370857852578
 21
725.68836453022993
 31
0.0
  0
LINE
  5
13FB
  8
TITLE
 10
3290.1701779197579
 20
715.77575921171638
 30
0.0
 11
3300.082783238191
 21
725.68836453022993
 31
0.0
  0
LINE
  5
13FC
  8
TITLE
 10
3291.915875372697
 20
715.77575921171638
 30
0.0
 11
3301.8284806911379
 21
725.68836453022993
 31
0.0
  0
LINE
  5
13FD
  8
TITLE
 10
3293.6615728256402
 20
715.77575921171638
 30
0.0
 11
3303.5741781440838
 21
725.68836453022993
 31
0.0
  0
LINE
  5
13FE
  8
TITLE
 10
3295.4072702785861
 20
715.77575921171638
 30
0.0
 11
3305.3198755970202
 21
725.68836453022993
 31
0.0
  0
LINE
  5
13FF
  8
TITLE
 10
3297.1529677313788
 20
715.77575921171638
 30
0.0
 11
3307.065573049973
 21
725.68836453022993
 31
0.0
  0
LINE
  5
1400
  8
TITLE
 10
3288.2318729634021
 20
691.14338736732691
 30
0.0
 11
3298.8442937897962
 21
701.75580819378411
 31
0.0
  0
LINE
  5
1401
  8
TITLE
 10
3289.4111944391111
 20
690.57701139015887
 30
0.0
 11
3300.0600758689211
 21
701.22589281988382
 31
0.0
  0
LINE
  5
1402
  8
TITLE
 10
3290.6158909446181
 20
690.03601044271807
 30
0.0
 11
3301.3360187798112
 21
700.75613827791608
 31
0.0
  0
LINE
  5
1403
  8
TITLE
 10
3291.8467198365738
 20
689.52114188166206
 30
0.0
 11
3302.6772739039529
 21
700.35169594910485
 31
0.0
  0
LINE
  5
1404
  8
TITLE
 10
3293.1045323193798
 20
689.03325691167925
 30
0.0
 11
3304.0905980513048
 21
700.01932264352615
 31
0.0
  0
LINE
  5
1405
  8
TITLE
 10
3294.39028556105
 20
688.57331270032262
 30
0.0
 11
3305.5850059699992
 21
699.76803310927721
 31
0.0
  0
LINE
  5
1406
  8
TITLE
 10
3295.70505724347
 20
688.14238692979643
 30
0.0
 11
3307.1728408406102
 21
699.61017052694285
 31
0.0
  0
LINE
  5
1407
  8
TITLE
 10
3297.0500631462619
 20
687.74169537964906
 30
0.0
 11
3308.87164145207
 21
699.56327368545521
 31
0.0
  0
LINE
  5
1408
  8
TITLE
 10
3288.5253064161998
 20
735.07925714333874
 30
0.0
 11
3298.9596293566801
 21
745.51358008388263
 31
0.0
  0
LINE
  5
1409
  8
TITLE
 10
3290.271003869143
 20
735.07925714333874
 30
0.0
 11
3300.7053268096201
 21
745.51358008388263
 31
0.0
  0
LINE
  5
140A
  8
TITLE
 10
3292.0167013220939
 20
735.07925714333874
 30
0.0
 11
3302.4510242625652
 21
745.51358008388263
 31
0.0
  0
LINE
  5
140B
  8
TITLE
 10
3293.7623987750349
 20
735.07925714333874
 30
0.0
 11
3304.1967217155029
 21
745.51358008388263
 31
0.0
  0
LINE
  5
140C
  8
TITLE
 10
3295.5080962279771
 20
735.07925714333874
 30
0.0
 11
3305.9424191684529
 21
745.51358008388263
 31
0.0
  0
LINE
  5
140D
  8
TITLE
 10
3297.2537936807771
 20
735.07925714333874
 30
0.0
 11
3307.6881166213889
 21
745.51358008388263
 31
0.0
  0
LINE
  5
140E
  8
TITLE
 10
3243.1371726399698
 20
735.07925714333874
 30
0.0
 11
3301.7211867032488
 21
793.66327120654501
 31
0.0
  0
LINE
  5
140F
  8
TITLE
 10
3244.8828700929148
 20
735.07925714333874
 30
0.0
 11
3300.165691979139
 21
790.36207902956835
 31
0.0
  0
LINE
  5
1410
  8
TITLE
 10
3203.00723115956
 20
775.25139849766595
 30
0.0
 11
3224.7625409677498
 21
797.00670830585705
 31
0.0
  0
LINE
  5
1411
  8
TITLE
 10
3204.7529286124968
 20
775.25139849766595
 30
0.0
 11
3225.321651166415
 21
795.82012105151091
 31
0.0
  0
LINE
  5
1412
  8
TITLE
 10
3206.4986260654432
 20
775.25139849766595
 30
0.0
 11
3225.8807613649428
 21
794.63353379723594
 31
0.0
  0
LINE
  5
1413
  8
TITLE
 10
3208.244323518386
 20
775.25139849766595
 30
0.0
 11
3226.4398715636089
 21
793.44694654288855
 31
0.0
  0
LINE
  5
1414
  8
TITLE
 10
3209.9900209713292
 20
775.25139849766595
 30
0.0
 11
3226.9989817621399
 21
792.26035928854014
 31
0.0
  0
LINE
  5
1415
  8
TITLE
 10
3211.735718424125
 20
775.25139849766595
 30
0.0
 11
3227.5580919608092
 21
791.07377203426779
 31
0.0
  0
LINE
  5
1416
  8
TITLE
 10
3213.4814158770751
 20
775.25139849766595
 30
0.0
 11
3228.1172021594748
 21
789.88718478000135
 31
0.0
  0
LINE
  5
1417
  8
TITLE
 10
3215.2271133300178
 20
775.25139849766595
 30
0.0
 11
3228.6763123580022
 21
788.70059752557813
 31
0.0
  0
LINE
  5
1418
  8
TITLE
 10
3214.6045722170488
 20
755.42618540239368
 30
0.0
 11
3249.720134476056
 21
790.54174766139238
 31
0.0
  0
LINE
  5
1419
  8
TITLE
 10
3205.8760849523351
 20
755.42618540239368
 30
0.0
 11
3217.3538406785701
 21
766.90394112862509
 31
0.0
  0
LINE
  5
141A
  8
TITLE
 10
3207.6217824052792
 20
755.42618540239368
 30
0.0
 11
3219.0995381315051
 21
766.90394112862509
 31
0.0
  0
LINE
  5
141B
  8
TITLE
 10
3209.3674798582219
 20
755.42618540239368
 30
0.0
 11
3220.8452355844529
 21
766.90394112862509
 31
0.0
  0
LINE
  5
141C
  8
TITLE
 10
3211.1131773111651
 20
755.42618540239368
 30
0.0
 11
3222.5909330373952
 21
766.90394112862509
 31
0.0
  0
LINE
  5
141D
  8
TITLE
 10
3212.8588747641111
 20
755.42618540239368
 30
0.0
 11
3224.3366304903338
 21
766.90394112862509
 31
0.0
  0
LINE
  5
141E
  8
TITLE
 10
3212.32299756258
 20
793.29565216533422
 30
0.0
 11
3216.1331104244209
 21
797.10576502716344
 31
0.0
  0
LINE
  5
141F
  8
TITLE
 10
3212.882107761106
 20
792.10906491091691
 30
0.0
 11
3217.8788078773591
 21
797.10576502716344
 31
0.0
  0
LINE
  5
1420
  8
TITLE
 10
3213.4412179597762
 20
790.92247765663785
 30
0.0
 11
3219.6245053303019
 21
797.10576502716344
 31
0.0
  0
LINE
  5
1421
  8
TITLE
 10
3214.0003281583022
 20
789.7358904023605
 30
0.0
 11
3221.3702027832442
 21
797.10576502716344
 31
0.0
  0
LINE
  5
1422
  8
TITLE
 10
3214.5594383569728
 20
788.54930314794217
 30
0.0
 11
3223.115900236191
 21
797.10576502716344
 31
0.0
  0
LINE
  5
1423
  8
TITLE
 10
3202.599686901056
 20
685.81328413985693
 30
0.0
 11
3242.4747672915009
 21
725.68836453022993
 31
0.0
  0
LINE
  5
1424
  8
TITLE
 10
3204.357694152513
 20
685.82559393821634
 30
0.0
 11
3244.2204647444451
 21
725.68836453022993
 31
0.0
  0
LINE
  5
1425
  8
TITLE
 10
3206.1898082360399
 20
685.91201056880288
 30
0.0
 11
3245.9661621973892
 21
725.68836453022993
 31
0.0
  0
LINE
  5
1426
  8
TITLE
 10
3208.0953248260748
 20
686.07182970597148
 30
0.0
 11
3247.711859650336
 21
725.68836453022993
 31
0.0
  0
LINE
  5
1427
  8
TITLE
 10
3206.3767001790602
 20
715.77575921171638
 30
0.0
 11
3216.2893054976439
 21
725.68836453022993
 31
0.0
  0
LINE
  5
1428
  8
TITLE
 10
3208.1223976320048
 20
715.77575921171638
 30
0.0
 11
3218.0350029505889
 21
725.68836453022993
 31
0.0
  0
LINE
  5
1429
  8
TITLE
 10
3209.8680950849489
 20
715.77575921171638
 30
0.0
 11
3219.7807004033889
 21
725.68836453022993
 31
0.0
  0
LINE
  5
142A
  8
TITLE
 10
3211.6137925378939
 20
715.77575921171638
 30
0.0
 11
3221.5263978563371
 21
725.68836453022993
 31
0.0
  0
LINE
  5
142B
  8
TITLE
 10
3213.3594899908321
 20
715.77575921171638
 30
0.0
 11
3223.2720953092762
 21
725.68836453022993
 31
0.0
  0
LINE
  5
142C
  8
TITLE
 10
3215.105187443779
 20
715.77575921171638
 30
0.0
 11
3225.017792762219
 21
725.68836453022993
 31
0.0
  0
LINE
  5
142D
  8
TITLE
 10
3200.8539918291171
 20
685.81328652086097
 30
0.0
 11
3219.8329811186381
 21
704.79227581022781
 31
0.0
  0
LINE
  5
142E
  8
TITLE
 10
3206.4775261284558
 20
735.07925714333874
 30
0.0
 11
3216.9118490690698
 21
745.51358008388263
 31
0.0
  0
LINE
  5
142F
  8
TITLE
 10
3208.2232235813949
 20
735.07925714333874
 30
0.0
 11
3218.657546522013
 21
745.51358008388263
 31
0.0
  0
LINE
  5
1430
  8
TITLE
 10
3209.9689210343422
 20
735.07925714333874
 30
0.0
 11
3220.403243974813
 21
745.51358008388263
 31
0.0
  0
LINE
  5
1431
  8
TITLE
 10
3211.714618487279
 20
735.07925714333874
 30
0.0
 11
3222.1489414277489
 21
745.51358008388263
 31
0.0
  0
LINE
  5
1432
  8
TITLE
 10
3213.4603159402232
 20
735.07925714333874
 30
0.0
 11
3223.8946388807021
 21
745.51358008388263
 31
0.0
  0
LINE
  5
1433
  8
TITLE
 10
3215.206013393165
 20
735.07925714333874
 30
0.0
 11
3225.6403363336422
 21
745.51358008388263
 31
0.0
  0
LINE
  5
1434
  8
TITLE
 10
3210.0846907452392
 20
686.31549817219297
 30
0.0
 11
3269.2827726569321
 21
745.51358008388263
 31
0.0
  0
LINE
  5
1435
  8
TITLE
 10
3212.1715696544952
 20
686.65667962856924
 30
0.0
 11
3271.0284701098722
 21
745.51358008388263
 31
0.0
  0
LINE
  5
1436
  8
TITLE
 10
3214.3744325825419
 20
687.11384510367702
 30
0.0
 11
3272.7741675628181
 21
745.51358008388263
 31
0.0
  0
LINE
  5
1437
  8
TITLE
 10
3200.296075890933
 20
779.52303304074803
 30
0.0
 11
3209.0673450234899
 21
788.29430217329377
 31
0.0
  0
LINE
  5
1438
  8
TITLE
 10
3200.296075890933
 20
777.77733558780187
 30
0.0
 11
3210.8130424764208
 21
788.29430217329377
 31
0.0
  0
LINE
  5
1439
  8
TITLE
 10
3200.296075890933
 20
776.0316381348531
 30
0.0
 11
3212.558739929375
 21
788.29430217329377
 31
0.0
  0
LINE
  5
143A
  8
TITLE
 10
3201.2615337066131
 20
775.25139849766595
 30
0.0
 11
3214.3044373823141
 21
788.29430217329377
 31
0.0
  0
LINE
  5
143B
  8
TITLE
 10
3203.8511320707148
 20
760.38402233240822
 30
0.0
 11
3210.3710508667932
 21
766.90394112862509
 31
0.0
  0
LINE
  5
143C
  8
TITLE
 10
3203.8511320707148
 20
758.63832487946286
 30
0.0
 11
3212.116748319736
 21
766.90394112862509
 31
0.0
  0
LINE
  5
143D
  8
TITLE
 10
3203.8511320707148
 20
756.89262742652522
 30
0.0
 11
3213.8624457726792
 21
766.90394112862509
 31
0.0
  0
LINE
  5
143E
  8
TITLE
 10
3204.1303874993901
 20
755.42618540239368
 30
0.0
 11
3215.6081432256201
 21
766.90394112862509
 31
0.0
  0
LINE
  5
143F
  8
TITLE
 10
3203.8511320707148
 20
762.12971978535097
 30
0.0
 11
3208.625353413845
 21
766.90394112862509
 31
0.0
  0
LINE
  5
1440
  8
TITLE
 10
3203.8511320707148
 20
765.62111469123704
 30
0.0
 11
3205.133958508105
 21
766.90394112862509
 31
0.0
  0
LINE
  5
1441
  8
TITLE
 10
3203.8511320707148
 20
763.87541723829054
 30
0.0
 11
3206.87965596105
 21
766.90394112862509
 31
0.0
  0
LINE
  5
1442
  8
TITLE
 10
3171.6811906064531
 20
780.58500445599873
 30
0.0
 11
3186.1222904123001
 21
795.02610426184901
 31
0.0
  0
LINE
  5
1443
  8
TITLE
 10
3173.4268880593941
 20
780.58500445599873
 30
0.0
 11
3186.1222904123001
 21
793.28040680890285
 31
0.0
  0
LINE
  5
1444
  8
TITLE
 10
3175.1725855123382
 20
780.58500445599873
 30
0.0
 11
3186.1222904123001
 21
791.53470935603298
 31
0.0
  0
LINE
  5
1445
  8
TITLE
 10
3176.9182829651299
 20
780.58500445599873
 30
0.0
 11
3186.1222904123001
 21
789.78901190308466
 31
0.0
  0
LINE
  5
1446
  8
TITLE
 10
3178.6639804180759
 20
780.58500445599873
 30
0.0
 11
3186.1222904123001
 21
788.04331445014145
 31
0.0
  0
LINE
  5
1447
  8
TITLE
 10
3180.40967787102
 20
780.58500445599873
 30
0.0
 11
3186.1222904123001
 21
786.29761699727453
 31
0.0
  0
LINE
  5
1448
  8
TITLE
 10
3182.1553753239618
 20
780.58500445599873
 30
0.0
 11
3186.1222904123001
 21
784.55191954433781
 31
0.0
  0
LINE
  5
1449
  8
TITLE
 10
3200.296075890933
 20
781.26873049368453
 30
0.0
 11
3207.321647570539
 21
788.29430217329377
 31
0.0
  0
LINE
  5
144A
  8
TITLE
 10
3183.901072776905
 20
780.58500445599873
 30
0.0
 11
3186.1222904123001
 21
782.8062220913921
 31
0.0
  0
LINE
  5
144B
  8
TITLE
 10
3185.6467702298519
 20
780.58500445599873
 30
0.0
 11
3186.1222904123001
 21
781.06052463845504
 31
0.0
  0
LINE
  5
144C
  8
TITLE
 10
3200.296075890933
 20
788.25152030538914
 30
0.0
 11
3200.3388577587698
 21
788.29430217329377
 31
0.0
  0
LINE
  5
144D
  8
TITLE
 10
3200.296075890933
 20
786.50582285244343
 30
0.0
 11
3202.0845552117139
 21
788.29430217329377
 31
0.0
  0
LINE
  5
144E
  8
TITLE
 10
3200.296075890933
 20
784.76012539949807
 30
0.0
 11
3203.8302526646548
 21
788.29430217329377
 31
0.0
  0
LINE
  5
144F
  8
TITLE
 10
3200.296075890933
 20
783.0144279466308
 30
0.0
 11
3205.575950117598
 21
788.29430217329377
 31
0.0
  0
LINE
  5
1450
  8
TITLE
 10
3210.6456669667159
 20
796.85541392822415
 30
0.0
 11
3210.8960180655922
 21
797.10576502716344
 31
0.0
  0
LINE
  5
1451
  8
TITLE
 10
3211.2047771653852
 20
795.66882667387597
 30
0.0
 11
3212.6417155185341
 21
797.10576502716344
 31
0.0
  0
LINE
  5
1452
  8
TITLE
 10
3211.763887363908
 20
794.48223941960362
 30
0.0
 11
3214.3874129714732
 21
797.10576502716344
 31
0.0
  0
LINE
  5
1453
  8
TITLE
 10
3145.4957288124501
 20
780.58500445599873
 30
0.0
 11
3162.0164893836122
 21
797.10576502716344
 31
0.0
  0
LINE
  5
1454
  8
TITLE
 10
3147.2414262653911
 20
780.58500445599873
 30
0.0
 11
3163.7621868365591
 21
797.10576502716344
 31
0.0
  0
LINE
  5
1455
  8
TITLE
 10
3148.9871237183302
 20
780.58500445599873
 30
0.0
 11
3165.5078842895
 21
797.10576502716344
 31
0.0
  0
LINE
  5
1456
  8
TITLE
 10
3150.7328211712729
 20
780.58500445599873
 30
0.0
 11
3167.25358174244
 21
797.10576502716344
 31
0.0
  0
LINE
  5
1457
  8
TITLE
 10
3152.478518624217
 20
780.58500445599873
 30
0.0
 11
3168.999279195386
 21
797.10576502716344
 31
0.0
  0
LINE
  5
1458
  8
TITLE
 10
3154.2242160771589
 20
780.58500445599873
 30
0.0
 11
3170.7449766483328
 21
797.10576502716344
 31
0.0
  0
LINE
  5
1459
  8
TITLE
 10
3168.189795700564
 20
780.58500445599873
 30
0.0
 11
3184.7105562717329
 21
797.10576502716344
 31
0.0
  0
LINE
  5
145A
  8
TITLE
 10
3169.9354931535049
 20
780.58500445599873
 30
0.0
 11
3186.1222904123001
 21
796.77180171479472
 31
0.0
  0
LINE
  5
145B
  8
TITLE
 10
3155.9699135300989
 20
780.58500445599873
 30
0.0
 11
3172.49067410113
 21
797.10576502716344
 31
0.0
  0
LINE
  5
145C
  8
TITLE
 10
3157.7156109829102
 20
780.58500445599873
 30
0.0
 11
3174.236371554071
 21
797.10576502716344
 31
0.0
  0
LINE
  5
145D
  8
TITLE
 10
3159.4613084358389
 20
780.58500445599873
 30
0.0
 11
3175.9820690070142
 21
797.10576502716344
 31
0.0
  0
LINE
  5
145E
  8
TITLE
 10
3161.2070058887889
 20
780.58500445599873
 30
0.0
 11
3177.7277664599551
 21
797.10576502716344
 31
0.0
  0
LINE
  5
145F
  8
TITLE
 10
3162.9527033417298
 20
780.58500445599873
 30
0.0
 11
3179.4734639129001
 21
797.10576502716344
 31
0.0
  0
LINE
  5
1460
  8
TITLE
 10
3164.6984007946749
 20
780.58500445599873
 30
0.0
 11
3181.219161365841
 21
797.10576502716344
 31
0.0
  0
LINE
  5
1461
  8
TITLE
 10
3166.4440982476171
 20
780.58500445599873
 30
0.0
 11
3182.9648588187852
 21
797.10576502716344
 31
0.0
  0
LINE
  5
1462
  8
TITLE
 10
3200.296075890933
 20
718.42362218816208
 30
0.0
 11
3207.5608182329311
 21
725.68836453022993
 31
0.0
  0
LINE
  5
1463
  8
TITLE
 10
3200.296075890933
 20
716.67792473522445
 30
0.0
 11
3209.3065156858688
 21
725.68836453022993
 31
0.0
  0
LINE
  5
1464
  8
TITLE
 10
3201.1396078203802
 20
715.77575921171638
 30
0.0
 11
3211.0522131388138
 21
725.68836453022993
 31
0.0
  0
LINE
  5
1465
  8
TITLE
 10
3202.8853052733211
 20
715.77575921171638
 30
0.0
 11
3212.7979105917598
 21
725.68836453022993
 31
0.0
  0
LINE
  5
1466
  8
TITLE
 10
3204.6310027262662
 20
715.77575921171638
 30
0.0
 11
3214.5436080446998
 21
725.68836453022993
 31
0.0
  0
LINE
  5
1467
  8
TITLE
 10
3200.296075890933
 20
690.49246294136196
 30
0.0
 11
3209.8337974185779
 21
700.03018446900876
 31
0.0
  0
LINE
  5
1468
  8
TITLE
 10
3200.296075890933
 20
688.74676548841614
 30
0.0
 11
3212.1942391419402
 21
700.64492873942459
 31
0.0
  0
LINE
  5
1469
  8
TITLE
 10
3200.296075890933
 20
687.00106803547908
 30
0.0
 11
3215.0723776929499
 21
701.77736983749514
 31
0.0
  0
LINE
  5
146A
  8
TITLE
 10
3171.1771358904221
 20
685.81328728176368
 30
0.0
 11
3188.2257771576751
 21
702.8619285490953
 31
0.0
  0
LINE
  5
146B
  8
TITLE
 10
3172.922833343222
 20
685.81328728176368
 30
0.0
 11
3189.6773465920819
 21
702.56780053055024
 31
0.0
  0
LINE
  5
146C
  8
TITLE
 10
3174.6685307961652
 20
685.81328728176368
 30
0.0
 11
3189.6773465920819
 21
700.8221030776042
 31
0.0
  0
LINE
  5
146D
  8
TITLE
 10
3176.4142282491048
 20
685.81328728176368
 30
0.0
 11
3189.6773465920819
 21
699.07640562466725
 31
0.0
  0
LINE
  5
146E
  8
TITLE
 10
3200.296075890933
 20
695.72955530012314
 30
0.0
 11
3204.1531818672729
 21
699.58666127653316
 31
0.0
  0
LINE
  5
146F
  8
TITLE
 10
3200.296075890933
 20
693.98385784717732
 30
0.0
 11
3205.8842691552791
 21
699.57205111158885
 31
0.0
  0
LINE
  5
1470
  8
TITLE
 10
3200.296075890933
 20
692.23816039430415
 30
0.0
 11
3207.7615060825201
 21
699.70359058588883
 31
0.0
  0
LINE
  5
1471
  8
TITLE
 10
3200.296075890933
 20
697.47525275306032
 30
0.0
 11
3202.4233803168459
 21
699.60255717897462
 31
0.0
  0
LINE
  5
1472
  8
TITLE
 10
3178.1599257020521
 20
685.81328728176368
 30
0.0
 11
3189.6773465920819
 21
697.33070817179407
 31
0.0
  0
LINE
  5
1473
  8
TITLE
 10
3179.905623154998
 20
685.81328728176368
 30
0.0
 11
3189.6773465920819
 21
695.58501071884939
 31
0.0
  0
LINE
  5
1474
  8
TITLE
 10
3181.6513206079348
 20
685.81328728176368
 30
0.0
 11
3189.6773465920819
 21
693.83931326590607
 31
0.0
  0
LINE
  5
1475
  8
TITLE
 10
3183.3970180608799
 20
685.81328728176368
 30
0.0
 11
3189.6773465920819
 21
692.09361581296275
 31
0.0
  0
LINE
  5
1476
  8
TITLE
 10
3185.1427155138199
 20
685.81328728176368
 30
0.0
 11
3189.6773465920819
 21
690.34791836002307
 31
0.0
  0
LINE
  5
1477
  8
TITLE
 10
3186.8884129667622
 20
685.81328728176368
 30
0.0
 11
3189.6773465920819
 21
688.60222090707703
 31
0.0
  0
LINE
  5
1478
  8
TITLE
 10
3188.6341104197172
 20
685.81328728176368
 30
0.0
 11
3189.6773465920819
 21
686.85652345414314
 31
0.0
  0
LINE
  5
1479
  8
TITLE
 10
3200.296075890933
 20
699.22095020593611
 30
0.0
 11
3200.6776828639022
 21
699.60255717897462
 31
0.0
  0
LINE
  5
147A
  8
TITLE
 10
3203.8511320707148
 20
741.18135035017656
 30
0.0
 11
3208.1833618043488
 21
745.51358008388263
 31
0.0
  0
LINE
  5
147B
  8
TITLE
 10
3203.8511320707148
 20
739.43565289723688
 30
0.0
 11
3209.9290592572952
 21
745.51358008388263
 31
0.0
  0
LINE
  5
147C
  8
TITLE
 10
3203.8511320707148
 20
737.68995544429345
 30
0.0
 11
3211.6747567102452
 21
745.51358008388263
 31
0.0
  0
LINE
  5
147D
  8
TITLE
 10
3203.8511320707148
 20
735.94425799141516
 30
0.0
 11
3213.4204541631789
 21
745.51358008388263
 31
0.0
  0
LINE
  5
147E
  8
TITLE
 10
3204.731828675513
 20
735.07925714333874
 30
0.0
 11
3215.1661516161239
 21
745.51358008388263
 31
0.0
  0
LINE
  5
147F
  8
TITLE
 10
3200.296075890933
 20
723.66071454699363
 30
0.0
 11
3202.3237258740992
 21
725.68836453022993
 31
0.0
  0
LINE
  5
1480
  8
TITLE
 10
3200.296075890933
 20
721.91501709405327
 30
0.0
 11
3204.0694233270369
 21
725.68836453022993
 31
0.0
  0
LINE
  5
1481
  8
TITLE
 10
3200.296075890933
 20
720.16931964110427
 30
0.0
 11
3205.8151207799842
 21
725.68836453022993
 31
0.0
  0
LINE
  5
1482
  8
TITLE
 10
3200.296075890933
 20
725.40641199993604
 30
0.0
 11
3200.5780284212979
 21
725.68836453022993
 31
0.0
  0
LINE
  5
1483
  8
TITLE
 10
3203.8511320707148
 20
744.6727452560566
 30
0.0
 11
3204.6919668984701
 21
745.51358008388263
 31
0.0
  0
LINE
  5
1484
  8
TITLE
 10
3203.8511320707148
 20
742.92704780311715
 30
0.0
 11
3206.4376643514129
 21
745.51358008388263
 31
0.0
  0
LINE
  5
1485
  8
TITLE
 10
3134.5174893788999
 20
685.81328728176368
 30
0.0
 11
3151.5661306461602
 21
702.8619285490953
 31
0.0
  0
LINE
  5
1486
  8
TITLE
 10
3136.2631868317021
 20
685.81328728176368
 30
0.0
 11
3153.3118280991098
 21
702.8619285490953
 31
0.0
  0
LINE
  5
1487
  8
TITLE
 10
3138.008884284643
 20
685.81328728176368
 30
0.0
 11
3155.0575255520448
 21
702.8619285490953
 31
0.0
  0
LINE
  5
1488
  8
TITLE
 10
3139.7545817375931
 20
685.81328728176368
 30
0.0
 11
3156.803223004993
 21
702.8619285490953
 31
0.0
  0
LINE
  5
1489
  8
TITLE
 10
3141.5002791905322
 20
685.81328728176368
 30
0.0
 11
3158.5489204577948
 21
702.8619285490953
 31
0.0
  0
LINE
  5
148A
  8
TITLE
 10
3143.2459766434772
 20
685.81328728176368
 30
0.0
 11
3160.2946179107339
 21
702.8619285490953
 31
0.0
  0
LINE
  5
148B
  8
TITLE
 10
3144.991674096419
 20
685.81328728176368
 30
0.0
 11
3162.0403153636739
 21
702.8619285490953
 31
0.0
  0
LINE
  5
148C
  8
TITLE
 10
3146.7373715493591
 20
685.81328728176368
 30
0.0
 11
3163.7860128166149
 21
702.8619285490953
 31
0.0
  0
LINE
  5
148D
  8
TITLE
 10
3148.483069002305
 20
685.81328728176368
 30
0.0
 11
3165.5317102695649
 21
702.8619285490953
 31
0.0
  0
LINE
  5
148E
  8
TITLE
 10
3150.228766455255
 20
685.81328728176368
 30
0.0
 11
3167.277407722504
 21
702.8619285490953
 31
0.0
  0
LINE
  5
148F
  8
TITLE
 10
3151.9744639081928
 20
685.81328728176368
 30
0.0
 11
3169.0231051754558
 21
702.8619285490953
 31
0.0
  0
LINE
  5
1490
  8
TITLE
 10
3153.7201613609941
 20
685.81328728176368
 30
0.0
 11
3170.7688026283931
 21
702.8619285490953
 31
0.0
  0
LINE
  5
1491
  8
TITLE
 10
3167.6857409845352
 20
685.81328728176368
 30
0.0
 11
3184.7343822518001
 21
702.8619285490953
 31
0.0
  0
LINE
  5
1492
  8
TITLE
 10
3169.4314384374779
 20
685.81328728176368
 30
0.0
 11
3186.4800797047378
 21
702.8619285490953
 31
0.0
  0
LINE
  5
1493
  8
TITLE
 10
3155.465858813935
 20
685.81328728176368
 30
0.0
 11
3172.5145000813382
 21
702.8619285490953
 31
0.0
  0
LINE
  5
1494
  8
TITLE
 10
3157.2115562668778
 20
685.81328728176368
 30
0.0
 11
3174.260197534275
 21
702.8619285490953
 31
0.0
  0
LINE
  5
1495
  8
TITLE
 10
3158.9572537198192
 20
685.81328728176368
 30
0.0
 11
3176.0058949872159
 21
702.8619285490953
 31
0.0
  0
LINE
  5
1496
  8
TITLE
 10
3160.7029511727592
 20
685.81328728176368
 30
0.0
 11
3177.7515924400182
 21
702.8619285490953
 31
0.0
  0
LINE
  5
1497
  8
TITLE
 10
3162.4486486257051
 20
685.81328728176368
 30
0.0
 11
3179.49728989296
 21
702.8619285490953
 31
0.0
  0
LINE
  5
1498
  8
TITLE
 10
3164.1943460786501
 20
685.81328728176368
 30
0.0
 11
3181.2429873459041
 21
702.8619285490953
 31
0.0
  0
LINE
  5
1499
  8
TITLE
 10
3165.940043531592
 20
685.81328728176368
 30
0.0
 11
3182.988684798845
 21
702.8619285490953
 31
0.0
  0
LINE
  5
149A
  8
TITLE
 10
3253.6324572944768
 20
775.25139849766595
 30
0.0
 11
3275.4868238240501
 21
797.10576502716344
 31
0.0
  0
LINE
  5
149B
  8
TITLE
 10
3255.37815474742
 20
775.25139849766595
 30
0.0
 11
3277.2325212769952
 21
797.10576502716344
 31
0.0
  0
LINE
  5
149C
  8
TITLE
 10
3257.1238522003591
 20
775.25139849766595
 30
0.0
 11
3277.55076425688
 21
795.67831055411125
 31
0.0
  0
LINE
  5
149D
  8
TITLE
 10
3258.8695496533019
 20
775.25139849766595
 30
0.0
 11
3277.55076425688
 21
793.93261310117146
 31
0.0
  0
LINE
  5
149E
  8
TITLE
 10
3260.615247106246
 20
775.25139849766595
 30
0.0
 11
3277.55076425688
 21
792.18691564822825
 31
0.0
  0
LINE
  5
149F
  8
TITLE
 10
3274.5808267296502
 20
775.25139849766595
 30
0.0
 11
3296.4351932592249
 21
797.10576502716344
 31
0.0
  0
LINE
  5
14A0
  8
TITLE
 10
3262.3609445591928
 20
775.25139849766595
 30
0.0
 11
3277.55076425688
 21
790.44121819527697
 31
0.0
  0
LINE
  5
14A1
  8
TITLE
 10
3264.1066420121379
 20
775.25139849766595
 30
0.0
 11
3277.55076425688
 21
788.69552074241005
 31
0.0
  0
LINE
  5
14A2
  8
TITLE
 10
3265.8523394649328
 20
775.25139849766595
 30
0.0
 11
3278.8952431406351
 21
788.29430217329377
 31
0.0
  0
LINE
  5
14A3
  8
TITLE
 10
3267.5980369178801
 20
775.25139849766595
 30
0.0
 11
3280.6409405935801
 21
788.29430217329377
 31
0.0
  0
LINE
  5
14A4
  8
TITLE
 10
3269.3437343708179
 20
775.25139849766595
 30
0.0
 11
3282.3866380465179
 21
788.29430217329377
 31
0.0
  0
LINE
  5
14A5
  8
TITLE
 10
3271.0894318237588
 20
775.25139849766595
 30
0.0
 11
3284.1323354994602
 21
788.29430217329377
 31
0.0
  0
LINE
  5
14A6
  8
TITLE
 10
3272.8351292767052
 20
775.25139849766595
 30
0.0
 11
3294.6894958062799
 21
797.10576502716344
 31
0.0
  0
LINE
  5
14A7
  8
TITLE
 10
3272.212588163602
 20
755.42618540239368
 30
0.0
 11
3289.9873864884648
 21
773.20098372718564
 31
0.0
  0
LINE
  5
14A8
  8
TITLE
 10
3273.9582856165362
 20
755.42618540239368
 30
0.0
 11
3289.550262605489
 21
771.01816239134985
 31
0.0
  0
LINE
  5
14A9
  8
TITLE
 10
3275.7039830694848
 20
755.42618540239368
 30
0.0
 11
3289.1131387226592
 21
768.83534105542378
 31
0.0
  0
LINE
  5
14AA
  8
TITLE
 10
3277.4496805224298
 20
755.42618540239368
 30
0.0
 11
3288.9274362486599
 21
766.90394112862509
 31
0.0
  0
LINE
  5
14AB
  8
TITLE
 10
3279.1953779753708
 20
755.42618540239368
 30
0.0
 11
3290.673133701599
 21
766.90394112862509
 31
0.0
  0
LINE
  5
14AC
  8
TITLE
 10
3280.941075428314
 20
755.42618540239368
 30
0.0
 11
3292.4188311545458
 21
766.90394112862509
 31
0.0
  0
LINE
  5
14AD
  8
TITLE
 10
3282.686772881259
 20
755.42618540239368
 30
0.0
 11
3294.1645286074881
 21
766.90394112862509
 31
0.0
  0
LINE
  5
14AE
  8
TITLE
 10
3284.4324703341949
 20
755.42618540239368
 30
0.0
 11
3295.9102260604232
 21
766.90394112862509
 31
0.0
  0
LINE
  5
14AF
  8
TITLE
 10
3286.178167787145
 20
755.42618540239368
 30
0.0
 11
3297.6559235133732
 21
766.90394112862509
 31
0.0
  0
LINE
  5
14B0
  8
TITLE
 10
3287.3346925503261
 20
793.24235667709513
 30
0.0
 11
3291.198100900393
 21
797.10576502716344
 31
0.0
  0
LINE
  5
14B1
  8
TITLE
 10
3285.7791978262121
 20
789.94116450003662
 30
0.0
 11
3292.943798353338
 21
797.10576502716344
 31
0.0
  0
LINE
  5
14B2
  8
TITLE
 10
3264.1508307075351
 20
792.7525617224228
 30
0.0
 11
3268.50403401228
 21
797.10576502716344
 31
0.0
  0
LINE
  5
14B3
  8
TITLE
 10
3264.1508307075351
 20
791.00686426948266
 30
0.0
 11
3270.2497314652192
 21
797.10576502716344
 31
0.0
  0
LINE
  5
14B4
  8
TITLE
 10
3264.1508307075351
 20
789.261166816534
 30
0.0
 11
3271.9954289181692
 21
797.10576502716344
 31
0.0
  0
LINE
  5
14B5
  8
TITLE
 10
3264.1508307075351
 20
796.24395662823554
 30
0.0
 11
3265.0126391063941
 21
797.10576502716344
 31
0.0
  0
LINE
  5
14B6
  8
TITLE
 10
3264.1508307075351
 20
794.49825917529915
 30
0.0
 11
3266.758336559335
 21
797.10576502716344
 31
0.0
  0
LINE
  5
14B7
  8
TITLE
 10
3288.8901872742999
 20
796.54354885401347
 30
0.0
 11
3289.4524034474562
 21
797.10576502716344
 31
0.0
  0
LINE
  5
14B8
  8
TITLE
 10
3265.9935967101192
 20
712.54754743732735
 30
0.0
 11
3279.134413803024
 21
725.68836453022993
 31
0.0
  0
LINE
  5
14B9
  8
TITLE
 10
3266.6209435276378
 20
711.42919680196292
 30
0.0
 11
3280.8801112559622
 21
725.68836453022993
 31
0.0
  0
LINE
  5
14BA
  8
TITLE
 10
3267.2716148600539
 20
710.33417068144308
 30
0.0
 11
3282.6258087089091
 21
725.68836453022993
 31
0.0
  0
LINE
  5
14BB
  8
TITLE
 10
3267.9451719750682
 20
709.26203034337698
 30
0.0
 11
3284.3715061618491
 21
725.68836453022993
 31
0.0
  0
LINE
  5
14BC
  8
TITLE
 10
3268.6412306521902
 20
708.21239156769343
 30
0.0
 11
3286.1172036147968
 21
725.68836453022993
 31
0.0
  0
LINE
  5
14BD
  8
TITLE
 10
3269.3594572239931
 20
707.18492068648652
 30
0.0
 11
3287.8629010677359
 21
725.68836453022993
 31
0.0
  0
LINE
  5
14BE
  8
TITLE
 10
3270.0995652522852
 20
706.1793312619161
 30
0.0
 11
3289.6085985206792
 21
725.68836453022993
 31
0.0
  0
LINE
  5
14BF
  8
TITLE
 10
3270.8613127611538
 20
705.19538131775687
 30
0.0
 11
3291.3542959736219
 21
725.68836453022993
 31
0.0
  0
LINE
  5
14C0
  8
TITLE
 10
3271.644499958506
 20
704.23287106223893
 30
0.0
 11
3293.09999342642
 21
725.68836453022993
 31
0.0
  0
LINE
  5
14C1
  8
TITLE
 10
3272.4489673981589
 20
703.29164104909648
 30
0.0
 11
3294.8456908793651
 21
725.68836453022993
 31
0.0
  0
LINE
  5
14C2
  8
TITLE
 10
3286.6787830138701
 20
715.77575921171638
 30
0.0
 11
3296.5913883323092
 21
725.68836453022993
 31
0.0
  0
LINE
  5
14C3
  8
TITLE
 10
3279.6441601121751
 20
696.52125413955685
 30
0.0
 11
3290.9635853896839
 21
707.84067941707713
 31
0.0
  0
LINE
  5
14C4
  8
TITLE
 10
3280.6391942165601
 20
695.77059079100525
 30
0.0
 11
3291.7813918659249
 21
706.91278844030285
 31
0.0
  0
LINE
  5
14C5
  8
TITLE
 10
3281.6559866526159
 20
695.0416857741925
 30
0.0
 11
3292.6460693732538
 21
706.0317684947554
 31
0.0
  0
LINE
  5
14C6
  8
TITLE
 10
3282.6948019133029
 20
694.33480358200927
 30
0.0
 11
3293.5575472359392
 21
705.19754890450622
 31
0.0
  0
LINE
  5
14C7
  8
TITLE
 10
3283.7559503098059
 20
693.65025452549548
 30
0.0
 11
3294.5161608329199
 21
704.41046504860333
 31
0.0
  0
LINE
  5
14C8
  8
TITLE
 10
3284.839791014997
 20
692.98839777781495
 30
0.0
 11
3295.5226663528151
 21
703.67127311556055
 31
0.0
  0
LINE
  5
14C9
  8
TITLE
 10
3285.9467357024282
 20
692.34964501222771
 30
0.0
 11
3296.5782749369992
 21
702.98118424687482
 31
0.0
  0
LINE
  5
14CA
  8
TITLE
 10
3287.0772528699258
 20
691.73446472685691
 30
0.0
 11
3297.6847099199549
 21
702.34192177680995
 31
0.0
  0
LINE
  5
14CB
  8
TITLE
 10
3277.7185233481928
 20
698.08701228146424
 30
0.0
 11
3289.4709352109958
 21
709.83942414427702
 31
0.0
  0
LINE
  5
14CC
  8
TITLE
 10
3278.6706631424772
 20
697.29345462273727
 30
0.0
 11
3290.1931297649548
 21
708.81592124528333
 31
0.0
  0
LINE
  5
14CD
  8
TITLE
 10
3253.2249161780319
 20
685.81328728176368
 30
0.0
 11
3265.8231230411752
 21
698.41149414490826
 31
0.0
  0
LINE
  5
14CE
  8
TITLE
 10
3254.9706136309742
 20
685.81328728176368
 30
0.0
 11
3265.8231230411752
 21
696.66579669197426
 31
0.0
  0
LINE
  5
14CF
  8
TITLE
 10
3256.7163110839151
 20
685.81328728176368
 30
0.0
 11
3265.8231230411752
 21
694.92009923909563
 31
0.0
  0
LINE
  5
14D0
  8
TITLE
 10
3258.462008536856
 20
685.81328728176368
 30
0.0
 11
3265.8231230411752
 21
693.17440178615868
 31
0.0
  0
LINE
  5
14D1
  8
TITLE
 10
3260.2077059897988
 20
685.81328728176368
 30
0.0
 11
3265.8231230411752
 21
691.42870433320991
 31
0.0
  0
LINE
  5
14D2
  8
TITLE
 10
3261.9534034427452
 20
685.81328728176368
 30
0.0
 11
3265.8231230411752
 21
689.68300688033673
 31
0.0
  0
LINE
  5
14D3
  8
TITLE
 10
3263.6991008955461
 20
685.81328728176368
 30
0.0
 11
3265.8231230411752
 21
687.93730942739467
 31
0.0
  0
LINE
  5
14D4
  8
TITLE
 10
3265.4447983484852
 20
685.81328728176368
 30
0.0
 11
3265.8231230411752
 21
686.19161197445374
 31
0.0
  0
LINE
  5
14D5
  8
TITLE
 10
3273.2745945386391
 20
702.37157073655749
 30
0.0
 11
3286.6535513314302
 21
715.7505275292765
 31
0.0
  0
LINE
  5
14D6
  8
TITLE
 10
3274.1212986695582
 20
701.47257741453745
 30
0.0
 11
3287.1011386319219
 21
714.45241737697893
 31
0.0
  0
LINE
  5
14D7
  8
TITLE
 10
3274.9890341832179
 20
700.5946154752495
 30
0.0
 11
3287.6105342292499
 21
713.21611552135823
 31
0.0
  0
LINE
  5
14D8
  8
TITLE
 10
3275.8777921752389
 20
699.73767601439636
 30
0.0
 11
3288.1773972023848
 21
712.03728104154948
 31
0.0
  0
LINE
  5
14D9
  8
TITLE
 10
3276.7876003672518
 20
698.90178675332595
 30
0.0
 11
3288.7983840110001
 21
710.91257039722132
 31
0.0
  0
LINE
  5
14DA
  8
TITLE
 10
3274.5597267928019
 20
735.07925714333874
 30
0.0
 11
3284.9940497332732
 21
745.51358008388263
 31
0.0
  0
LINE
  5
14DB
  8
TITLE
 10
3276.3054242457451
 20
735.07925714333874
 30
0.0
 11
3286.7397471862232
 21
745.51358008388263
 31
0.0
  0
LINE
  5
14DC
  8
TITLE
 10
3278.0511216985419
 20
735.07925714333874
 30
0.0
 11
3288.4854446391591
 21
745.51358008388263
 31
0.0
  0
LINE
  5
14DD
  8
TITLE
 10
3279.796819151496
 20
735.07925714333874
 30
0.0
 11
3290.2311420921051
 21
745.51358008388263
 31
0.0
  0
LINE
  5
14DE
  8
TITLE
 10
3265.8312395280859
 20
735.07925714333874
 30
0.0
 11
3276.265562468559
 21
745.51358008388263
 31
0.0
  0
LINE
  5
14DF
  8
TITLE
 10
3267.5769369810359
 20
735.07925714333874
 30
0.0
 11
3278.011259921504
 21
745.51358008388263
 31
0.0
  0
LINE
  5
14E0
  8
TITLE
 10
3269.3226344339778
 20
735.07925714333874
 30
0.0
 11
3279.7569573744449
 21
745.51358008388263
 31
0.0
  0
LINE
  5
14E1
  8
TITLE
 10
3271.0683318869128
 20
735.07925714333874
 30
0.0
 11
3281.5026548273881
 21
745.51358008388263
 31
0.0
  0
LINE
  5
14E2
  8
TITLE
 10
3272.8140293398551
 20
735.07925714333874
 30
0.0
 11
3283.248352280335
 21
745.51358008388263
 31
0.0
  0
LINE
  5
14E3
  8
TITLE
 10
3281.542516604432
 20
735.07925714333874
 30
0.0
 11
3291.9768395450478
 21
745.51358008388263
 31
0.0
  0
LINE
  5
14E4
  8
TITLE
 10
3283.288214057377
 20
735.07925714333874
 30
0.0
 11
3293.722536997846
 21
745.51358008388263
 31
0.0
  0
LINE
  5
14E5
  8
TITLE
 10
3285.0339115103152
 20
735.07925714333874
 30
0.0
 11
3295.4682344507892
 21
745.51358008388263
 31
0.0
  0
LINE
  5
14E6
  8
TITLE
 10
3286.7796089632579
 20
735.07925714333874
 30
0.0
 11
3297.213931903736
 21
745.51358008388263
 31
0.0
  0
LINE
  5
14E7
  8
TITLE
 10
3216.9728107829551
 20
775.25139849766595
 30
0.0
 11
3230.0157144586551
 21
788.29430217329377
 31
0.0
  0
LINE
  5
14E8
  8
TITLE
 10
3218.7185082358992
 20
775.25139849766595
 30
0.0
 11
3231.7614119116038
 21
788.29430217329377
 31
0.0
  0
LINE
  5
14E9
  8
TITLE
 10
3220.4642056888451
 20
775.25139849766595
 30
0.0
 11
3233.5071093645429
 21
788.29430217329377
 31
0.0
  0
LINE
  5
14EA
  8
TITLE
 10
3222.2099031417838
 20
775.25139849766595
 30
0.0
 11
3235.252806817346
 21
788.29430217329377
 31
0.0
  0
LINE
  5
14EB
  8
TITLE
 10
3223.55349439874
 20
774.84929230173725
 30
0.0
 11
3245.8099671241598
 21
797.10576502716344
 31
0.0
  0
LINE
  5
14EC
  8
TITLE
 10
3239.6668776710771
 20
775.25139849766595
 30
0.0
 11
3252.709781346628
 21
788.29430217329377
 31
0.0
  0
LINE
  5
14ED
  8
TITLE
 10
3216.3502696698488
 20
755.42618540239368
 30
0.0
 11
3249.720134476056
 21
788.79605020845565
 31
0.0
  0
LINE
  5
14EE
  8
TITLE
 10
3218.0959671227911
 20
755.42618540239368
 30
0.0
 11
3250.964083893833
 21
788.29430217329377
 31
0.0
  0
LINE
  5
14EF
  8
TITLE
 10
3224.718535627313
 20
769.03154371854384
 30
0.0
 11
3249.720134476056
 21
794.0331425672141
 31
0.0
  0
LINE
  5
14F0
  8
TITLE
 10
3225.009795934458
 20
767.57710657274311
 30
0.0
 11
3249.720134476056
 21
792.28744511434115
 31
0.0
  0
LINE
  5
14F1
  8
TITLE
 10
3223.8447547058831
 20
773.39485515594458
 30
0.0
 11
3247.5556645771048
 21
797.10576502716344
 31
0.0
  0
LINE
  5
14F2
  8
TITLE
 10
3224.1360150130258
 20
771.94041801014134
 30
0.0
 11
3249.301362030053
 21
797.10576502716344
 31
0.0
  0
LINE
  5
14F3
  8
TITLE
 10
3224.427275320174
 20
770.48598086435004
 30
0.0
 11
3249.720134476056
 21
795.77884002016287
 31
0.0
  0
LINE
  5
14F4
  8
TITLE
 10
3219.8416645757411
 20
755.42618540239368
 30
0.0
 11
3238.9707595501541
 21
774.55528037680233
 31
0.0
  0
LINE
  5
14F5
  8
TITLE
 10
3221.5873620286752
 20
755.42618540239368
 30
0.0
 11
3239.2620198572949
 21
773.10084323101137
 31
0.0
  0
LINE
  5
14F6
  8
TITLE
 10
3223.3330594816221
 20
755.42618540239368
 30
0.0
 11
3239.5532801644349
 21
771.64640608513776
 31
0.0
  0
LINE
  5
14F7
  8
TITLE
 10
3225.0787569345662
 20
755.42618540239368
 30
0.0
 11
3239.8445404715731
 21
770.19196893933463
 31
0.0
  0
LINE
  5
14F8
  8
TITLE
 10
3226.8244543875071
 20
755.42618540239368
 30
0.0
 11
3240.1358007787212
 21
768.73753179353434
 31
0.0
  0
LINE
  5
14F9
  8
TITLE
 10
3228.5701518404521
 20
755.42618540239368
 30
0.0
 11
3240.4270610857202
 21
767.28309464766085
 31
0.0
  0
LINE
  5
14FA
  8
TITLE
 10
3230.3158492933921
 20
755.42618540239368
 30
0.0
 11
3241.7936050196249
 21
766.90394112862509
 31
0.0
  0
LINE
  5
14FB
  8
TITLE
 10
3232.061546746339
 20
755.42618540239368
 30
0.0
 11
3243.5393024725649
 21
766.90394112862509
 31
0.0
  0
LINE
  5
14FC
  8
TITLE
 10
3233.8072441991399
 20
755.42618540239368
 30
0.0
 11
3245.2849999255091
 21
766.90394112862509
 31
0.0
  0
LINE
  5
14FD
  8
TITLE
 10
3235.552941652079
 20
755.42618540239368
 30
0.0
 11
3247.0306973782999
 21
766.90394112862509
 31
0.0
  0
LINE
  5
14FE
  8
TITLE
 10
3237.2986391050249
 20
755.42618540239368
 30
0.0
 11
3248.7763948312572
 21
766.90394112862509
 31
0.0
  0
LINE
  5
14FF
  8
TITLE
 10
3239.0443365579658
 20
755.42618540239368
 30
0.0
 11
3250.5220922841959
 21
766.90394112862509
 31
0.0
  0
LINE
  5
1500
  8
TITLE
 10
3240.7900340109131
 20
755.42618540239368
 30
0.0
 11
3252.267789737135
 21
766.90394112862509
 31
0.0
  0
LINE
  5
1501
  8
TITLE
 10
3236.3202009267111
 20
792.85309118840132
 30
0.0
 11
3240.572874765478
 21
797.10576502716344
 31
0.0
  0
LINE
  5
1502
  8
TITLE
 10
3236.3202009267111
 20
791.10739373545584
 30
0.0
 11
3242.3185722184189
 21
797.10576502716344
 31
0.0
  0
LINE
  5
1503
  8
TITLE
 10
3236.3202009267111
 20
789.36169628251275
 30
0.0
 11
3244.0642696713599
 21
797.10576502716344
 31
0.0
  0
LINE
  5
1504
  8
TITLE
 10
3236.3202009267111
 20
796.34448609428409
 30
0.0
 11
3237.0814798595989
 21
797.10576502716344
 31
0.0
  0
LINE
  5
1505
  8
TITLE
 10
3236.3202009267111
 20
794.59878864134157
 30
0.0
 11
3238.8271773125348
 21
797.10576502716344
 31
0.0
  0
LINE
  5
1506
  8
TITLE
 10
3216.8508848967222
 20
715.77575921171638
 30
0.0
 11
3226.7634902151599
 21
725.68836453022993
 31
0.0
  0
LINE
  5
1507
  8
TITLE
 10
3218.5965823496649
 20
715.77575921171638
 30
0.0
 11
3228.5091876680972
 21
725.68836453022993
 31
0.0
  0
LINE
  5
1508
  8
TITLE
 10
3220.3422798026058
 20
715.77575921171638
 30
0.0
 11
3230.2548851210449
 21
725.68836453022993
 31
0.0
  0
LINE
  5
1509
  8
TITLE
 10
3222.08797725555
 20
715.77575921171638
 30
0.0
 11
3232.0005825739918
 21
725.68836453022993
 31
0.0
  0
LINE
  5
150A
  8
TITLE
 10
3223.8336747083499
 20
715.77575921171638
 30
0.0
 11
3233.74628002693
 21
725.68836453022993
 31
0.0
  0
LINE
  5
150B
  8
TITLE
 10
3225.579372161299
 20
715.77575921171638
 30
0.0
 11
3235.4919774798782
 21
725.68836453022993
 31
0.0
  0
LINE
  5
150C
  8
TITLE
 10
3227.1795540750682
 20
715.63024367255071
 30
0.0
 11
3237.2376749328168
 21
725.68836453022993
 31
0.0
  0
LINE
  5
150D
  8
TITLE
 10
3226.0471129769981
 20
712.75210512153672
 30
0.0
 11
3238.9833723856141
 21
725.68836453022993
 31
0.0
  0
LINE
  5
150E
  8
TITLE
 10
3223.0322070042648
 20
707.9915016958588
 30
0.0
 11
3240.72906983856
 21
725.68836453022993
 31
0.0
  0
LINE
  5
150F
  8
TITLE
 10
3228.8996124722999
 20
692.91053772880161
 30
0.0
 11
3247.0142084315098
 21
711.02513368793655
 31
0.0
  0
LINE
  5
1510
  8
TITLE
 10
3234.3573681852599
 20
696.6225959887355
 30
0.0
 11
3243.3021501715052
 21
705.56737797498704
 31
0.0
  0
LINE
  5
1511
  8
TITLE
 10
3216.9517108461109
 20
735.07925714333874
 30
0.0
 11
3227.3860337865822
 21
745.51358008388263
 31
0.0
  0
LINE
  5
1512
  8
TITLE
 10
3218.6974082990541
 20
735.07925714333874
 30
0.0
 11
3229.131731239534
 21
745.51358008388263
 31
0.0
  0
LINE
  5
1513
  8
TITLE
 10
3220.4431057519969
 20
735.07925714333874
 30
0.0
 11
3230.8774286924699
 21
745.51358008388263
 31
0.0
  0
LINE
  5
1514
  8
TITLE
 10
3222.1888032049401
 20
735.07925714333874
 30
0.0
 11
3232.6231261454132
 21
745.51358008388263
 31
0.0
  0
LINE
  5
1515
  8
TITLE
 10
3223.934500657736
 20
735.07925714333874
 30
0.0
 11
3234.36882359836
 21
745.51358008388263
 31
0.0
  0
LINE
  5
1516
  8
TITLE
 10
3225.6801981106792
 20
735.07925714333874
 30
0.0
 11
3236.1145210513
 21
745.51358008388263
 31
0.0
  0
LINE
  5
1517
  8
TITLE
 10
3227.4258955636292
 20
735.07925714333874
 30
0.0
 11
3237.860218504105
 21
745.51358008388263
 31
0.0
  0
LINE
  5
1518
  8
TITLE
 10
3229.1715930165728
 20
735.07925714333874
 30
0.0
 11
3239.605915957045
 21
745.51358008388263
 31
0.0
  0
LINE
  5
1519
  8
TITLE
 10
3230.9172904695129
 20
735.07925714333874
 30
0.0
 11
3241.3516134099859
 21
745.51358008388263
 31
0.0
  0
LINE
  5
151A
  8
TITLE
 10
3232.6629879224579
 20
735.07925714333874
 30
0.0
 11
3243.0973108629291
 21
745.51358008388263
 31
0.0
  0
LINE
  5
151B
  8
TITLE
 10
3234.4086853753952
 20
735.07925714333874
 30
0.0
 11
3244.8430083158701
 21
745.51358008388263
 31
0.0
  0
LINE
  5
151C
  8
TITLE
 10
3236.1543828283411
 20
735.07925714333874
 30
0.0
 11
3246.5887057688201
 21
745.51358008388263
 31
0.0
  0
LINE
  5
151D
  8
TITLE
 10
3251.8867598415382
 20
775.25139849766595
 30
0.0
 11
3273.7411263711101
 21
797.10576502716344
 31
0.0
  0
LINE
  5
151E
  8
TITLE
 10
3248.3953649356431
 20
775.25139849766595
 30
0.0
 11
3261.4382686113499
 21
788.29430217329377
 31
0.0
  0
LINE
  5
151F
  8
TITLE
 10
3250.1410623885931
 20
775.25139849766595
 30
0.0
 11
3263.1839660642909
 21
788.29430217329377
 31
0.0
  0
LINE
  5
1520
  8
TITLE
 10
3241.4125751240181
 20
775.25139849766595
 30
0.0
 11
3254.4554787995748
 21
788.29430217329377
 31
0.0
  0
LINE
  5
1521
  8
TITLE
 10
3243.158272576959
 20
775.25139849766595
 30
0.0
 11
3256.2011762525208
 21
788.29430217329377
 31
0.0
  0
LINE
  5
1522
  8
TITLE
 10
3244.903970029909
 20
775.25139849766595
 30
0.0
 11
3257.9468737054549
 21
788.29430217329377
 31
0.0
  0
LINE
  5
1523
  8
TITLE
 10
3246.6496674828459
 20
775.25139849766595
 30
0.0
 11
3259.6925711584049
 21
788.29430217329377
 31
0.0
  0
LINE
  5
1524
  8
TITLE
 10
3216.7193381918919
 20
687.7130532600836
 30
0.0
 11
3274.5198650156181
 21
745.51358008388263
 31
0.0
  0
LINE
  5
1525
  8
TITLE
 10
3248.0478421422731
 20
696.34749032242439
 30
0.0
 11
3277.388716350079
 21
725.68836453022993
 31
0.0
  0
LINE
  5
1526
  8
TITLE
 10
3219.245217768937
 20
688.4932353841906
 30
0.0
 11
3265.8231230411752
 21
735.07114065642907
 31
0.0
  0
LINE
  5
1527
  8
TITLE
 10
3222.0151505770582
 20
689.51747073943659
 30
0.0
 11
3265.8231230411752
 21
733.325443203492
 31
0.0
  0
LINE
  5
1528
  8
TITLE
 10
3225.1449125770569
 20
690.90153528641736
 30
0.0
 11
3265.8231230411752
 21
731.57974575061644
 31
0.0
  0
LINE
  5
1529
  8
TITLE
 10
3248.0478421422731
 20
699.83888522823713
 30
0.0
 11
3273.8973214441899
 21
725.68836453022993
 31
0.0
  0
LINE
  5
152A
  8
TITLE
 10
3248.0478421422731
 20
698.0931877753651
 30
0.0
 11
3275.6430188971381
 21
725.68836453022993
 31
0.0
  0
LINE
  5
152B
  8
TITLE
 10
3248.0478421422731
 20
712.05876739883797
 30
0.0
 11
3265.8231230411752
 21
729.83404829767039
 31
0.0
  0
LINE
  5
152C
  8
TITLE
 10
3248.0478421422731
 20
710.31306994589181
 30
0.0
 11
3265.8231230411752
 21
728.08835084472457
 31
0.0
  0
LINE
  5
152D
  8
TITLE
 10
3248.0478421422731
 20
708.56737249295509
 30
0.0
 11
3265.8231230411752
 21
726.34265339185754
 31
0.0
  0
LINE
  5
152E
  8
TITLE
 10
3248.0478421422731
 20
706.82167504000654
 30
0.0
 11
3266.9145316325598
 21
725.68836453022993
 31
0.0
  0
LINE
  5
152F
  8
TITLE
 10
3248.0478421422731
 20
705.07597758706061
 30
0.0
 11
3268.6602290855062
 21
725.68836453022993
 31
0.0
  0
LINE
  5
1530
  8
TITLE
 10
3248.0478421422731
 20
703.33028013412354
 30
0.0
 11
3270.4059265384471
 21
725.68836453022993
 31
0.0
  0
LINE
  5
1531
  8
TITLE
 10
3248.0478421422731
 20
701.58458268118318
 30
0.0
 11
3272.1516239913949
 21
725.68836453022993
 31
0.0
  0
LINE
  5
1532
  8
TITLE
 10
3248.0478421422731
 20
694.60179286955736
 30
0.0
 11
3265.8231230411752
 21
712.37707376838455
 31
0.0
  0
LINE
  5
1533
  8
TITLE
 10
3248.0478421422731
 20
692.85609541661438
 30
0.0
 11
3265.8231230411752
 21
710.63137631544441
 31
0.0
  0
LINE
  5
1534
  8
TITLE
 10
3248.0478421422731
 20
691.11039796366583
 30
0.0
 11
3265.8231230411752
 21
708.88567886249837
 31
0.0
  0
LINE
  5
1535
  8
TITLE
 10
3248.0478421422731
 20
689.36470051072001
 30
0.0
 11
3265.8231230411752
 21
707.13998140962235
 31
0.0
  0
LINE
  5
1536
  8
TITLE
 10
3248.0478421422731
 20
687.61900305777476
 30
0.0
 11
3265.8231230411752
 21
705.39428395668574
 31
0.0
  0
LINE
  5
1537
  8
TITLE
 10
3248.0478421422731
 20
685.87330560483417
 30
0.0
 11
3265.8231230411752
 21
703.64858650373981
 31
0.0
  0
LINE
  5
1538
  8
TITLE
 10
3249.733521272145
 20
685.81328728176368
 30
0.0
 11
3265.8231230411752
 21
701.90288905080274
 31
0.0
  0
LINE
  5
1539
  8
TITLE
 10
3251.4792187250828
 20
685.81328728176368
 30
0.0
 11
3265.8231230411752
 21
700.15719159785385
 31
0.0
  0
LINE
  5
153A
  8
TITLE
 10
3248.0478421422731
 20
752.20980881617061
 30
0.0
 11
3262.7419744548001
 21
766.90394112862509
 31
0.0
  0
LINE
  5
153B
  8
TITLE
 10
3248.0478421422731
 20
750.46411136322808
 30
0.0
 11
3264.4876719075978
 21
766.90394112862509
 31
0.0
  0
LINE
  5
153C
  8
TITLE
 10
3248.0478421422731
 20
748.71841391035446
 30
0.0
 11
3266.233369360536
 21
766.90394112862509
 31
0.0
  0
LINE
  5
153D
  8
TITLE
 10
3248.0478421422731
 20
746.97271645741807
 30
0.0
 11
3267.9790668134801
 21
766.90394112862509
 31
0.0
  0
LINE
  5
153E
  8
TITLE
 10
3237.9000802812852
 20
735.07925714333874
 30
0.0
 11
3269.7247642664211
 21
766.90394112862509
 31
0.0
  0
LINE
  5
153F
  8
TITLE
 10
3239.645777734223
 20
735.07925714333874
 30
0.0
 11
3271.4704617193652
 21
766.90394112862509
 31
0.0
  0
LINE
  5
1540
  8
TITLE
 10
3241.3914751870252
 20
735.07925714333874
 30
0.0
 11
3273.2161591723088
 21
766.90394112862509
 31
0.0
  0
LINE
  5
1541
  8
TITLE
 10
3242.535731463855
 20
755.42618540239368
 30
0.0
 11
3254.01348719008
 21
766.90394112862509
 31
0.0
  0
LINE
  5
1542
  8
TITLE
 10
3244.2814289167968
 20
755.42618540239368
 30
0.0
 11
3255.759184643025
 21
766.90394112862509
 31
0.0
  0
LINE
  5
1543
  8
TITLE
 10
3246.0271263697391
 20
755.42618540239368
 30
0.0
 11
3257.5048820959641
 21
766.90394112862509
 31
0.0
  0
LINE
  5
1544
  8
TITLE
 10
3247.772823822686
 20
755.42618540239368
 30
0.0
 11
3259.2505795489092
 21
766.90394112862509
 31
0.0
  0
LINE
  5
1545
  8
TITLE
 10
3248.0478421422731
 20
753.95550626904105
 30
0.0
 11
3260.9962770018551
 21
766.90394112862509
 31
0.0
  0
LINE
  5
1546
  8
TITLE
 10
3246.6285675458548
 20
735.07925714333874
 30
0.0
 11
3265.8231230411752
 21
754.27381263865766
 31
0.0
  0
LINE
  5
1547
  8
TITLE
 10
3248.0478421422731
 20
734.75283428688215
 30
0.0
 11
3265.8231230411752
 21
752.52811518572037
 31
0.0
  0
LINE
  5
1548
  8
TITLE
 10
3248.0478421422731
 20
733.00713683393599
 30
0.0
 11
3265.8231230411752
 21
750.782417732775
 31
0.0
  0
LINE
  5
1549
  8
TITLE
 10
3248.0478421422731
 20
731.26143938099915
 30
0.0
 11
3265.8231230411752
 21
749.03672027990206
 31
0.0
  0
LINE
  5
154A
  8
TITLE
 10
3248.0478421422731
 20
729.51574192812359
 30
0.0
 11
3265.8231230411752
 21
747.29102282695612
 31
0.0
  0
LINE
  5
154B
  8
TITLE
 10
3248.0478421422731
 20
727.77004447518641
 30
0.0
 11
3265.8231230411752
 21
745.54532537401292
 31
0.0
  0
LINE
  5
154C
  8
TITLE
 10
3248.0478421422731
 20
726.02434702223775
 30
0.0
 11
3267.537075203993
 21
745.51358008388263
 31
0.0
  0
LINE
  5
154D
  8
TITLE
 10
3397.5
 20
1050.0
 30
0.0
 11
3397.5
 21
850.0
 31
0.0
  0
LINE
  5
154E
  8
TITLE
 10
3368.425633576298
 20
776.5742403389745
 30
0.0
 11
3388.7986397059849
 21
796.94724646880456
 31
0.0
  0
LINE
  5
154F
  8
TITLE
 10
3368.425633576298
 20
774.82854288602937
 30
0.0
 11
3388.7986397059849
 21
795.20154901586125
 31
0.0
  0
LINE
  5
1550
  8
TITLE
 10
3368.425633576298
 20
760.862963262623
 30
0.0
 11
3390.118095852938
 21
782.55542553933412
 31
0.0
  0
LINE
  5
1551
  8
TITLE
 10
3370.023882202745
 20
760.71551443627402
 30
0.0
 11
3391.863793305879
 21
782.55542553933412
 31
0.0
  0
LINE
  5
1552
  8
TITLE
 10
3368.425633576298
 20
769.59145052726387
 30
0.0
 11
3388.7986397059849
 21
789.96445665703266
 31
0.0
  0
LINE
  5
1553
  8
TITLE
 10
3368.425633576298
 20
767.84575307432738
 30
0.0
 11
3388.7978303866698
 21
788.21794988476665
 31
0.0
  0
LINE
  5
1554
  8
TITLE
 10
3368.425633576298
 20
766.1000556214542
 30
0.0
 11
3388.7218754539208
 21
786.39629749907544
 31
0.0
  0
LINE
  5
1555
  8
TITLE
 10
3368.425633576298
 20
764.35435816851736
 30
0.0
 11
3388.5169019167802
 21
784.44562650906505
 31
0.0
  0
LINE
  5
1556
  8
TITLE
 10
3368.425633576298
 20
762.60866071556848
 30
0.0
 11
3388.3723983999898
 21
782.55542553933412
 31
0.0
  0
LINE
  5
1557
  8
TITLE
 10
3373.3683539989479
 20
762.3142887793922
 30
0.0
 11
3393.6094907588158
 21
782.55542553933412
 31
0.0
  0
LINE
  5
1558
  8
TITLE
 10
3368.425633576298
 20
773.08284543308355
 30
0.0
 11
3388.7986397059849
 21
793.45585156291497
 31
0.0
  0
LINE
  5
1559
  8
TITLE
 10
3368.425633576298
 20
771.33714798014284
 30
0.0
 11
3388.7986397059849
 21
791.71015410998143
 31
0.0
  0
LINE
  5
155A
  8
TITLE
 10
3373.0858649637389
 20
782.98016917942766
 30
0.0
 11
3387.2114608115498
 21
797.10576502716344
 31
0.0
  0
LINE
  5
155B
  8
TITLE
 10
3374.6942497692471
 20
791.57134379663376
 30
0.0
 11
3380.228670999772
 21
797.10576502716344
 31
0.0
  0
LINE
  5
155C
  8
TITLE
 10
3374.6942497692471
 20
789.82564634369419
 30
0.0
 11
3381.9743684527189
 21
797.10576502716344
 31
0.0
  0
LINE
  5
155D
  8
TITLE
 10
3374.6082108222831
 20
787.99390994378268
 30
0.0
 11
3383.7200659056589
 21
797.10576502716344
 31
0.0
  0
LINE
  5
155E
  8
TITLE
 10
3374.1641158848101
 20
785.80411755344278
 30
0.0
 11
3385.4657633586021
 21
797.10576502716344
 31
0.0
  0
LINE
  5
155F
  8
TITLE
 10
3368.425633576298
 20
691.03506514547905
 30
0.0
 11
3394.3657324601099
 21
716.97516402928147
 31
0.0
  0
LINE
  5
1560
  8
TITLE
 10
3371.2468325485529
 20
692.11056666486593
 30
0.0
 11
3392.1397110786852
 21
713.00344519492432
 31
0.0
  0
LINE
  5
1561
  8
TITLE
 10
3376.7992278905299
 20
695.91726455389698
 30
0.0
 11
3388.33301318965
 21
707.45104985294211
 31
0.0
  0
LINE
  5
1562
  8
TITLE
 10
3373.3248025294279
 20
715.13690608090883
 30
0.0
 11
3413.6140818509812
 21
755.42618540239368
 31
0.0
  0
LINE
  5
1563
  8
TITLE
 10
3368.425633576298
 20
708.49203967476251
 30
0.0
 11
3415.3597793039248
 21
755.42618540239368
 31
0.0
  0
LINE
  5
1564
  8
TITLE
 10
3379.3840549982929
 20
724.6875534555852
 30
0.0
 11
3411.2611876803539
 21
756.56468613758102
 31
0.0
  0
LINE
  5
1565
  8
TITLE
 10
3377.131462055373
 20
720.68926305972593
 30
0.0
 11
3411.8683843980398
 21
755.42618540239368
 31
0.0
  0
LINE
  5
1566
  8
TITLE
 10
3368.4463593554051
 20
743.42671451244451
 30
0.0
 11
3380.4458302452131
 21
755.42618540239368
 31
0.0
  0
LINE
  5
1567
  8
TITLE
 10
3370.1920568083492
 20
743.42671451244451
 30
0.0
 11
3382.1915276981531
 21
755.42618540239368
 31
0.0
  0
LINE
  5
1568
  8
TITLE
 10
3371.9377542612888
 20
743.42671451244451
 30
0.0
 11
3383.937225151099
 21
755.42618540239368
 31
0.0
  0
LINE
  5
1569
  8
TITLE
 10
3373.6834517140892
 20
743.42671451244451
 30
0.0
 11
3385.682922604035
 21
755.42618540239368
 31
0.0
  0
LINE
  5
156A
  8
TITLE
 10
3375.4291491670342
 20
743.42671451244451
 30
0.0
 11
3387.4286200569809
 21
755.42618540239368
 31
0.0
  0
LINE
  5
156B
  8
TITLE
 10
3377.1748466199761
 20
743.42671451244451
 30
0.0
 11
3389.1743175099241
 21
755.42618540239368
 31
0.0
  0
LINE
  5
156C
  8
TITLE
 10
3378.9205440729188
 20
743.42671451244451
 30
0.0
 11
3390.9200149628691
 21
755.42618540239368
 31
0.0
  0
LINE
  5
156D
  8
TITLE
 10
3368.425633576298
 20
699.76355241004762
 30
0.0
 11
3424.0882665684949
 21
755.42618540239368
 31
0.0
  0
LINE
  5
156E
  8
TITLE
 10
3368.425633576298
 20
696.27215750423545
 30
0.0
 11
3427.5796614743799
 21
755.42618540239368
 31
0.0
  0
LINE
  5
156F
  8
TITLE
 10
3368.425633576298
 20
694.526460051296
 30
0.0
 11
3429.3253589273259
 21
755.42618540239368
 31
0.0
  0
LINE
  5
1570
  8
TITLE
 10
3368.425633576298
 20
692.78076259842521
 30
0.0
 11
3431.0710563802741
 21
755.42618540239368
 31
0.0
  0
LINE
  5
1571
  8
TITLE
 10
3368.425633576298
 20
698.0178549571815
 30
0.0
 11
3425.8339640214449
 21
755.42618540239368
 31
0.0
  0
LINE
  5
1572
  8
TITLE
 10
3368.425633576298
 20
703.25494731593733
 30
0.0
 11
3420.5968716626121
 21
755.42618540239368
 31
0.0
  0
LINE
  5
1573
  8
TITLE
 10
3368.425633576298
 20
701.50924986299424
 30
0.0
 11
3422.342569115553
 21
755.42618540239368
 31
0.0
  0
LINE
  5
1574
  8
TITLE
 10
3368.425633576298
 20
706.74634222182556
 30
0.0
 11
3417.1054767567248
 21
755.42618540239368
 31
0.0
  0
LINE
  5
1575
  8
TITLE
 10
3368.425633576298
 20
705.00064476887701
 30
0.0
 11
3418.8511742096721
 21
755.42618540239368
 31
0.0
  0
LINE
  5
1576
  8
TITLE
 10
3337.6049275645801
 20
778.92178593296353
 30
0.0
 11
3354.3212436394151
 21
795.63810200779449
 31
0.0
  0
LINE
  5
1577
  8
TITLE
 10
3336.4223664847741
 20
763.77364522982134
 30
0.0
 11
3354.3212436394151
 21
781.67252238439175
 31
0.0
  0
LINE
  5
1578
  8
TITLE
 10
3355.6250384670002
 20
763.77364522974858
 30
0.0
 11
3363.7241702639999
 21
771.87277702667427
 31
0.0
  0
LINE
  5
1579
  8
TITLE
 10
3357.3707359199452
 20
763.77364522974858
 30
0.0
 11
3363.7241702639999
 21
770.12707957372857
 31
0.0
  0
LINE
  5
157A
  8
TITLE
 10
3359.1164333728898
 20
763.77364522974858
 30
0.0
 11
3363.7241702639999
 21
768.38138212086074
 31
0.0
  0
LINE
  5
157B
  8
TITLE
 10
3362.607828278778
 20
763.77364522982134
 30
0.0
 11
3363.7241702639999
 21
764.88998721498444
 31
0.0
  0
LINE
  5
157C
  8
TITLE
 10
3360.8621308258348
 20
763.77364522974858
 30
0.0
 11
3363.7241702639999
 21
766.63568466791571
 31
0.0
  0
LINE
  5
157D
  8
TITLE
 10
3337.6049275645801
 20
756.2277190449247
 30
0.0
 11
3358.7154725887631
 21
777.33826406909554
 31
0.0
  0
LINE
  5
157E
  8
TITLE
 10
3337.6049275645801
 20
754.48202159198217
 30
0.0
 11
3360.4611700417149
 21
777.33826406909554
 31
0.0
  0
LINE
  5
157F
  8
TITLE
 10
3337.6049275645801
 20
759.71911395073812
 30
0.0
 11
3355.2240776828799
 21
777.33826406909554
 31
0.0
  0
LINE
  5
1580
  8
TITLE
 10
3337.6049275645801
 20
757.97341649779491
 30
0.0
 11
3356.969775135819
 21
777.33826406909554
 31
0.0
  0
LINE
  5
1581
  8
TITLE
 10
3337.6049275645801
 20
761.46481140367473
 30
0.0
 11
3354.3212436394151
 21
778.1811274785058
 31
0.0
  0
LINE
  5
1582
  8
TITLE
 10
3337.6049275645801
 20
763.21050885654415
 30
0.0
 11
3354.3212436394151
 21
779.92682493145503
 31
0.0
  0
LINE
  5
1583
  8
TITLE
 10
3337.6049275645801
 20
782.4131808387757
 30
0.0
 11
3352.2975117529732
 21
797.10576502716344
 31
0.0
  0
LINE
  5
1584
  8
TITLE
 10
3337.6049275645801
 20
780.6674833858392
 30
0.0
 11
3354.0432092057731
 21
797.10576502716344
 31
0.0
  0
LINE
  5
1585
  8
TITLE
 10
3337.6049275645801
 20
791.141668103494
 30
0.0
 11
3343.5690244882599
 21
797.10576502716344
 31
0.0
  0
LINE
  5
1586
  8
TITLE
 10
3337.6049275645801
 20
789.39597065055068
 30
0.0
 11
3345.314721941204
 21
797.10576502716344
 31
0.0
  0
LINE
  5
1587
  8
TITLE
 10
3337.6049275645801
 20
787.65027319760452
 30
0.0
 11
3347.0604193941449
 21
797.10576502716344
 31
0.0
  0
LINE
  5
1588
  8
TITLE
 10
3337.6049275645801
 20
785.90457574466996
 30
0.0
 11
3348.806116847084
 21
797.10576502716344
 31
0.0
  0
LINE
  5
1589
  8
TITLE
 10
3337.6049275645801
 20
784.15887829172186
 30
0.0
 11
3350.551814300034
 21
797.10576502716344
 31
0.0
  0
LINE
  5
158A
  8
TITLE
 10
3337.6049275645801
 20
792.88736555643618
 30
0.0
 11
3341.823327035313
 21
797.10576502716344
 31
0.0
  0
LINE
  5
158B
  8
TITLE
 10
3337.6049275645801
 20
796.37876046225529
 30
0.0
 11
3338.3319321294289
 21
797.10576502716344
 31
0.0
  0
LINE
  5
158C
  8
TITLE
 10
3337.6049275645801
 20
794.63306300931436
 30
0.0
 11
3340.077629582373
 21
797.10576502716344
 31
0.0
  0
LINE
  5
158D
  8
TITLE
 10
3374.6942497692471
 20
793.31704124957685
 30
0.0
 11
3378.482973546832
 21
797.10576502716344
 31
0.0
  0
LINE
  5
158E
  8
TITLE
 10
3374.6942497692471
 20
796.8084361553922
 30
0.0
 11
3374.9915786409451
 21
797.10576502716344
 31
0.0
  0
LINE
  5
158F
  8
TITLE
 10
3374.6942497692471
 20
795.06273870245559
 30
0.0
 11
3376.7372760938902
 21
797.10576502716344
 31
0.0
  0
LINE
  5
1590
  8
TITLE
 10
3299.0205910707032
 20
775.25139849766595
 30
0.0
 11
3312.063494746265
 21
788.29430217329377
 31
0.0
  0
LINE
  5
1591
  8
TITLE
 10
3300.7662885236509
 20
775.25139849766595
 30
0.0
 11
3313.574889292659
 21
788.05999926659592
 31
0.0
  0
LINE
  5
1592
  8
TITLE
 10
3302.511985976455
 20
775.25139849766595
 30
0.0
 11
3313.574889292659
 21
786.31430181372025
 31
0.0
  0
LINE
  5
1593
  8
TITLE
 10
3304.2576834293941
 20
775.25139849766595
 30
0.0
 11
3313.574889292659
 21
784.56860436078307
 31
0.0
  0
LINE
  5
1594
  8
TITLE
 10
3306.0033808823391
 20
775.25139849766595
 30
0.0
 11
3313.574889292659
 21
782.82290690790717
 31
0.0
  0
LINE
  5
1595
  8
TITLE
 10
3307.74907833528
 20
775.25139849766595
 30
0.0
 11
3313.574889292659
 21
781.07720945496487
 31
0.0
  0
LINE
  5
1596
  8
TITLE
 10
3311.2404732411628
 20
775.25139849766595
 30
0.0
 11
3313.574889292659
 21
777.58581454907585
 31
0.0
  0
LINE
  5
1597
  8
TITLE
 10
3312.9861706941101
 20
775.25139849766595
 30
0.0
 11
3313.574889292659
 21
775.84011709613924
 31
0.0
  0
LINE
  5
1598
  8
TITLE
 10
3322.978153334157
 20
776.51489387305662
 30
0.0
 11
3323.8015235301932
 21
777.33826406909554
 31
0.0
  0
LINE
  5
1599
  8
TITLE
 10
3322.978153334157
 20
774.76919642011705
 30
0.0
 11
3325.5472209831401
 21
777.33826406909554
 31
0.0
  0
LINE
  5
159A
  8
TITLE
 10
3309.4947757882228
 20
775.25139849766595
 30
0.0
 11
3313.574889292659
 21
779.33151200202155
 31
0.0
  0
LINE
  5
159B
  8
TITLE
 10
3300.143747410541
 20
755.42618540239368
 30
0.0
 11
3310.01983311288
 21
765.30227110466274
 31
0.0
  0
LINE
  5
159C
  8
TITLE
 10
3301.8894448634928
 20
755.42618540239368
 30
0.0
 11
3310.01983311288
 21
763.55657365171419
 31
0.0
  0
LINE
  5
159D
  8
TITLE
 10
3298.398049957601
 20
755.42618540239368
 30
0.0
 11
3309.8758056838319
 21
766.90394112862509
 31
0.0
  0
LINE
  5
159E
  8
TITLE
 10
3303.6351423164278
 20
755.42618540239368
 30
0.0
 11
3310.01983311288
 21
761.81087619883795
 31
0.0
  0
LINE
  5
159F
  8
TITLE
 10
3305.3808397693801
 20
755.42618540239368
 30
0.0
 11
3310.01983311288
 21
760.06517874589235
 31
0.0
  0
LINE
  5
15A0
  8
TITLE
 10
3307.1265372221778
 20
755.42618540239368
 30
0.0
 11
3310.01983311288
 21
758.31948129295495
 31
0.0
  0
LINE
  5
15A1
  8
TITLE
 10
3308.8722346751151
 20
755.42618540239368
 30
0.0
 11
3310.01983311288
 21
756.57378384000936
 31
0.0
  0
LINE
  5
15A2
  8
TITLE
 10
3322.978153334157
 20
769.53210406136122
 30
0.0
 11
3330.7843133419628
 21
777.33826406909554
 31
0.0
  0
LINE
  5
15A3
  8
TITLE
 10
3322.978153334157
 20
767.78640660841506
 30
0.0
 11
3332.5300107947628
 21
777.33826406909554
 31
0.0
  0
LINE
  5
15A4
  8
TITLE
 10
3322.978153334157
 20
766.04070915554576
 30
0.0
 11
3334.275708247706
 21
777.33826406909554
 31
0.0
  0
LINE
  5
15A5
  8
TITLE
 10
3322.978153334157
 20
771.27780151422883
 30
0.0
 11
3329.0386158890192
 21
777.33826406909554
 31
0.0
  0
LINE
  5
15A6
  8
TITLE
 10
3322.978153334157
 20
773.02349896717124
 30
0.0
 11
3327.2929184360742
 21
777.33826406909554
 31
0.0
  0
LINE
  5
15A7
  8
TITLE
 10
3324.202484314314
 20
763.77364522982134
 30
0.0
 11
3354.3212436394151
 21
793.89240455492506
 31
0.0
  0
LINE
  5
15A8
  8
TITLE
 10
3325.9481817672549
 20
763.77364522982134
 30
0.0
 11
3354.3212436394151
 21
792.1467071019764
 31
0.0
  0
LINE
  5
15A9
  8
TITLE
 10
3327.6938792202009
 20
763.77364522974858
 30
0.0
 11
3354.3212436394151
 21
790.4010096490332
 31
0.0
  0
LINE
  5
15AA
  8
TITLE
 10
3329.4395766731418
 20
763.77364522974858
 30
0.0
 11
3354.3212436394151
 21
788.65531219608715
 31
0.0
  0
LINE
  5
15AB
  8
TITLE
 10
3331.1852741259472
 20
763.77364522974858
 30
0.0
 11
3354.3212436394151
 21
786.90961474315054
 31
0.0
  0
LINE
  5
15AC
  8
TITLE
 10
3332.9309715788931
 20
763.77364522974858
 30
0.0
 11
3354.3212436394151
 21
785.16391729020438
 31
0.0
  0
LINE
  5
15AD
  8
TITLE
 10
3334.676669031835
 20
763.77364522974858
 30
0.0
 11
3354.3212436394151
 21
783.41821983726436
 31
0.0
  0
LINE
  5
15AE
  8
TITLE
 10
3322.978153334157
 20
764.29501170260198
 30
0.0
 11
3336.021405700651
 21
777.33826406909554
 31
0.0
  0
LINE
  5
15AF
  8
TITLE
 10
3337.6049275645801
 20
714.33098017457587
 30
0.0
 11
3354.3212436394151
 21
731.04729624939534
 31
0.0
  0
LINE
  5
15B0
  8
TITLE
 10
3337.6049275645801
 20
712.5852827216296
 30
0.0
 11
3354.3212436394151
 21
729.30159879645555
 31
0.0
  0
LINE
  5
15B1
  8
TITLE
 10
3337.6049275645801
 20
710.83958526869287
 30
0.0
 11
3354.3212436394151
 21
727.55590134351235
 31
0.0
  0
LINE
  5
15B2
  8
TITLE
 10
3337.6049275645801
 20
709.09388781574444
 30
0.0
 11
3354.3212436394151
 21
725.81020389064315
 31
0.0
  0
LINE
  5
15B3
  8
TITLE
 10
3337.6049275645801
 20
707.3481903628774
 30
0.0
 11
3354.3212436394151
 21
724.0645064376971
 31
0.0
  0
LINE
  5
15B4
  8
TITLE
 10
3337.6049275645801
 20
705.60249290992886
 30
0.0
 11
3354.3212436394151
 21
722.31880898483541
 31
0.0
  0
LINE
  5
15B5
  8
TITLE
 10
3337.6049275645801
 20
703.85679545698565
 30
0.0
 11
3354.3212436394151
 21
720.57311153188425
 31
0.0
  0
LINE
  5
15B6
  8
TITLE
 10
3337.6049275645801
 20
719.56807253340446
 30
0.0
 11
3354.3212436394151
 21
736.28438860822394
 31
0.0
  0
LINE
  5
15B7
  8
TITLE
 10
3337.6049275645801
 20
717.82237508046467
 30
0.0
 11
3354.3212436394151
 21
734.53869115528425
 31
0.0
  0
LINE
  5
15B8
  8
TITLE
 10
3337.6049275645801
 20
716.07667762752169
 30
0.0
 11
3354.3212436394151
 21
732.79299370234094
 31
0.0
  0
LINE
  5
15B9
  8
TITLE
 10
3337.6049275645801
 20
696.8740056452848
 30
0.0
 11
3354.3212436394151
 21
713.59032172011609
 31
0.0
  0
LINE
  5
15BA
  8
TITLE
 10
3337.6049275645801
 20
695.12830819234148
 30
0.0
 11
3354.3212436394151
 21
711.84462426716755
 31
0.0
  0
LINE
  5
15BB
  8
TITLE
 10
3337.6049275645801
 20
693.38261073940203
 30
0.0
 11
3354.3212436394151
 21
710.09892681422446
 31
0.0
  0
LINE
  5
15BC
  8
TITLE
 10
3337.6049275645801
 20
691.63691328645587
 30
0.0
 11
3354.3212436394151
 21
708.35322936135378
 31
0.0
  0
LINE
  5
15BD
  8
TITLE
 10
3337.6049275645801
 20
689.89121583351277
 30
0.0
 11
3354.3212436394151
 21
706.60753190841638
 31
0.0
  0
LINE
  5
15BE
  8
TITLE
 10
3337.6049275645801
 20
688.14551838064313
 30
0.0
 11
3354.3212436394151
 21
704.86183445547454
 31
0.0
  0
LINE
  5
15BF
  8
TITLE
 10
3337.6049275645801
 20
686.39982092769742
 30
0.0
 11
3354.3212436394151
 21
703.11613700260398
 31
0.0
  0
LINE
  5
15C0
  8
TITLE
 10
3338.76409137152
 20
685.81328728176368
 30
0.0
 11
3354.3212436394151
 21
701.37043954965804
 31
0.0
  0
LINE
  5
15C1
  8
TITLE
 10
3340.50978882447
 20
685.81328728176368
 30
0.0
 11
3354.3212436394151
 21
699.62474209671211
 31
0.0
  0
LINE
  5
15C2
  8
TITLE
 10
3342.255486277405
 20
685.81328728176368
 30
0.0
 11
3354.3212436394151
 21
697.87904464376743
 31
0.0
  0
LINE
  5
15C3
  8
TITLE
 10
3344.0011837303468
 20
685.81328728176368
 30
0.0
 11
3354.3212436394151
 21
696.13334719082957
 31
0.0
  0
LINE
  5
15C4
  8
TITLE
 10
3345.7468811833
 20
685.81328728176368
 30
0.0
 11
3354.3212436394151
 21
694.38764973788057
 31
0.0
  0
LINE
  5
15C5
  8
TITLE
 10
3347.4925786362369
 20
685.81328728176368
 30
0.0
 11
3354.3212436394151
 21
692.641952284936
 31
0.0
  0
LINE
  5
15C6
  8
TITLE
 10
3349.2382760891801
 20
685.81328728176368
 30
0.0
 11
3354.3212436394151
 21
690.89625483199825
 31
0.0
  0
LINE
  5
15C7
  8
TITLE
 10
3350.9839735421242
 20
685.81328728176368
 30
0.0
 11
3354.3212436394151
 21
689.15055737912235
 31
0.0
  0
LINE
  5
15C8
  8
TITLE
 10
3352.729670995066
 20
685.81328728176368
 30
0.0
 11
3354.3212436394151
 21
687.40485992618812
 31
0.0
  0
LINE
  5
15C9
  8
TITLE
 10
3337.6049275645801
 20
702.111098004116
 30
0.0
 11
3354.3212436394151
 21
718.82741407894355
 31
0.0
  0
LINE
  5
15CA
  8
TITLE
 10
3337.6049275645801
 20
700.36540055117257
 30
0.0
 11
3354.3212436394151
 21
717.08171662599875
 31
0.0
  0
LINE
  5
15CB
  8
TITLE
 10
3337.6049275645801
 20
698.61970309823596
 30
0.0
 11
3354.3212436394151
 21
715.33601917305293
 31
0.0
  0
LINE
  5
15CC
  8
TITLE
 10
3355.0415706792228
 20
737.00471564797056
 30
0.0
 11
3363.7241702639999
 21
745.6873152328194
 31
0.0
  0
LINE
  5
15CD
  8
TITLE
 10
3356.0147310302818
 20
736.23217854622385
 30
0.0
 11
3363.7241702639999
 21
743.94161777987699
 31
0.0
  0
LINE
  5
15CE
  8
TITLE
 10
3357.0071764909549
 20
735.47892655387784
 30
0.0
 11
3363.7241702639999
 21
742.19592032693674
 31
0.0
  0
LINE
  5
15CF
  8
TITLE
 10
3337.6049275645801
 20
723.05946743921731
 30
0.0
 11
3363.7241702639999
 21
749.17871013863805
 31
0.0
  0
LINE
  5
15D0
  8
TITLE
 10
3337.6049275645801
 20
721.31376998634767
 30
0.0
 11
3363.7241702639999
 21
747.43301268568985
 31
0.0
  0
LINE
  5
15D1
  8
TITLE
 10
3358.0190805707148
 20
734.74513318070183
 30
0.0
 11
3363.7241702639999
 21
740.45022287399422
 31
0.0
  0
LINE
  5
15D2
  8
TITLE
 10
3359.0506476381352
 20
734.0310027952579
 30
0.0
 11
3363.7241702639999
 21
738.70452542104556
 31
0.0
  0
LINE
  5
15D3
  8
TITLE
 10
3360.1021144748979
 20
733.33677217899549
 30
0.0
 11
3363.7241702639999
 21
736.9588279681027
 31
0.0
  0
LINE
  5
15D4
  8
TITLE
 10
3361.1737521210171
 20
732.66271237217393
 30
0.0
 11
3363.7241702639999
 21
735.21313051516563
 31
0.0
  0
LINE
  5
15D5
  8
TITLE
 10
3362.2658680463851
 20
732.00913084473666
 30
0.0
 11
3363.7241702639999
 21
733.46743306221686
 31
0.0
  0
LINE
  5
15D6
  8
TITLE
 10
3363.378808690718
 20
731.37637403612405
 30
0.0
 11
3363.7241702639999
 21
731.72173560934641
 31
0.0
  0
LINE
  5
15D7
  8
TITLE
 10
3298.8986651843261
 20
715.77575921171638
 30
0.0
 11
3308.8112705029162
 21
725.68836453022993
 31
0.0
  0
LINE
  5
15D8
  8
TITLE
 10
3300.6443626372729
 20
715.77575921171638
 30
0.0
 11
3310.5569679557088
 21
725.68836453022993
 31
0.0
  0
LINE
  5
15D9
  8
TITLE
 10
3302.3900600902148
 20
715.77575921171638
 30
0.0
 11
3312.302665408652
 21
725.68836453022993
 31
0.0
  0
LINE
  5
15DA
  8
TITLE
 10
3304.135757543158
 20
715.77575921171638
 30
0.0
 11
3313.574889292659
 21
725.21489096121502
 31
0.0
  0
LINE
  5
15DB
  8
TITLE
 10
3305.8814549960989
 20
715.77575921171638
 30
0.0
 11
3313.574889292659
 21
723.46919350827545
 31
0.0
  0
LINE
  5
15DC
  8
TITLE
 10
3307.6271524490421
 20
715.77575921171638
 30
0.0
 11
3313.574889292659
 21
721.72349605532986
 31
0.0
  0
LINE
  5
15DD
  8
TITLE
 10
3309.3728499019858
 20
715.77575921171638
 30
0.0
 11
3313.574889292659
 21
719.97779860238381
 31
0.0
  0
LINE
  5
15DE
  8
TITLE
 10
3298.4266785398222
 20
687.37261332026458
 30
0.0
 11
3310.6566223984601
 21
699.60255717897462
 31
0.0
  0
LINE
  5
15DF
  8
TITLE
 10
3299.8364644207031
 20
687.03670174834917
 30
0.0
 11
3312.402319851396
 21
699.60255717897462
 31
0.0
  0
LINE
  5
15E0
  8
TITLE
 10
3301.2811999752289
 20
686.73573984984898
 30
0.0
 11
3313.574889292659
 21
699.02942916721281
 31
0.0
  0
LINE
  5
15E1
  8
TITLE
 10
3302.7629231504638
 20
686.47176557221735
 30
0.0
 11
3313.574889292659
 21
697.28373171426415
 31
0.0
  0
LINE
  5
15E2
  8
TITLE
 10
3304.2839819380119
 20
686.24712690683418
 30
0.0
 11
3313.574889292659
 21
695.53803426140018
 31
0.0
  0
LINE
  5
15E3
  8
TITLE
 10
3305.8471000191939
 20
686.0645475351339
 30
0.0
 11
3313.574889292659
 21
693.79233680845425
 31
0.0
  0
LINE
  5
15E4
  8
TITLE
 10
3307.4554620099211
 20
685.92721207285388
 30
0.0
 11
3313.574889292659
 21
692.04663935558392
 31
0.0
  0
LINE
  5
15E5
  8
TITLE
 10
3309.1128259583538
 20
685.83887856833496
 30
0.0
 11
3313.574889292659
 21
690.30094190264435
 31
0.0
  0
LINE
  5
15E6
  8
TITLE
 10
3310.832932124722
 20
685.81328728176368
 30
0.0
 11
3313.574889292659
 21
688.55524444970456
 31
0.0
  0
LINE
  5
15E7
  8
TITLE
 10
3312.5786295776652
 20
685.81328728176368
 30
0.0
 11
3313.574889292659
 21
686.8095469967559
 31
0.0
  0
LINE
  5
15E8
  8
TITLE
 10
3311.1185473549331
 20
715.77575921171638
 30
0.0
 11
3313.574889292659
 21
718.23210114944459
 31
0.0
  0
LINE
  5
15E9
  8
TITLE
 10
3312.8642448078758
 20
715.77575921171638
 30
0.0
 11
3313.574889292659
 21
716.48640369649854
 31
0.0
  0
LINE
  5
15EA
  8
TITLE
 10
3298.999491133718
 20
735.07925714333874
 30
0.0
 11
3309.4338140743389
 21
745.51358008388263
 31
0.0
  0
LINE
  5
15EB
  8
TITLE
 10
3300.745188586659
 20
735.07925714333874
 30
0.0
 11
3310.01983311288
 21
744.35390166948207
 31
0.0
  0
LINE
  5
15EC
  8
TITLE
 10
3302.4908860396049
 20
735.07925714333874
 30
0.0
 11
3310.01983311288
 21
742.60820421660367
 31
0.0
  0
LINE
  5
15ED
  8
TITLE
 10
3304.2365834925531
 20
735.07925714333874
 30
0.0
 11
3310.01983311288
 21
740.86250676366444
 31
0.0
  0
LINE
  5
15EE
  8
TITLE
 10
3305.9822809454931
 20
735.07925714333874
 30
0.0
 11
3310.01983311288
 21
739.11680931072101
 31
0.0
  0
LINE
  5
15EF
  8
TITLE
 10
3307.7279783984332
 20
735.07925714333874
 30
0.0
 11
3310.01983311288
 21
737.37111185777519
 31
0.0
  0
LINE
  5
15F0
  8
TITLE
 10
3309.4736758513782
 20
735.07925714333874
 30
0.0
 11
3310.01983311288
 21
735.62541440483812
 31
0.0
  0
LINE
  5
15F1
  8
TITLE
 10
3322.978153334157
 20
732.87245754984099
 30
0.0
 11
3324.9069809517532
 21
734.80128516737432
 31
0.0
  0
LINE
  5
15F2
  8
TITLE
 10
3322.978153334157
 20
715.41548302055173
 30
0.0
 11
3359.6080645678931
 21
752.0453942543021
 31
0.0
  0
LINE
  5
15F3
  8
TITLE
 10
3322.978153334157
 20
713.66978556761524
 30
0.0
 11
3360.646171040039
 21
751.33780327342458
 31
0.0
  0
LINE
  5
15F4
  8
TITLE
 10
3326.2157149781351
 20
715.16164975872402
 30
0.0
 11
3361.7595261806759
 21
750.70546096111445
 31
0.0
  0
LINE
  5
15F5
  8
TITLE
 10
3331.0757897869012
 20
718.27602711440466
 30
0.0
 11
3362.9534888555918
 21
750.15372618316621
 31
0.0
  0
LINE
  5
15F6
  8
TITLE
 10
3322.978153334157
 20
718.90687792636822
 30
0.0
 11
3357.7455392678489
 21
753.67426386006446
 31
0.0
  0
LINE
  5
15F7
  8
TITLE
 10
3322.978153334157
 20
717.16118047342525
 30
0.0
 11
3358.641798993649
 21
752.82482613306809
 31
0.0
  0
LINE
  5
15F8
  8
TITLE
 10
3332.9697968983928
 20
742.86410111400539
 30
0.0
 11
3363.7241702639999
 21
773.61847447962305
 31
0.0
  0
LINE
  5
15F9
  8
TITLE
 10
3322.978153334157
 20
731.12676009690074
 30
0.0
 11
3354.3212436394151
 21
762.46985040216555
 31
0.0
  0
LINE
  5
15FA
  8
TITLE
 10
3322.978153334157
 20
729.38106264402472
 30
0.0
 11
3354.3212436394151
 21
760.724152949217
 31
0.0
  0
LINE
  5
15FB
  8
TITLE
 10
3322.978153334157
 20
727.63536519107947
 30
0.0
 11
3354.3485018578372
 21
759.00571371463047
 31
0.0
  0
LINE
  5
15FC
  8
TITLE
 10
3322.978153334157
 20
725.88966773813934
 30
0.0
 11
3354.872354202666
 21
757.78386860651165
 31
0.0
  0
LINE
  5
15FD
  8
TITLE
 10
3322.978153334157
 20
724.14397028519716
 30
0.0
 11
3355.479087219037
 21
756.64490417008369
 31
0.0
  0
LINE
  5
15FE
  8
TITLE
 10
3322.978153334157
 20
722.39827283225623
 30
0.0
 11
3356.1625780987579
 21
755.58269759678319
 31
0.0
  0
LINE
  5
15FF
  8
TITLE
 10
3322.978153334157
 20
720.65257537931438
 30
0.0
 11
3356.9188353949198
 21
754.59325744015905
 31
0.0
  0
LINE
  5
1600
  8
TITLE
 10
3368.425633576298
 20
748.64308109209583
 30
0.0
 11
3375.208737886519
 21
755.42618540239368
 31
0.0
  0
LINE
  5
1601
  8
TITLE
 10
3368.425633576298
 20
746.89738363922504
 30
0.0
 11
3376.9544353394631
 21
755.42618540239368
 31
0.0
  0
LINE
  5
1602
  8
TITLE
 10
3368.425633576298
 20
745.1516861862832
 30
0.0
 11
3378.700132792414
 21
755.42618540239368
 31
0.0
  0
LINE
  5
1603
  8
TITLE
 10
3368.425633576298
 20
750.38877854504165
 30
0.0
 11
3373.4630404335812
 21
755.42618540239368
 31
0.0
  0
LINE
  5
1604
  8
TITLE
 10
3368.425633576298
 20
753.88017345085473
 30
0.0
 11
3369.9716455276939
 21
755.42618540239368
 31
0.0
  0
LINE
  5
1605
  8
TITLE
 10
3368.425633576298
 20
752.13447599799053
 30
0.0
 11
3371.7173429806348
 21
755.42618540239368
 31
0.0
  0
LINE
  5
1606
  8
TITLE
 10
3337.4250229165932
 20
752.55641949111714
 30
0.0
 11
3362.206867494649
 21
777.33826406909554
 31
0.0
  0
LINE
  5
1607
  8
TITLE
 10
3336.6350339235032
 20
750.02073304500686
 30
0.0
 11
3363.7241702639999
 21
777.10986938550593
 31
0.0
  0
LINE
  5
1608
  8
TITLE
 10
3335.37764697478
 20
747.0176486434159
 30
0.0
 11
3363.7241702639999
 21
775.36417193256534
 31
0.0
  0
LINE
  5
1609
  8
TITLE
 10
3445.895077200872
 20
778.97869348770871
 30
0.0
 11
3449.4718043359339
 21
782.55542062262282
 31
0.0
  0
LINE
  5
160A
  8
TITLE
 10
3445.895077200872
 20
777.23299603476505
 30
0.0
 11
3451.217501788733
 21
782.55542062262282
 31
0.0
  0
LINE
  5
160B
  8
TITLE
 10
3445.895077200872
 20
775.48729858182594
 30
0.0
 11
3452.9631992416798
 21
782.55542062262282
 31
0.0
  0
LINE
  5
160C
  8
TITLE
 10
3445.895077200872
 20
768.50450877005414
 30
0.0
 11
3459.9459890534458
 21
782.55542062262282
 31
0.0
  0
LINE
  5
160D
  8
TITLE
 10
3447.605352503399
 20
768.46908661963926
 30
0.0
 11
3461.6916865063899
 21
782.55542062262282
 31
0.0
  0
LINE
  5
160E
  8
TITLE
 10
3418.7913815441129
 20
771.07766981310317
 30
0.0
 11
3430.269137270338
 21
782.55542553933412
 31
0.0
  0
LINE
  5
160F
  8
TITLE
 10
3417.0456840911679
 20
771.07766981310317
 30
0.0
 11
3428.523439817393
 21
782.55542553933412
 31
0.0
  0
LINE
  5
1610
  8
TITLE
 10
3425.7741713558789
 20
771.07766981310317
 30
0.0
 11
3436.8580460860749
 21
782.16154454337754
 31
0.0
  0
LINE
  5
1611
  8
TITLE
 10
3420.5370789970498
 20
771.07766981310317
 30
0.0
 11
3432.0148347232748
 21
782.55542553933412
 31
0.0
  0
LINE
  5
1612
  8
TITLE
 10
3422.2827764499948
 20
771.07766981310317
 30
0.0
 11
3433.7605321762212
 21
782.55542553933412
 31
0.0
  0
LINE
  5
1613
  8
TITLE
 10
3424.028473902938
 20
771.07766981310317
 30
0.0
 11
3435.5062296291658
 21
782.55542553933412
 31
0.0
  0
LINE
  5
1614
  8
TITLE
 10
3445.895077200872
 20
771.99590367593646
 30
0.0
 11
3456.4545941475608
 21
782.55542062262282
 31
0.0
  0
LINE
  5
1615
  8
TITLE
 10
3445.895077200872
 20
770.25020622299428
 30
0.0
 11
3458.2002916005022
 21
782.55542062262282
 31
0.0
  0
LINE
  5
1616
  8
TITLE
 10
3445.895077200872
 20
773.74160112888535
 30
0.0
 11
3454.7088966946171
 21
782.55542062262282
 31
0.0
  0
LINE
  5
1617
  8
TITLE
 10
3434.5026586204499
 20
771.07766981310317
 30
0.0
 11
3436.8580460860749
 21
773.43305727880238
 31
0.0
  0
LINE
  5
1618
  8
TITLE
 10
3436.2483560733931
 20
771.07766981310317
 30
0.0
 11
3436.8580460860749
 21
771.68735982585747
 31
0.0
  0
LINE
  5
1619
  8
TITLE
 10
3431.0112637145662
 20
771.07766981310317
 30
0.0
 11
3436.8580460860749
 21
776.9244521846847
 31
0.0
  0
LINE
  5
161A
  8
TITLE
 10
3432.756961167509
 20
771.07766981310317
 30
0.0
 11
3436.8580460860749
 21
775.17875473174001
 31
0.0
  0
LINE
  5
161B
  8
TITLE
 10
3427.5198688088208
 20
771.07766981310317
 30
0.0
 11
3436.8580460860749
 21
780.41584709050687
 31
0.0
  0
LINE
  5
161C
  8
TITLE
 10
3429.2655662616198
 20
771.07766981310317
 30
0.0
 11
3436.8580460860749
 21
778.67014963756128
 31
0.0
  0
LINE
  5
161D
  8
TITLE
 10
3445.895077200872
 20
782.47008839352929
 30
0.0
 11
3445.9804094300448
 21
782.55542062262282
 31
0.0
  0
LINE
  5
161E
  8
TITLE
 10
3445.895077200872
 20
780.7243909406601
 30
0.0
 11
3447.726106882993
 21
782.55542062262282
 31
0.0
  0
LINE
  5
161F
  8
TITLE
 10
3417.2522269948199
 20
708.43910441131811
 30
0.0
 11
3429.3131304360918
 21
720.50000785258123
 31
0.0
  0
LINE
  5
1620
  8
TITLE
 10
3418.001704927919
 20
707.44288489139592
 30
0.0
 11
3429.9876560714529
 21
719.42883603500138
 31
0.0
  0
LINE
  5
1621
  8
TITLE
 10
3418.76883841162
 20
706.46432092222449
 30
0.0
 11
3430.6801084139961
 21
718.37559092460492
 31
0.0
  0
LINE
  5
1622
  8
TITLE
 10
3419.55350045565
 20
705.50328551331768
 30
0.0
 11
3431.3902711316291
 21
717.34005618943502
 31
0.0
  0
LINE
  5
1623
  8
TITLE
 10
3424.625162498995
 20
700.10076283900185
 30
0.0
 11
3436.0139655677131
 21
711.48956590778334
 31
0.0
  0
LINE
  5
1624
  8
TITLE
 10
3425.530752153893
 20
699.26065504108942
 30
0.0
 11
3436.8439477402062
 21
710.57385062740423
 31
0.0
  0
LINE
  5
1625
  8
TITLE
 10
3428.3513796402349
 20
696.8441901686142
 30
0.0
 11
3436.8580460860749
 21
705.35085661452115
 31
0.0
  0
LINE
  5
1626
  8
TITLE
 10
3426.4536089473659
 20
698.43781438162318
 30
0.0
 11
3436.8580460860749
 21
708.84225152040938
 31
0.0
  0
LINE
  5
1627
  8
TITLE
 10
3427.3937916097502
 20
697.63229959106866
 30
0.0
 11
3436.8580460860749
 21
707.09655406746367
 31
0.0
  0
LINE
  5
1628
  8
TITLE
 10
3420.35558605606
 20
704.55967366084883
 30
0.0
 11
3432.1179521071308
 21
716.32203971184856
 31
0.0
  0
LINE
  5
1629
  8
TITLE
 10
3421.1750115615182
 20
703.63340171329435
 30
0.0
 11
3432.862982250444
 21
715.32137240229395
 31
0.0
  0
LINE
  5
162A
  8
TITLE
 10
3422.0117141729002
 20
702.72440687173594
 30
0.0
 11
3433.625214477679
 21
714.33790717651527
 31
0.0
  0
LINE
  5
162B
  8
TITLE
 10
3422.8656515724292
 20
701.83264681847413
 30
0.0
 11
3434.4045228391128
 21
713.37151808499789
 31
0.0
  0
LINE
  5
162C
  8
TITLE
 10
3423.7368016750661
 20
700.95809946815507
 30
0.0
 11
3435.2008017865901
 21
712.42209957953708
 31
0.0
  0
LINE
  5
162D
  8
TITLE
 10
3445.895077200872
 20
695.18521574708313
 30
0.0
 11
3453.7460914771391
 21
703.03623002328482
 31
0.0
  0
LINE
  5
162E
  8
TITLE
 10
3445.895077200872
 20
693.4395182941438
 30
0.0
 11
3455.597744103613
 21
703.14218519688109
 31
0.0
  0
LINE
  5
162F
  8
TITLE
 10
3445.895077200872
 20
691.69382084120048
 30
0.0
 11
3457.4620898549761
 21
703.2608334952306
 31
0.0
  0
LINE
  5
1630
  8
TITLE
 10
3445.895077200872
 20
689.94812338833094
 30
0.0
 11
3459.3394094632758
 21
703.39245565073588
 31
0.0
  0
LINE
  5
1631
  8
TITLE
 10
3445.895077200872
 20
688.20242593538489
 30
0.0
 11
3461.2299958415019
 21
703.53734457587825
 31
0.0
  0
LINE
  5
1632
  8
TITLE
 10
3445.895077200872
 20
696.93091319995665
 30
0.0
 11
3451.9068627266302
 21
702.94269872571795
 31
0.0
  0
LINE
  5
1633
  8
TITLE
 10
3429.3264737814411
 20
696.07358685687382
 30
0.0
 11
3436.8580460860749
 21
703.60515916165366
 31
0.0
  0
LINE
  5
1634
  8
TITLE
 10
3430.3191966261811
 20
695.32061224866516
 30
0.0
 11
3436.8580460860749
 21
701.85946170870739
 31
0.0
  0
LINE
  5
1635
  8
TITLE
 10
3431.3296933670749
 20
694.58541153668875
 30
0.0
 11
3436.8580460860749
 21
700.11376425576543
 31
0.0
  0
LINE
  5
1636
  8
TITLE
 10
3433.4047078869621
 20
693.16903115068942
 30
0.0
 11
3436.8580460860749
 21
696.62236934988255
 31
0.0
  0
LINE
  5
1637
  8
TITLE
 10
3434.469638019933
 20
692.48826383065909
 30
0.0
 11
3436.8580460860749
 21
694.87667189693661
 31
0.0
  0
LINE
  5
1638
  8
TITLE
 10
3436.6555775390161
 20
691.18280844391586
 30
0.0
 11
3436.8580460860749
 21
691.3852769910485
 31
0.0
  0
LINE
  5
1639
  8
TITLE
 10
3435.5531694629758
 20
691.82609782088912
 30
0.0
 11
3436.8580460860749
 21
693.13097444399057
 31
0.0
  0
LINE
  5
163A
  8
TITLE
 10
3432.3581326988742
 20
693.86815341547879
 30
0.0
 11
3436.8580460860749
 21
698.36806680282223
 31
0.0
  0
LINE
  5
163B
  8
TITLE
 10
3445.895077200872
 20
702.16800555878535
 30
0.0
 11
3446.4611862522602
 21
702.73411461018645
 31
0.0
  0
LINE
  5
163C
  8
TITLE
 10
3445.895077200872
 20
700.42230810584454
 30
0.0
 11
3448.2646534470391
 21
702.79188435201127
 31
0.0
  0
LINE
  5
163D
  8
TITLE
 10
3445.895077200872
 20
698.67661065289951
 30
0.0
 11
3450.079799440919
 21
702.86133289301711
 31
0.0
  0
LINE
  5
163E
  8
TITLE
 10
3426.0543753020988
 20
743.42671451244451
 30
0.0
 11
3436.8580460860749
 21
754.23038529656776
 31
0.0
  0
LINE
  5
163F
  8
TITLE
 10
3427.8000727548988
 20
743.42671451244451
 30
0.0
 11
3436.8580460860749
 21
752.48468784363138
 31
0.0
  0
LINE
  5
1640
  8
TITLE
 10
3449.0293876325049
 20
750.69044976652106
 30
0.0
 11
3452.7216880241722
 21
754.38275015832664
 31
0.0
  0
LINE
  5
1641
  8
TITLE
 10
3449.0293876325049
 20
748.94475231357535
 30
0.0
 11
3454.4673854771181
 21
754.38275015832664
 31
0.0
  0
LINE
  5
1642
  8
TITLE
 10
3449.0293876325049
 20
747.19905486062987
 30
0.0
 11
3456.2130829300559
 21
754.38275015832664
 31
0.0
  0
LINE
  5
1643
  8
TITLE
 10
3449.0293876325049
 20
745.45335740775715
 30
0.0
 11
3457.958780383
 21
754.38275015832664
 31
0.0
  0
LINE
  5
1644
  8
TITLE
 10
3449.0293876325049
 20
743.70765995482304
 30
0.0
 11
3459.704477835945
 21
754.38275015832664
 31
0.0
  0
LINE
  5
1645
  8
TITLE
 10
3449.0293876325049
 20
741.96196250187415
 30
0.0
 11
3461.45017528889
 21
754.38275015832664
 31
0.0
  0
LINE
  5
1646
  8
TITLE
 10
3429.5457702078402
 20
743.42671451244451
 30
0.0
 11
3436.8580460860749
 21
750.73899039068556
 31
0.0
  0
LINE
  5
1647
  8
TITLE
 10
3431.2914676607811
 20
743.42671451244451
 30
0.0
 11
3436.8580460860749
 21
748.99329293773906
 31
0.0
  0
LINE
  5
1648
  8
TITLE
 10
3433.0371651137252
 20
743.42671451244451
 30
0.0
 11
3436.8580460860749
 21
747.24759548480256
 31
0.0
  0
LINE
  5
1649
  8
TITLE
 10
3436.5285600196121
 20
743.42671451244451
 30
0.0
 11
3436.8580460860749
 21
743.75620057898686
 31
0.0
  0
LINE
  5
164A
  8
TITLE
 10
3434.7828625666689
 20
743.42671451244451
 30
0.0
 11
3436.8580460860749
 21
745.50189803185663
 31
0.0
  0
LINE
  5
164B
  8
TITLE
 10
3449.0293876325049
 20
754.18184467240405
 30
0.0
 11
3449.2302931184299
 21
754.38275015832664
 31
0.0
  0
LINE
  5
164C
  8
TITLE
 10
3449.0293876325049
 20
752.43614721946415
 30
0.0
 11
3450.9759905713759
 21
754.38275015832664
 31
0.0
  0
LINE
  5
164D
  8
TITLE
 10
3424.3086778491538
 20
743.42671451244451
 30
0.0
 11
3436.3081487389559
 21
755.42618540239368
 31
0.0
  0
LINE
  5
164E
  8
TITLE
 10
3420.8172829432692
 20
743.42671451244451
 30
0.0
 11
3432.8167538332118
 21
755.42618540239368
 31
0.0
  0
LINE
  5
164F
  8
TITLE
 10
3422.5629803962079
 20
743.42671451244451
 30
0.0
 11
3434.5624512861568
 21
755.42618540239368
 31
0.0
  0
LINE
  5
1650
  8
TITLE
 10
3395.0672605692648
 20
761.31912846158696
 30
0.0
 11
3416.3035576469379
 21
782.55542553933412
 31
0.0
  0
LINE
  5
1651
  8
TITLE
 10
3395.0672605692648
 20
770.047615726304
 30
0.0
 11
3411.2611876803539
 21
786.24154283739711
 31
0.0
  0
LINE
  5
1652
  8
TITLE
 10
3395.0672605692648
 20
768.30191827336455
 30
0.0
 11
3411.2611876803539
 21
784.49584538445401
 31
0.0
  0
LINE
  5
1653
  8
TITLE
 10
3395.0672605692648
 20
766.55622082042487
 30
0.0
 11
3411.2611876803539
 21
782.75014793151445
 31
0.0
  0
LINE
  5
1654
  8
TITLE
 10
3395.0672605692648
 20
764.81052336748155
 30
0.0
 11
3412.812162741056
 21
782.55542553933412
 31
0.0
  0
LINE
  5
1655
  8
TITLE
 10
3395.0672605692648
 20
763.06482591453846
 30
0.0
 11
3414.5578601939978
 21
782.55542553933412
 31
0.0
  0
LINE
  5
1656
  8
TITLE
 10
3383.8774324855331
 20
771.07766981310317
 30
0.0
 11
3409.9055276995218
 21
797.10576502716344
 31
0.0
  0
LINE
  5
1657
  8
TITLE
 10
3385.6231299384799
 20
771.07766981310317
 30
0.0
 11
3411.2611876803539
 21
796.71572755491729
 31
0.0
  0
LINE
  5
1658
  8
TITLE
 10
3387.3688273914172
 20
771.07766981310317
 30
0.0
 11
3411.2611876803539
 21
794.97003010204128
 31
0.0
  0
LINE
  5
1659
  8
TITLE
 10
3389.114524844359
 20
771.07766981310317
 30
0.0
 11
3411.2611876803539
 21
793.22433264909557
 31
0.0
  0
LINE
  5
165A
  8
TITLE
 10
3390.8602222973059
 20
771.07766981310317
 30
0.0
 11
3411.2611876803539
 21
791.47863519615851
 31
0.0
  0
LINE
  5
165B
  8
TITLE
 10
3392.6059197501058
 20
771.07766981310317
 30
0.0
 11
3411.2611876803539
 21
789.73293774328283
 31
0.0
  0
LINE
  5
165C
  8
TITLE
 10
3394.3516172030531
 20
771.07766981310317
 30
0.0
 11
3411.2611876803539
 21
787.9872402903369
 31
0.0
  0
LINE
  5
165D
  8
TITLE
 10
3395.0672605692648
 20
792.74168261442492
 30
0.0
 11
3399.4313429820049
 21
797.10576502716344
 31
0.0
  0
LINE
  5
165E
  8
TITLE
 10
3395.0672605692648
 20
790.99598516148137
 30
0.0
 11
3401.1770404349541
 21
797.10576502716344
 31
0.0
  0
LINE
  5
165F
  8
TITLE
 10
3395.0672605692648
 20
789.25028770853919
 30
0.0
 11
3402.9227378878959
 21
797.10576502716344
 31
0.0
  0
LINE
  5
1660
  8
TITLE
 10
3395.0672605692648
 20
787.50459025559587
 30
0.0
 11
3404.66843534083
 21
797.10576502716344
 31
0.0
  0
LINE
  5
1661
  8
TITLE
 10
3395.0672605692648
 20
785.75889280265915
 30
0.0
 11
3406.4141327937818
 21
797.10576502716344
 31
0.0
  0
LINE
  5
1662
  8
TITLE
 10
3395.0672605692648
 20
784.01319534971333
 30
0.0
 11
3408.1598302467251
 21
797.10576502716344
 31
0.0
  0
LINE
  5
1663
  8
TITLE
 10
3395.0672605692648
 20
796.23307752024004
 30
0.0
 11
3395.9399480761208
 21
797.10576502716344
 31
0.0
  0
LINE
  5
1664
  8
TITLE
 10
3395.0672605692648
 20
794.48738006730332
 30
0.0
 11
3397.6856455290658
 21
797.10576502716344
 31
0.0
  0
LINE
  5
1665
  8
TITLE
 10
3395.0672605692648
 20
696.72832270327513
 30
0.0
 11
3411.2611876803539
 21
712.92224981436209
 31
0.0
  0
LINE
  5
1666
  8
TITLE
 10
3395.0672605692648
 20
694.98262525032987
 30
0.0
 11
3411.2611876803539
 21
711.17655236141616
 31
0.0
  0
LINE
  5
1667
  8
TITLE
 10
3395.0672605692648
 20
693.23692779738406
 30
0.0
 11
3411.2611876803539
 21
709.43085490847375
 31
0.0
  0
LINE
  5
1668
  8
TITLE
 10
3395.0672605692648
 20
691.49123034444392
 30
0.0
 11
3411.2611876803539
 21
707.68515745553054
 31
0.0
  0
LINE
  5
1669
  8
TITLE
 10
3395.0672605692648
 20
689.7455328914989
 30
0.0
 11
3411.2611876803539
 21
705.93946000258461
 31
0.0
  0
LINE
  5
166A
  8
TITLE
 10
3395.0672605692648
 20
687.99983543863357
 30
0.0
 11
3411.2611876803539
 21
704.19376254971235
 31
0.0
  0
LINE
  5
166B
  8
TITLE
 10
3395.0672605692648
 20
686.25413798568525
 30
0.0
 11
3411.2611876803539
 21
702.44806509677449
 31
0.0
  0
LINE
  5
166C
  8
TITLE
 10
3396.3721073182192
 20
685.81328728176368
 30
0.0
 11
3411.2611876803539
 21
700.70236764382958
 31
0.0
  0
LINE
  5
166D
  8
TITLE
 10
3398.1178047711569
 20
685.81328728176368
 30
0.0
 11
3411.2611876803539
 21
698.95667019096209
 31
0.0
  0
LINE
  5
166E
  8
TITLE
 10
3395.0672605692648
 20
698.47402015622094
 30
0.0
 11
3411.2611876803539
 21
714.66794726730245
 31
0.0
  0
LINE
  5
166F
  8
TITLE
 10
3399.8635022240978
 20
685.81328728176368
 30
0.0
 11
3411.2611876803539
 21
697.21097273802229
 31
0.0
  0
LINE
  5
1670
  8
TITLE
 10
3401.6091996770392
 20
685.81328728176368
 30
0.0
 11
3411.2611876803539
 21
695.46527528507659
 31
0.0
  0
LINE
  5
1671
  8
TITLE
 10
3403.3548971299851
 20
685.81328728176368
 30
0.0
 11
3411.2611876803539
 21
693.71957783213952
 31
0.0
  0
LINE
  5
1672
  8
TITLE
 10
3405.1005945829329
 20
685.81328728176368
 30
0.0
 11
3411.2611876803539
 21
691.97388037919382
 31
0.0
  0
LINE
  5
1673
  8
TITLE
 10
3406.8462920358761
 20
685.81328728176368
 30
0.0
 11
3411.2611876803539
 21
690.22818292623595
 31
0.0
  0
LINE
  5
1674
  8
TITLE
 10
3408.5919894888179
 20
685.81328728176368
 30
0.0
 11
3411.2611876803539
 21
688.48248547329911
 31
0.0
  0
LINE
  5
1675
  8
TITLE
 10
3410.3376869416138
 20
685.81328728176368
 30
0.0
 11
3411.2611876803539
 21
686.73678802035636
 31
0.0
  0
LINE
  5
1676
  8
TITLE
 10
3395.0672605692648
 20
701.96541506202846
 30
0.0
 11
3411.2611876803539
 21
718.15934217319625
 31
0.0
  0
LINE
  5
1677
  8
TITLE
 10
3395.0672605692648
 20
700.21971760916131
 30
0.0
 11
3411.2611876803539
 21
716.41364472024463
 31
0.0
  0
LINE
  5
1678
  8
TITLE
 10
3384.1576364317498
 20
743.42671451244451
 30
0.0
 11
3411.2611876803539
 21
770.5302657610539
 31
0.0
  0
LINE
  5
1679
  8
TITLE
 10
3384.6740020170141
 20
738.70598773902213
 30
0.0
 11
3411.2611876803539
 21
765.29317340222258
 31
0.0
  0
LINE
  5
167A
  8
TITLE
 10
3384.0291941384999
 20
736.31548240756501
 30
0.0
 11
3411.2611876803539
 21
763.5474759492829
 31
0.0
  0
LINE
  5
167B
  8
TITLE
 10
3385.614229172545
 20
743.13760980044435
 30
0.0
 11
3411.2611876803539
 21
768.78456830811047
 31
0.0
  0
LINE
  5
167C
  8
TITLE
 10
3385.1957817177758
 20
740.97346489259519
 30
0.0
 11
3411.2611876803539
 21
767.03887085516556
 31
0.0
  0
LINE
  5
167D
  8
TITLE
 10
3383.2337456128971
 20
733.7743364290219
 30
0.0
 11
3411.2611876803539
 21
761.80177849633685
 31
0.0
  0
LINE
  5
167E
  8
TITLE
 10
3382.2467541169958
 20
731.04164748003336
 30
0.0
 11
3411.2611876803539
 21
760.05608104339683
 31
0.0
  0
LINE
  5
167F
  8
TITLE
 10
3381.0027671128391
 20
728.05196302307968
 30
0.0
 11
3411.2611876803539
 21
758.3103835905298
 31
0.0
  0
LINE
  5
1680
  8
TITLE
 10
3380.6662415258638
 20
743.42671451244451
 30
0.0
 11
3392.66571241581
 21
755.42618540239368
 31
0.0
  0
LINE
  5
1681
  8
TITLE
 10
3382.4119389788052
 20
743.42671451244451
 30
0.0
 11
3394.411409868756
 21
755.42618540239368
 31
0.0
  0
LINE
  5
1682
  8
TITLE
 10
3395.0672605692648
 20
759.57343100871765
 30
0.0
 11
3418.0492550998788
 21
782.55542553933412
 31
0.0
  0
LINE
  5
1683
  8
TITLE
 10
3395.0672605692648
 20
757.82773355577444
 30
0.0
 11
3419.7949525528202
 21
782.55542553933412
 31
0.0
  0
LINE
  5
1684
  8
TITLE
 10
3395.0672605692648
 20
756.082036102904
 30
0.0
 11
3421.540650005621
 21
782.55542553933412
 31
0.0
  0
LINE
  5
1685
  8
TITLE
 10
3415.2999866382238
 20
771.07766981310317
 30
0.0
 11
3426.7777423644561
 21
782.55542553933412
 31
0.0
  0
LINE
  5
1686
  8
TITLE
 10
3411.8085917323401
 20
771.07766981310317
 30
0.0
 11
3423.2863474585661
 21
782.55542553933412
 31
0.0
  0
LINE
  5
1687
  8
TITLE
 10
3413.5542891852788
 20
771.07766981310317
 30
0.0
 11
3425.0320449115088
 21
782.55542553933412
 31
0.0
  0
LINE
  5
1688
  8
TITLE
 10
3395.0672605692648
 20
717.67669213844454
 30
0.0
 11
3420.6865957004202
 21
743.29602726960502
 31
0.0
  0
LINE
  5
1689
  8
TITLE
 10
3395.0672605692648
 20
715.93099468550133
 30
0.0
 11
3420.9592411641838
 21
741.82297528041556
 31
0.0
  0
LINE
  5
168A
  8
TITLE
 10
3395.0672605692648
 20
714.18529723255836
 30
0.0
 11
3421.2611034220231
 21
740.37914008531459
 31
0.0
  0
LINE
  5
168B
  8
TITLE
 10
3395.0672605692648
 20
712.43959977961595
 30
0.0
 11
3421.590897040865
 21
738.96323625121784
 31
0.0
  0
LINE
  5
168C
  8
TITLE
 10
3395.0672605692648
 20
710.69390232666944
 30
0.0
 11
3421.94746855318
 21
737.57411031074048
 31
0.0
  0
LINE
  5
168D
  8
TITLE
 10
3395.0672605692648
 20
708.94820487373045
 30
0.0
 11
3422.3297795673352
 21
736.21072387186916
 31
0.0
  0
LINE
  5
168E
  8
TITLE
 10
3395.0672605692648
 20
707.20250742078429
 30
0.0
 11
3422.7368926525751
 21
734.87213950423495
 31
0.0
  0
LINE
  5
168F
  8
TITLE
 10
3395.0672605692648
 20
705.45680996791668
 30
0.0
 11
3423.1679594671832
 21
733.55750886590454
 31
0.0
  0
LINE
  5
1690
  8
TITLE
 10
3413.1362384351719
 20
714.79730056917504
 30
0.0
 11
3425.6579946347051
 21
727.31905676871281
 31
0.0
  0
LINE
  5
1691
  8
TITLE
 10
3413.7757660237962
 20
713.69113070499805
 30
0.0
 11
3426.2188602992851
 21
726.13422498035118
 31
0.0
  0
LINE
  5
1692
  8
TITLE
 10
3414.4342281848012
 20
712.60389541292466
 30
0.0
 11
3426.7995517857962
 21
724.96921901391499
 31
0.0
  0
LINE
  5
1693
  8
TITLE
 10
3415.111343658336
 20
711.53531343366205
 30
0.0
 11
3427.3996705438572
 21
723.82364031917325
 31
0.0
  0
LINE
  5
1694
  8
TITLE
 10
3415.8068605032781
 20
710.48513282565489
 30
0.0
 11
3428.0188541135449
 21
722.69712643592254
 31
0.0
  0
LINE
  5
1695
  8
TITLE
 10
3416.520554368215
 20
709.45312923766335
 30
0.0
 11
3428.656773424626
 21
721.58934829398402
 31
0.0
  0
LINE
  5
1696
  8
TITLE
 10
3395.0672605692648
 20
703.71111251497166
 30
0.0
 11
3423.622210709812
 21
732.26606265559735
 31
0.0
  0
LINE
  5
1697
  8
TITLE
 10
3411.33455934415
 20
718.23271383699125
 30
0.0
 11
3424.0989475703318
 21
730.99710206324062
 31
0.0
  0
LINE
  5
1698
  8
TITLE
 10
3411.9152708308752
 20
717.06772787076852
 30
0.0
 11
3424.5975344185258
 21
729.74999145842514
 31
0.0
  0
LINE
  5
1699
  8
TITLE
 10
3412.5159579849401
 20
715.92271757188826
 30
0.0
 11
3425.1173925228818
 21
728.52415210983349
 31
0.0
  0
LINE
  5
169B
  8
TITLE
 10
3782.7695378374942
 20
754.49378136790813
 30
0.0
 11
3799.6521422783399
 21
771.37638580875705
 31
0.0
  0
LINE
  5
169C
  8
TITLE
 10
3788.0066301963188
 20
754.49378136790813
 30
0.0
 11
3799.6521422783399
 21
766.13929345000099
 31
0.0
  0
LINE
  5
169D
  8
TITLE
 10
3789.7523276492661
 20
754.49378136790813
 30
0.0
 11
3799.6521422783399
 21
764.39359599705494
 31
0.0
  0
LINE
  5
169E
  8
TITLE
 10
3784.5152352904352
 20
754.49378136790813
 30
0.0
 11
3799.6521422783399
 21
769.63068835582033
 31
0.0
  0
LINE
  5
169F
  8
TITLE
 10
3786.2609327433802
 20
754.49378136790813
 30
0.0
 11
3799.6521422783399
 21
767.8849909029442
 31
0.0
  0
LINE
  5
16A0
  8
TITLE
 10
3773.4427571510519
 20
685.81328728176368
 30
0.0
 11
3790.4875511063801
 21
702.85808123716959
 31
0.0
  0
LINE
  5
16A1
  8
TITLE
 10
3775.1884546038468
 20
685.81328728176368
 30
0.0
 11
3792.2332485593301
 21
702.85808123716959
 31
0.0
  0
LINE
  5
16A2
  8
TITLE
 10
3776.9341520567968
 20
685.81328728176368
 30
0.0
 11
3793.9789460122761
 21
702.85808123716959
 31
0.0
  0
LINE
  5
16A3
  8
TITLE
 10
3778.6798495097341
 20
685.81328728176368
 30
0.0
 11
3795.724643465076
 21
702.85808123716959
 31
0.0
  0
LINE
  5
16A4
  8
TITLE
 10
3780.4255469626751
 20
685.81328728176368
 30
0.0
 11
3797.4703409180138
 21
702.85808123716959
 31
0.0
  0
LINE
  5
16A5
  8
TITLE
 10
3782.1712444156219
 20
685.81328728176368
 30
0.0
 11
3799.216038370957
 21
702.85808123716959
 31
0.0
  0
LINE
  5
16A6
  8
TITLE
 10
3783.9169418685651
 20
685.81328728176368
 30
0.0
 11
3800.9617358238952
 21
702.85808123716959
 31
0.0
  0
LINE
  5
16A7
  8
TITLE
 10
3785.6626393215038
 20
685.81328728176368
 30
0.0
 11
3802.7074332768402
 21
702.85808123716959
 31
0.0
  0
LINE
  5
16A8
  8
TITLE
 10
3787.4083367744538
 20
685.81328728176368
 30
0.0
 11
3804.4531307297939
 21
702.85808123716959
 31
0.0
  0
LINE
  5
16A9
  8
TITLE
 10
3789.154034227397
 20
685.81328728176368
 30
0.0
 11
3804.6717390498729
 21
701.33099210423552
 31
0.0
  0
LINE
  5
16AA
  8
TITLE
 10
3765.0169030723782
 20
745.46963386743505
 30
0.0
 11
3791.0858445282579
 21
771.53857532332484
 31
0.0
  0
LINE
  5
16AB
  8
TITLE
 10
3765.0169030723782
 20
743.72393641449571
 30
0.0
 11
3792.8315419812002
 21
771.53857532332484
 31
0.0
  0
LINE
  5
16AC
  8
TITLE
 10
3765.0169030723782
 20
741.97823896155239
 30
0.0
 11
3794.5772394341411
 21
771.53857532332484
 31
0.0
  0
LINE
  5
16AD
  8
TITLE
 10
3765.0169030723782
 20
740.23254150861555
 30
0.0
 11
3796.3229368870861
 21
771.53857532332484
 31
0.0
  0
LINE
  5
16AE
  8
TITLE
 10
3765.0169030723782
 20
738.48684405566701
 30
0.0
 11
3798.0686343398852
 21
771.53857532332484
 31
0.0
  0
LINE
  5
16B1
  8
TITLE
 10
3613.4607696839598
 20
775.46603558359493
 30
0.0
 11
3634.6499768024651
 21
796.65524270224921
 31
0.0
  0
LINE
  5
16B2
  8
TITLE
 10
3586.152726444071
 20
756.8864796084913
 30
0.0
 11
3626.3720118627421
 21
797.10576502716344
 31
0.0
  0
LINE
  5
16B3
  8
TITLE
 10
3599.6506861688849
 20
766.89304442727666
 30
0.0
 11
3629.8634067686298
 21
797.10576502716344
 31
0.0
  0
LINE
  5
16B4
  8
TITLE
 10
3603.4991322452629
 20
768.99579305085365
 30
0.0
 11
3631.6091042215712
 21
797.10576502716344
 31
0.0
  0
LINE
  5
16B5
  8
TITLE
 10
3596.1780906966128
 20
765.16614640808916
 30
0.0
 11
3628.1177093156848
 21
797.10576502716344
 31
0.0
  0
LINE
  5
16B6
  8
TITLE
 10
3607.928416358609
 20
771.67937971119363
 30
0.0
 11
3633.3548016745158
 21
797.10576502709637
 31
0.0
  0
LINE
  5
16B7
  8
TITLE
 10
3625.814088260624
 20
782.58226180157578
 30
0.0
 11
3637.3127558915048
 21
794.08092943238842
 31
0.0
  0
LINE
  5
16B8
  8
TITLE
 10
3624.0035248857589
 20
784.26309333253357
 30
0.0
 11
3635.5241244079548
 21
795.78369285472513
 31
0.0
  0
LINE
  5
16B9
  8
TITLE
 10
3624.90376527835
 20
783.41763627216937
 30
0.0
 11
3636.4117139395362
 21
794.92558493335673
 31
0.0
  0
LINE
  5
16BA
  8
TITLE
 10
3625.0584736520332
 20
685.81328728176368
 30
0.0
 11
3658.6768236231092
 21
719.43163725299041
 31
0.0
  0
LINE
  5
16BB
  8
TITLE
 10
3623.3127761990959
 20
685.81328728176368
 30
0.0
 11
3656.9311261701728
 21
719.43163725299041
 31
0.0
  0
LINE
  5
16BC
  8
TITLE
 10
3612.838591481438
 20
685.81328728176368
 30
0.0
 11
3627.1662441301751
 21
700.14093993043696
 31
0.0
  0
LINE
  5
16BD
  8
TITLE
 10
3614.5842889343799
 20
685.81328728176368
 30
0.0
 11
3628.9119415829819
 21
700.14093993043696
 31
0.0
  0
LINE
  5
16BE
  8
TITLE
 10
3616.3299863873208
 20
685.81328728176368
 30
0.0
 11
3630.6576390359191
 21
700.14093993043696
 31
0.0
  0
LINE
  5
16BF
  8
TITLE
 10
3618.0756838402599
 20
685.81328728176368
 30
0.0
 11
3632.4845785566208
 21
700.22218199812437
 31
0.0
  0
LINE
  5
16C0
  8
TITLE
 10
3619.8213812932049
 20
685.81328728176368
 30
0.0
 11
3634.6296277216138
 21
700.6215337101695
 31
0.0
  0
LINE
  5
16C1
  8
TITLE
 10
3621.5670787461499
 20
685.81328728176368
 30
0.0
 11
3637.3912978813551
 21
701.63750641696436
 31
0.0
  0
LINE
  5
16C2
  8
TITLE
 10
3612.5623396861101
 20
725.68807690369817
 30
0.0
 11
3626.6393344315802
 21
739.76507164923555
 31
0.0
  0
LINE
  5
16C3
  8
TITLE
 10
3614.3080371389101
 20
725.68807690369817
 30
0.0
 11
3628.385031884518
 21
739.76507164923555
 31
0.0
  0
LINE
  5
16C4
  8
TITLE
 10
3616.053734591856
 20
725.68807690369817
 30
0.0
 11
3630.1307293374589
 21
739.76507164923555
 31
0.0
  0
LINE
  5
16C5
  8
TITLE
 10
3617.7994320448001
 20
725.68807690369817
 30
0.0
 11
3631.8764267902652
 21
739.76507164923555
 31
0.0
  0
LINE
  5
16C6
  8
TITLE
 10
3619.5451294977429
 20
725.68807690369817
 30
0.0
 11
3633.6221242432048
 21
739.76507164923555
 31
0.0
  0
LINE
  5
16C7
  8
TITLE
 10
3621.2908269506761
 20
725.68807690369817
 30
0.0
 11
3635.367821696153
 21
739.76507164923555
 31
0.0
  0
LINE
  5
16C8
  8
TITLE
 10
3623.036524403627
 20
725.68807690369817
 30
0.0
 11
3637.1135191490848
 21
739.76507164923555
 31
0.0
  0
LINE
  5
16C9
  8
TITLE
 10
3624.7822218565739
 20
725.68807690369817
 30
0.0
 11
3638.8592166020321
 21
739.76507164923555
 31
0.0
  0
LINE
  5
16CA
  8
TITLE
 10
3611.0628622589688
 20
748.62836381768943
 30
0.0
 11
3626.7039675318301
 21
764.26946909048775
 31
0.0
  0
LINE
  5
16CB
  8
TITLE
 10
3612.8085597119202
 20
748.62836381768943
 30
0.0
 11
3628.4496649846401
 21
764.26946909048775
 31
0.0
  0
LINE
  5
16CC
  8
TITLE
 10
3614.5542571648512
 20
748.62836381768943
 30
0.0
 11
3630.195362437576
 21
764.26946909048775
 31
0.0
  0
LINE
  5
16CD
  8
TITLE
 10
3616.2999546177998
 20
748.62836381768943
 30
0.0
 11
3631.9410598905192
 21
764.26946909048775
 31
0.0
  0
LINE
  5
16CE
  8
TITLE
 10
3618.0456520707389
 20
748.62836381768943
 30
0.0
 11
3633.6867573434661
 21
764.26946909048775
 31
0.0
  0
LINE
  5
16CF
  8
TITLE
 10
3619.791349523683
 20
748.62836381768943
 30
0.0
 11
3635.4324547964029
 21
764.26946909048775
 31
0.0
  0
LINE
  5
16D0
  8
TITLE
 10
3621.5370469766258
 20
748.62836381768943
 30
0.0
 11
3637.1781522493511
 21
764.26946909048775
 31
0.0
  0
LINE
  5
16D1
  8
TITLE
 10
3623.2827444294248
 20
748.62836381768943
 30
0.0
 11
3638.9238497022889
 21
764.26946909048775
 31
0.0
  0
LINE
  5
16D2
  8
TITLE
 10
3625.028441882373
 20
748.62836381768943
 30
0.0
 11
3640.6695471552398
 21
764.26946909048775
 31
0.0
  0
LINE
  5
16D3
  8
TITLE
 10
3531.3988302439461
 20
768.46908661963926
 30
0.0
 11
3545.4851642469348
 21
782.55542062262282
 31
0.0
  0
LINE
  5
16D4
  8
TITLE
 10
3533.1445276968898
 20
768.46908661963926
 30
0.0
 11
3547.2308616998839
 21
782.55542062262282
 31
0.0
  0
LINE
  5
16D5
  8
TITLE
 10
3534.8902251498348
 20
768.46908661963926
 30
0.0
 11
3548.9765591528248
 21
782.55542062262282
 31
0.0
  0
LINE
  5
16D6
  8
TITLE
 10
3536.635922602778
 20
768.46908661963926
 30
0.0
 11
3550.7222566057708
 21
782.55542062262282
 31
0.0
  0
LINE
  5
16D7
  8
TITLE
 10
3538.3816200557212
 20
768.46908661963926
 30
0.0
 11
3552.4679540587158
 21
782.55542062262282
 31
0.0
  0
LINE
  5
16D8
  8
TITLE
 10
3540.1273175086621
 20
768.46908661963926
 30
0.0
 11
3554.2136515116581
 21
782.55542062262282
 31
0.0
  0
LINE
  5
16D9
  8
TITLE
 10
3541.8730149616081
 20
768.46908661963926
 30
0.0
 11
3555.9593489645949
 21
782.55542062262282
 31
0.0
  0
LINE
  5
16DA
  8
TITLE
 10
3543.6187124145499
 20
768.46908661963926
 30
0.0
 11
3557.1630391446602
 21
782.01341334982783
 31
0.0
  0
LINE
  5
16DB
  8
TITLE
 10
3539.401959152915
 20
792.18349260495552
 30
0.0
 11
3544.3242315751349
 21
797.10576502716344
 31
0.0
  0
LINE
  5
16DC
  8
TITLE
 10
3539.401959152915
 20
790.43779515200629
 30
0.0
 11
3546.0699290280759
 21
797.10576502716344
 31
0.0
  0
LINE
  5
16DD
  8
TITLE
 10
3539.401959152915
 20
788.69209769906342
 30
0.0
 11
3547.815626481015
 21
797.10576502716344
 31
0.0
  0
LINE
  5
16DE
  8
TITLE
 10
3540.7498586216211
 20
788.29429971497507
 30
0.0
 11
3549.5613239339632
 21
797.10576502716344
 31
0.0
  0
LINE
  5
16DF
  8
TITLE
 10
3542.4955560745748
 20
788.29429971497507
 30
0.0
 11
3551.3070213869059
 21
797.10576502716344
 31
0.0
  0
LINE
  5
16E0
  8
TITLE
 10
3544.2412535275139
 20
788.29429971497507
 30
0.0
 11
3553.0527188398491
 21
797.10576502716344
 31
0.0
  0
LINE
  5
16E1
  8
TITLE
 10
3533.4469115498782
 20
704.18066471414954
 30
0.0
 11
3544.7119924976259
 21
715.44574566204415
 31
0.0
  0
LINE
  5
16E2
  8
TITLE
 10
3534.2672314181832
 20
703.25528712965934
 30
0.0
 11
3545.5647226180959
 21
714.55277832942784
 31
0.0
  0
LINE
  5
16E3
  8
TITLE
 10
3535.1014930313299
 20
702.34385128986946
 30
0.0
 11
3546.4384063687999
 21
713.68076462733495
 31
0.0
  0
LINE
  5
16E4
  8
TITLE
 10
3535.9496669715809
 20
701.44632777717572
 30
0.0
 11
3547.3330451942379
 21
712.82970599983287
 31
0.0
  0
LINE
  5
16E5
  8
TITLE
 10
3536.8117344708139
 20
700.5626978234626
 30
0.0
 11
3548.2486768267931
 21
711.99964017937646
 31
0.0
  0
LINE
  5
16E6
  8
TITLE
 10
3537.687687339278
 20
699.69295323899155
 30
0.0
 11
3549.1853756152232
 21
711.19064151493728
 31
0.0
  0
LINE
  5
16E7
  8
TITLE
 10
3538.577527934412
 20
698.83709638118501
 30
0.0
 11
3550.1432531739351
 21
710.40282162069718
 31
0.0
  0
LINE
  5
16E8
  8
TITLE
 10
3541.3305583292031
 20
696.35303441721271
 30
0.0
 11
3553.1456567937948
 21
708.16813288180344
 31
0.0
  0
LINE
  5
16E9
  8
TITLE
 10
3542.2761855070562
 20
695.55296414220118
 30
0.0
 11
3554.1901530265659
 21
707.46693166163516
 31
0.0
  0
LINE
  5
16EA
  8
TITLE
 10
3543.2358721364249
 20
694.76695331861629
 30
0.0
 11
3555.2569926549199
 21
706.78807383704441
 31
0.0
  0
LINE
  5
16EB
  8
TITLE
 10
3544.2096854747938
 20
693.99506920404428
 30
0.0
 11
3556.3465452053588
 21
706.13192893453299
 31
0.0
  0
LINE
  5
16EC
  8
TITLE
 10
3539.481269169476
 20
697.99514016336843
 30
0.0
 11
3551.1224593674592
 21
709.63633036128385
 31
0.0
  0
LINE
  5
16ED
  8
TITLE
 10
3540.3989345632231
 20
697.16710810424399
 30
0.0
 11
3552.1231836509378
 21
708.89135719181604
 31
0.0
  0
LINE
  5
16EE
  8
TITLE
 10
3514.3274897107972
 20
756.63483844523785
 30
0.0
 11
3540.2480718882589
 21
782.55542062262282
 31
0.0
  0
LINE
  5
16EF
  8
TITLE
 10
3514.3274897107972
 20
754.8891409923649
 30
0.0
 11
3541.9937693410561
 21
782.55542062262282
 31
0.0
  0
LINE
  5
16F0
  8
TITLE
 10
3514.3274897107972
 20
761.87193080399402
 30
0.0
 11
3535.0109795294202
 21
782.55542062262282
 31
0.0
  0
LINE
  5
16F1
  8
TITLE
 10
3514.3274897107972
 20
760.12623335112335
 30
0.0
 11
3536.7566769823661
 21
782.55542062262282
 31
0.0
  0
LINE
  5
16F2
  8
TITLE
 10
3514.3274897107972
 20
758.3805358981773
 30
0.0
 11
3538.5023744353161
 21
782.55542062262282
 31
0.0
  0
LINE
  5
16F3
  8
TITLE
 10
3501.7219735442
 20
768.46908661963926
 30
0.0
 11
3530.358651951733
 21
797.10576502716344
 31
0.0
  0
LINE
  5
16F4
  8
TITLE
 10
3503.4676709971432
 20
768.46908661963926
 30
0.0
 11
3531.0438011154361
 21
796.04521673799366
 31
0.0
  0
LINE
  5
16F5
  8
TITLE
 10
3505.2133684500891
 20
768.46908661963926
 30
0.0
 11
3531.0438011154361
 21
794.29951928505704
 31
0.0
  0
LINE
  5
16F6
  8
TITLE
 10
3506.9590659030291
 20
768.46908661963926
 30
0.0
 11
3531.0438011154361
 21
792.55382183218114
 31
0.0
  0
LINE
  5
16F7
  8
TITLE
 10
3508.70476335584
 20
768.46908661963926
 30
0.0
 11
3531.0438011154361
 21
790.80812437923794
 31
0.0
  0
LINE
  5
16F8
  8
TITLE
 10
3510.4504608087741
 20
768.46908661963926
 30
0.0
 11
3531.0438011154361
 21
789.06242692629564
 31
0.0
  0
LINE
  5
16F9
  8
TITLE
 10
3512.19615826172
 20
768.46908661963926
 30
0.0
 11
3531.0438011154361
 21
787.31672947334948
 31
0.0
  0
LINE
  5
16FA
  8
TITLE
 10
3513.941855714661
 20
768.46908661963926
 30
0.0
 11
3531.0438011154361
 21
785.57103202041549
 31
0.0
  0
LINE
  5
16FB
  8
TITLE
 10
3514.3274897107972
 20
767.10902316281874
 30
0.0
 11
3531.0438011154361
 21
783.82533456746398
 31
0.0
  0
LINE
  5
16FC
  8
TITLE
 10
3514.3274897107972
 20
765.36332570987634
 30
0.0
 11
3531.5195846235351
 21
782.55542062262282
 31
0.0
  0
LINE
  5
16FD
  8
TITLE
 10
3514.3274897107972
 20
763.61762825693597
 30
0.0
 11
3533.2652820764802
 21
782.55542062262282
 31
0.0
  0
LINE
  5
16FE
  8
TITLE
 10
3499.9762760912608
 20
768.46908661963926
 30
0.0
 11
3514.0626100942559
 21
782.55542062262282
 31
0.0
  0
LINE
  5
16FF
  8
TITLE
 10
3539.401959152915
 20
795.67488751076542
 30
0.0
 11
3540.8328366692399
 21
797.10576502716344
 31
0.0
  0
LINE
  5
1700
  8
TITLE
 10
3539.401959152915
 20
793.92919005782198
 30
0.0
 11
3542.578534122194
 21
797.10576502716344
 31
0.0
  0
LINE
  5
1701
  8
TITLE
 10
3514.3274897107972
 20
782.82030023916479
 30
0.0
 11
3528.6129544987939
 21
797.10576502716344
 31
0.0
  0
LINE
  5
1702
  8
TITLE
 10
3514.3274897107972
 20
788.05739259799361
 30
0.0
 11
3523.3758621399602
 21
797.10576502716344
 31
0.0
  0
LINE
  5
1703
  8
TITLE
 10
3514.3274897107972
 20
786.31169514504791
 30
0.0
 11
3525.1215595929061
 21
797.10576502716344
 31
0.0
  0
LINE
  5
1704
  8
TITLE
 10
3514.3274897107972
 20
784.56599769211095
 30
0.0
 11
3526.8672570458539
 21
797.10576502716344
 31
0.0
  0
LINE
  5
1705
  8
TITLE
 10
3514.3274897107972
 20
793.29448495675501
 30
0.0
 11
3518.1387697811301
 21
797.10576502716344
 31
0.0
  0
LINE
  5
1706
  8
TITLE
 10
3514.3274897107972
 20
791.54878750387627
 30
0.0
 11
3519.8844672340751
 21
797.10576502716344
 31
0.0
  0
LINE
  5
1707
  8
TITLE
 10
3514.3274897107972
 20
789.80309005093682
 30
0.0
 11
3521.630164687017
 21
797.10576502716344
 31
0.0
  0
LINE
  5
1708
  8
TITLE
 10
3514.3274897107972
 20
796.78587986263778
 30
0.0
 11
3514.6473748753829
 21
797.10576502716344
 31
0.0
  0
LINE
  5
1709
  8
TITLE
 10
3514.3274897107972
 20
795.0401824096956
 30
0.0
 11
3516.3930723283379
 21
797.10576502716344
 31
0.0
  0
LINE
  5
170A
  8
TITLE
 10
3470.299419391511
 20
768.46908661963926
 30
0.0
 11
3484.3857533945038
 21
782.55542062262282
 31
0.0
  0
LINE
  5
170B
  8
TITLE
 10
3472.0451168443101
 20
768.46908661963926
 30
0.0
 11
3486.1314508474538
 21
782.55542062262282
 31
0.0
  0
LINE
  5
170C
  8
TITLE
 10
3473.7908142972542
 20
768.46908661963926
 30
0.0
 11
3487.8771483002488
 21
782.55542062262282
 31
0.0
  0
LINE
  5
170D
  8
TITLE
 10
3475.5365117501992
 20
768.46908661963926
 30
0.0
 11
3489.622845753197
 21
782.55542062262282
 31
0.0
  0
LINE
  5
170E
  8
TITLE
 10
3477.2822092031411
 20
768.46908661963926
 30
0.0
 11
3491.3685432061338
 21
782.55542062262282
 31
0.0
  0
LINE
  5
170F
  8
TITLE
 10
3479.0279066560861
 20
768.46908661963926
 30
0.0
 11
3493.114240659078
 21
782.55542062262282
 31
0.0
  0
LINE
  5
1710
  8
TITLE
 10
3480.773604109027
 20
768.46908661963926
 30
0.0
 11
3494.859938112023
 21
782.55542062262282
 31
0.0
  0
LINE
  5
1711
  8
TITLE
 10
3482.5193015619679
 20
768.46908661963926
 30
0.0
 11
3496.6056355649662
 21
782.55542062262282
 31
0.0
  0
LINE
  5
1712
  8
TITLE
 10
3466.8080244856292
 20
768.46908661963926
 30
0.0
 11
3480.8943584886219
 21
782.55542062262282
 31
0.0
  0
LINE
  5
1713
  8
TITLE
 10
3468.5537219385751
 20
768.46908661963926
 30
0.0
 11
3482.6400559415661
 21
782.55542062262282
 31
0.0
  0
LINE
  5
1714
  8
TITLE
 10
3463.3166295797419
 20
768.46908661963926
 30
0.0
 11
3477.4029635827392
 21
782.55542062262282
 31
0.0
  0
LINE
  5
1715
  8
TITLE
 10
3465.0623270326851
 20
768.46908661963926
 30
0.0
 11
3479.1486610356751
 21
782.55542062262282
 31
0.0
  0
LINE
  5
1716
  8
TITLE
 10
3484.264999014913
 20
768.46908661963926
 30
0.0
 11
3498.3513330179048
 21
782.55542062262282
 31
0.0
  0
LINE
  5
1717
  8
TITLE
 10
3486.0106964678589
 20
768.46908661963926
 30
0.0
 11
3500.0970304708521
 21
782.55542062262282
 31
0.0
  0
LINE
  5
1718
  8
TITLE
 10
3487.7563939208021
 20
768.46908661963926
 30
0.0
 11
3501.8427279237981
 21
782.55542062262282
 31
0.0
  0
LINE
  5
1719
  8
TITLE
 10
3489.5020913735998
 20
768.46908661963926
 30
0.0
 11
3503.5884253767358
 21
782.55542062262282
 31
0.0
  0
LINE
  5
171A
  8
TITLE
 10
3491.2477888265412
 20
768.46908661963926
 30
0.0
 11
3505.3341228296799
 21
782.55542062262282
 31
0.0
  0
LINE
  5
171B
  8
TITLE
 10
3492.9934862794862
 20
768.46908661963926
 30
0.0
 11
3507.0798202824749
 21
782.55542062262282
 31
0.0
  0
LINE
  5
171C
  8
TITLE
 10
3494.739183732429
 20
768.46908661963926
 30
0.0
 11
3508.8255177354199
 21
782.55542062262282
 31
0.0
  0
LINE
  5
171D
  8
TITLE
 10
3496.4848811853699
 20
768.46908661963926
 30
0.0
 11
3510.5712151883658
 21
782.55542062262282
 31
0.0
  0
LINE
  5
171E
  8
TITLE
 10
3498.2305786383158
 20
768.46908661963926
 30
0.0
 11
3512.3169126413131
 21
782.55542062262282
 31
0.0
  0
LINE
  5
171F
  8
TITLE
 10
3528.8207956154129
 20
710.02873349734625
 30
0.0
 11
3540.040193501839
 21
721.24813138377567
 31
0.0
  0
LINE
  5
1720
  8
TITLE
 10
3529.5562312485972
 20
709.01847167752067
 30
0.0
 11
3540.7651611539409
 21
720.2274015829438
 31
0.0
  0
LINE
  5
1721
  8
TITLE
 10
3530.3060181116098
 20
708.02256108766642
 30
0.0
 11
3541.5118577048788
 21
719.22840068093535
 31
0.0
  0
LINE
  5
1722
  8
TITLE
 10
3531.0700589964949
 20
707.04090451960315
 30
0.0
 11
3542.280055751733
 21
718.250901274846
 31
0.0
  0
LINE
  5
1723
  8
TITLE
 10
3531.8482686845659
 20
706.07341675487748
 30
0.0
 11
3543.0695690535499
 21
717.29471712371242
 31
0.0
  0
LINE
  5
1724
  8
TITLE
 10
3532.6405736063389
 20
705.12002422355636
 30
0.0
 11
3543.8802508394251
 21
716.35970145672059
 31
0.0
  0
LINE
  5
1725
  8
TITLE
 10
3523.4699455107989
 20
718.6434630161425
 30
0.0
 11
3535.065721192535
 21
730.23923869794305
 31
0.0
  0
LINE
  5
1726
  8
TITLE
 10
3524.0854741502039
 20
717.51329420260515
 30
0.0
 11
3535.6027872988989
 21
729.03060735130339
 31
0.0
  0
LINE
  5
1727
  8
TITLE
 10
3524.7166239503099
 20
716.39874654976688
 30
0.0
 11
3536.1652528736709
 21
727.84737547312409
 31
0.0
  0
LINE
  5
1728
  8
TITLE
 10
3525.3631821139738
 20
715.29960726056049
 30
0.0
 11
3536.7524364780302
 21
726.68886162461467
 31
0.0
  0
LINE
  5
1729
  8
TITLE
 10
3526.0249529003768
 20
714.21568059407957
 30
0.0
 11
3537.3637323330699
 21
725.55446002671704
 31
0.0
  0
LINE
  5
172A
  8
TITLE
 10
3526.7017567057451
 20
713.14678694651218
 30
0.0
 11
3537.9986030428558
 21
724.4436332836234
 31
0.0
  0
LINE
  5
172B
  8
TITLE
 10
3527.393429242145
 20
712.09276202989645
 30
0.0
 11
3538.6565734472451
 21
723.35590623506891
 31
0.0
  0
LINE
  5
172C
  8
TITLE
 10
3528.0998208041092
 20
711.05345613899794
 30
0.0
 11
3539.3372254247402
 21
722.29086075962505
 31
0.0
  0
LINE
  5
172D
  8
TITLE
 10
3504.8731661636248
 20
694.80959131014265
 30
0.0
 11
3514.3274897107972
 21
704.26391485737747
 31
0.0
  0
LINE
  5
172E
  8
TITLE
 10
3507.380237434732
 20
695.57096512829969
 30
0.0
 11
3514.3274897107972
 21
702.51821740442892
 31
0.0
  0
LINE
  5
172F
  8
TITLE
 10
3509.936311542549
 20
696.38134178325436
 30
0.0
 11
3514.3274897107972
 21
700.77251995155564
 31
0.0
  0
LINE
  5
1730
  8
TITLE
 10
3512.5450120133769
 20
697.24434480105958
 30
0.0
 11
3514.3274897107972
 21
699.02682249861596
 31
0.0
  0
LINE
  5
1731
  8
TITLE
 10
3516.00783386682
 20
739.11251061896962
 30
0.0
 11
3531.0254000230962
 21
754.13007677538565
 31
0.0
  0
LINE
  5
1732
  8
TITLE
 10
3516.3246257195692
 20
737.68360501890493
 30
0.0
 11
3530.9289639881972
 21
752.28794328754077
 31
0.0
  0
LINE
  5
1733
  8
TITLE
 10
3516.6641575478052
 20
736.27743939413119
 30
0.0
 11
3530.8985860178209
 21
750.51186786407595
 31
0.0
  0
LINE
  5
1734
  8
TITLE
 10
3517.0256650073552
 20
734.8932494008136
 30
0.0
 11
3530.9275276338012
 21
748.79511202726314
 31
0.0
  0
LINE
  5
1735
  8
TITLE
 10
3517.4084470999342
 20
733.53033404044982
 30
0.0
 11
3531.0102985738858
 21
747.13218551432988
 31
0.0
  0
LINE
  5
1736
  8
TITLE
 10
3505.6741218997749
 20
739.25298336958031
 30
0.0
 11
3508.5812531412112
 21
742.1601146110138
 31
0.0
  0
LINE
  5
1737
  8
TITLE
 10
3517.8118597112739
 20
732.18804919884519
 30
0.0
 11
3531.1423575728609
 21
745.51854706044355
 31
0.0
  0
LINE
  5
1738
  8
TITLE
 10
3518.2353100094952
 20
730.86580204426491
 30
0.0
 11
3531.3199000918421
 21
743.9503921266155
 31
0.0
  0
LINE
  5
1739
  8
TITLE
 10
3518.6782515698101
 20
729.56304615149975
 30
0.0
 11
3531.5397039457521
 21
742.42449852743675
 31
0.0
  0
LINE
  5
173A
  8
TITLE
 10
3519.140180112528
 20
728.27927724126926
 30
0.0
 11
3531.7990146095781
 21
740.93811173831125
 31
0.0
  0
LINE
  5
173B
  8
TITLE
 10
3522.2866944663128
 20
720.95160687753855
 30
0.0
 11
3534.0709448756588
 21
732.73585728689272
 31
0.0
  0
LINE
  5
173C
  8
TITLE
 10
3522.8702689123352
 20
719.78948387062462
 30
0.0
 11
3534.5548202860659
 21
731.47403524435174
 31
0.0
  0
LINE
  5
173D
  8
TITLE
 10
3519.6206297678432
 20
727.01402944371557
 30
0.0
 11
3532.0954584051929
 21
739.48885808098782
 31
0.0
  0
LINE
  5
173E
  8
TITLE
 10
3520.1191697885902
 20
725.76687201144284
 30
0.0
 11
3532.4269757069951
 21
738.07467792984994
 31
0.0
  0
LINE
  5
173F
  8
TITLE
 10
3520.6354016495411
 20
724.53740641959723
 30
0.0
 11
3532.7917688064399
 21
736.69377357649876
 31
0.0
  0
LINE
  5
1740
  8
TITLE
 10
3521.1689564822159
 20
723.32526379925582
 30
0.0
 11
3533.188260694345
 21
735.34456801138015
 31
0.0
  0
LINE
  5
1741
  8
TITLE
 10
3521.7194927980381
 20
722.13010266220431
 30
0.0
 11
3533.6150621011229
 21
734.0256719653039
 31
0.0
  0
LINE
  5
1742
  8
TITLE
 10
3507.4198193527191
 20
739.25298336958031
 30
0.0
 11
3508.5812531412112
 21
740.41441715806502
 31
0.0
  0
LINE
  5
1743
  8
TITLE
 10
3499.9935593646069
 20
693.42137941701014
 30
0.0
 11
3514.3274897107972
 21
707.75530976318998
 31
0.0
  0
LINE
  5
1744
  8
TITLE
 10
3502.411891377456
 20
694.09401397705767
 30
0.0
 11
3514.3274897107972
 21
706.00961231024485
 31
0.0
  0
LINE
  5
1745
  8
TITLE
 10
3500.4370295409449
 20
739.25298336958031
 30
0.0
 11
3508.5812531412112
 21
747.39720696984227
 31
0.0
  0
LINE
  5
1746
  8
TITLE
 10
3502.1827269938899
 20
739.25298336958031
 30
0.0
 11
3508.5812531412112
 21
745.65150951689395
 31
0.0
  0
LINE
  5
1747
  8
TITLE
 10
3503.9284244468381
 20
739.25298336958031
 30
0.0
 11
3508.5812531412112
 21
743.90581206395666
 31
0.0
  0
LINE
  5
1748
  8
TITLE
 10
3472.0143199002841
 20
716.06736608767267
 30
0.0
 11
3487.1634784242769
 21
731.21652461165854
 31
0.0
  0
LINE
  5
1749
  8
TITLE
 10
3472.0143199002841
 20
714.32166863480256
 30
0.0
 11
3487.1634784242769
 21
729.47082715871284
 31
0.0
  0
LINE
  5
174A
  8
TITLE
 10
3472.0143199002841
 20
712.57597118185777
 30
0.0
 11
3487.1634784242769
 21
727.72512970577566
 31
0.0
  0
LINE
  5
174B
  8
TITLE
 10
3472.0143199002841
 20
710.83027372891718
 30
0.0
 11
3487.1634784242769
 21
725.97943225290533
 31
0.0
  0
LINE
  5
174C
  8
TITLE
 10
3472.0143199002841
 20
709.08457627597124
 30
0.0
 11
3487.1634784242769
 21
724.23373479996314
 31
0.0
  0
LINE
  5
174D
  8
TITLE
 10
3472.0143199002841
 20
707.33887882302895
 30
0.0
 11
3487.1634784242769
 21
722.48803734701426
 31
0.0
  0
LINE
  5
174E
  8
TITLE
 10
3472.0143199002841
 20
705.59318137008313
 30
0.0
 11
3487.1634784242769
 21
720.74233989406832
 31
0.0
  0
LINE
  5
174F
  8
TITLE
 10
3472.0143199002841
 20
719.55876099355316
 30
0.0
 11
3487.1634784242769
 21
734.70791951747424
 31
0.0
  0
LINE
  5
1750
  8
TITLE
 10
3472.0143199002841
 20
717.81306354061599
 30
0.0
 11
3487.1634784242769
 21
732.9622220645291
 31
0.0
  0
LINE
  5
1751
  8
TITLE
 10
3465.6263205935602
 20
686.98529989290205
 30
0.0
 11
3487.1634784242769
 21
708.52245772361709
 31
0.0
  0
LINE
  5
1752
  8
TITLE
 10
3467.587135018955
 20
687.20041686521222
 30
0.0
 11
3487.1758915405148
 21
706.78917338692509
 31
0.0
  0
LINE
  5
1753
  8
TITLE
 10
3469.5684957418512
 20
687.43608013531002
 30
0.0
 11
3489.2920527681331
 21
707.15963716158353
 31
0.0
  0
LINE
  5
1754
  8
TITLE
 10
3471.5711331425132
 20
687.69302008295585
 30
0.0
 11
3491.4280435522051
 21
707.5499304927165
 31
0.0
  0
LINE
  5
1755
  8
TITLE
 10
3473.595827690554
 20
687.972017178123
 30
0.0
 11
3493.5845168349251
 21
707.96070632250144
 31
0.0
  0
LINE
  5
1756
  8
TITLE
 10
3475.6434149041088
 20
688.27390693873826
 30
0.0
 11
3495.7621658549401
 21
708.39265788956925
 31
0.0
  0
LINE
  5
1757
  8
TITLE
 10
3477.7147909585601
 20
688.59958554024058
 30
0.0
 11
3497.9617277318748
 21
708.84652231355756
 31
0.0
  0
LINE
  5
1758
  8
TITLE
 10
3463.6853677803342
 20
686.79004453247501
 30
0.0
 11
3487.1634784242769
 21
710.26815517648765
 31
0.0
  0
LINE
  5
1759
  8
TITLE
 10
3465.5230804823741
 20
739.25298336958031
 30
0.0
 11
3480.652847271117
 21
754.38275015832664
 31
0.0
  0
LINE
  5
175A
  8
TITLE
 10
3467.2687779353168
 20
739.25298336958031
 30
0.0
 11
3482.3985447240648
 21
754.38275015832664
 31
0.0
  0
LINE
  5
175B
  8
TITLE
 10
3469.014475388256
 20
739.25298336958031
 30
0.0
 11
3484.1442421769989
 21
754.38275015832664
 31
0.0
  0
LINE
  5
175C
  8
TITLE
 10
3470.7601728411992
 20
739.25298336958031
 30
0.0
 11
3485.8899396299489
 21
754.38275015832664
 31
0.0
  0
LINE
  5
175D
  8
TITLE
 10
3472.0143199002841
 20
738.76143297571741
 30
0.0
 11
3487.6356370828848
 21
754.38275015832664
 31
0.0
  0
LINE
  5
175E
  8
TITLE
 10
3472.0143199002841
 20
737.01573552284776
 30
0.0
 11
3489.381334535693
 21
754.38275015832664
 31
0.0
  0
LINE
  5
175F
  8
TITLE
 10
3472.0143199002841
 20
735.27003806990467
 30
0.0
 11
3491.1270319886312
 21
754.38275015832664
 31
0.0
  0
LINE
  5
1760
  8
TITLE
 10
3472.0143199002841
 20
733.52434061696522
 30
0.0
 11
3492.8727294415789
 21
754.38275015832664
 31
0.0
  0
LINE
  5
1761
  8
TITLE
 10
3463.7773830294218
 20
739.25298336958031
 30
0.0
 11
3478.9071498181688
 21
754.38275015832664
 31
0.0
  0
LINE
  5
1762
  8
TITLE
 10
3472.0143199002841
 20
731.77864316408898
 30
0.0
 11
3494.6184268945171
 21
754.38275015832664
 31
0.0
  0
LINE
  5
1763
  8
TITLE
 10
3472.0143199002841
 20
730.03294571114293
 30
0.0
 11
3496.3641243474608
 21
754.38275015832664
 31
0.0
  0
LINE
  5
1764
  8
TITLE
 10
3472.0143199002841
 20
728.28724825819734
 30
0.0
 11
3498.1098218004058
 21
754.38275015832664
 31
0.0
  0
LINE
  5
1765
  8
TITLE
 10
3472.0143199002841
 20
723.050155899375
 30
0.0
 11
3487.1634784242769
 21
738.19931442336315
 31
0.0
  0
LINE
  5
1766
  8
TITLE
 10
3472.0143199002841
 20
721.30445844642895
 30
0.0
 11
3487.1634784242769
 21
736.45361697041733
 31
0.0
  0
LINE
  5
1767
  8
TITLE
 10
3481.9328366966929
 20
689.326236372631
 30
0.0
 11
3502.4297824724458
 21
709.82318214838551
 31
0.0
  0
LINE
  5
1768
  8
TITLE
 10
3484.0816639690961
 20
689.72936619202437
 30
0.0
 11
3504.7000075489341
 21
710.34770977192704
 31
0.0
  0
LINE
  5
1769
  8
TITLE
 10
3479.8109190579662
 20
688.9500161868491
 30
0.0
 11
3500.1839874743209
 21
709.32308460314312
 31
0.0
  0
LINE
  5
176A
  8
TITLE
 10
3488.2171473704848
 20
739.25298336958031
 30
0.0
 11
3503.3469141592341
 21
754.38275015832664
 31
0.0
  0
LINE
  5
176B
  8
TITLE
 10
3472.0143199002841
 20
724.79585335231741
 30
0.0
 11
3501.6012167062909
 21
754.38275015832664
 31
0.0
  0
LINE
  5
176C
  8
TITLE
 10
3472.0143199002841
 20
726.54155080526323
 30
0.0
 11
3499.8555192533499
 21
754.38275015832664
 31
0.0
  0
LINE
  5
176D
  8
TITLE
 10
3486.2586131191779
 20
690.1606178891592
 30
0.0
 11
3506.9956206568222
 21
710.89762542687288
 31
0.0
  0
LINE
  5
176E
  8
TITLE
 10
3488.464999564796
 20
690.62130688190564
 30
0.0
 11
3509.317649327455
 21
711.47395664456189
 31
0.0
  0
LINE
  5
176F
  8
TITLE
 10
3490.7022546839439
 20
691.1128645481117
 30
0.0
 11
3511.6671979933358
 21
712.07780785750174
 31
0.0
  0
LINE
  5
1770
  8
TITLE
 10
3492.9719407211019
 20
691.63685313240103
 30
0.0
 11
3514.0454563365988
 21
712.71036874782703
 31
0.0
  0
LINE
  5
1771
  8
TITLE
 10
3495.2757682616161
 20
692.19498321990022
 30
0.0
 11
3514.3274897107972
 21
711.24670466907673
 31
0.0
  0
LINE
  5
1772
  8
TITLE
 10
3497.6156168350308
 20
692.78913434037031
 30
0.0
 11
3514.3274897107972
 21
709.50100721613035
 31
0.0
  0
LINE
  5
1773
  8
TITLE
 10
3489.9628448234271
 20
739.25298336958031
 30
0.0
 11
3505.0926116121791
 21
754.38275015832664
 31
0.0
  0
LINE
  5
1774
  8
TITLE
 10
3491.708542276378
 20
739.25298336958031
 30
0.0
 11
3506.8383090649791
 21
754.38275015832664
 31
0.0
  0
LINE
  5
1775
  8
TITLE
 10
3493.4542397293121
 20
739.25298336958031
 30
0.0
 11
3508.5812531412112
 21
754.3799967814623
 31
0.0
  0
LINE
  5
1776
  8
TITLE
 10
3495.1999371821112
 20
739.25298336958031
 30
0.0
 11
3508.5812531412112
 21
752.63429932859447
 31
0.0
  0
LINE
  5
1777
  8
TITLE
 10
3496.9456346350612
 20
739.25298336958031
 30
0.0
 11
3508.5812531412112
 21
750.88860187565786
 31
0.0
  0
LINE
  5
1778
  8
TITLE
 10
3498.6913320879989
 20
739.25298336958031
 30
0.0
 11
3508.5812531412112
 21
749.14290442270931
 31
0.0
  0
LINE
  5
1779
  8
TITLE
 10
3514.3497621599122
 20
753.16571598846394
 30
0.0
 11
3543.739466793998
 21
782.55542062262282
 31
0.0
  0
LINE
  5
177A
  8
TITLE
 10
3514.6375856458781
 20
748.21644711567842
 30
0.0
 11
3531.0438011154361
 21
764.62266258524085
 31
0.0
  0
LINE
  5
177B
  8
TITLE
 10
3514.7972168661699
 20
746.63038088303108
 30
0.0
 11
3531.0438011154361
 21
762.87696513229469
 31
0.0
  0
LINE
  5
177C
  8
TITLE
 10
3514.4120681550298
 20
751.48232453071739
 30
0.0
 11
3531.0438011154361
 21
768.1140574911235
 31
0.0
  0
LINE
  5
177D
  8
TITLE
 10
3514.5086406736141
 20
749.83319959636219
 30
0.0
 11
3531.0438011154361
 21
766.36836003818087
 31
0.0
  0
LINE
  5
177E
  8
TITLE
 10
3515.714617165575
 20
740.56499137081596
 30
0.0
 11
3531.0438011154361
 21
755.89417532066648
 31
0.0
  0
LINE
  5
177F
  8
TITLE
 10
3514.9860259771331
 20
745.07349254112353
 30
0.0
 11
3531.0438011154361
 21
761.13126767941606
 31
0.0
  0
LINE
  5
1780
  8
TITLE
 10
3515.2026578685491
 20
743.54442697959644
 30
0.0
 11
3531.0438011154361
 21
759.38557022647433
 31
0.0
  0
LINE
  5
1781
  8
TITLE
 10
3515.4458903413001
 20
742.04196199940088
 30
0.0
 11
3531.0438011154361
 21
757.63987277353635
 31
0.0
  0
LINE
  5
1782
  8
TITLE
 10
3581.8751021799949
 20
759.59164515604834
 30
0.0
 11
3619.3892220511138
 21
797.10576502716344
 31
0.0
  0
LINE
  5
1783
  8
TITLE
 10
3584.4542299579698
 20
760.42507548115725
 30
0.0
 11
3621.1349195040589
 21
797.10576502716344
 31
0.0
  0
LINE
  5
1784
  8
TITLE
 10
3586.152726444071
 20
760.37787451430381
 30
0.0
 11
3622.8806169569962
 21
797.10576502716344
 31
0.0
  0
LINE
  5
1785
  8
TITLE
 10
3586.152726444071
 20
758.63217706143712
 30
0.0
 11
3624.6263144097952
 21
797.10576502716344
 31
0.0
  0
LINE
  5
1786
  8
TITLE
 10
3586.152726444071
 20
755.14078215554775
 30
0.0
 11
3595.281413379003
 21
764.26946909048775
 31
0.0
  0
LINE
  5
1787
  8
TITLE
 10
3588.5194192529052
 20
712.11934118821625
 30
0.0
 11
3616.1651497139201
 21
739.76507164923555
 31
0.0
  0
LINE
  5
1788
  8
TITLE
 10
3590.9575472319202
 20
718.04886407304764
 30
0.0
 11
3612.6737548081792
 21
739.76507164923555
 31
0.0
  0
LINE
  5
1789
  8
TITLE
 10
3590.0912087846982
 20
715.43682817288595
 30
0.0
 11
3614.4194522609728
 21
739.76507164923555
 31
0.0
  0
LINE
  5
178A
  8
TITLE
 10
3581.416037328745
 20
685.81328728176368
 30
0.0
 11
3605.7938738431599
 21
710.19112379618264
 31
0.0
  0
LINE
  5
178B
  8
TITLE
 10
3583.1617347816932
 20
685.81328728176368
 30
0.0
 11
3604.0146474052631
 21
706.66619990540914
 31
0.0
  0
LINE
  5
178C
  8
TITLE
 10
3584.9074322346291
 20
685.81328728176368
 30
0.0
 11
3600.7516082567099
 21
701.65746330384673
 31
0.0
  0
LINE
  5
178D
  8
TITLE
 10
3586.6531296875769
 20
685.81328728176368
 30
0.0
 11
3600.980782336173
 21
700.14093993043696
 31
0.0
  0
LINE
  5
178E
  8
TITLE
 10
3588.3988271405201
 20
685.81328728176368
 30
0.0
 11
3602.7264797891139
 21
700.14093993043696
 31
0.0
  0
LINE
  5
178F
  8
TITLE
 10
3590.1445245934551
 20
685.81328728176368
 30
0.0
 11
3604.4721772420648
 21
700.14093993043696
 31
0.0
  0
LINE
  5
1790
  8
TITLE
 10
3581.1397855332798
 20
725.68807690369817
 30
0.0
 11
3595.2167802787421
 21
739.76507164923555
 31
0.0
  0
LINE
  5
1791
  8
TITLE
 10
3582.8854829862189
 20
725.68807690369817
 30
0.0
 11
3596.9624777316931
 21
739.76507164923555
 31
0.0
  0
LINE
  5
1792
  8
TITLE
 10
3584.6311804391662
 20
725.68807690369817
 30
0.0
 11
3598.708175184629
 21
739.76507164923555
 31
0.0
  0
LINE
  5
1793
  8
TITLE
 10
3586.3768778921099
 20
725.68807690369817
 30
0.0
 11
3600.4538726375758
 21
739.76507164923555
 31
0.0
  0
LINE
  5
1794
  8
TITLE
 10
3588.1225753450508
 20
725.68807690369817
 30
0.0
 11
3602.1995700905159
 21
739.76507164923555
 31
0.0
  0
LINE
  5
1795
  8
TITLE
 10
3589.868272797994
 20
725.68807690369817
 30
0.0
 11
3603.945267543455
 21
739.76507164923555
 31
0.0
  0
LINE
  5
1796
  8
TITLE
 10
3591.8902220462592
 20
685.81328728176368
 30
0.0
 11
3606.2178746950008
 21
700.14093993043696
 31
0.0
  0
LINE
  5
1797
  8
TITLE
 10
3593.6359194992019
 20
685.81328728176368
 30
0.0
 11
3607.9635721479472
 21
700.14093993043696
 31
0.0
  0
LINE
  5
1798
  8
TITLE
 10
3595.3816169521419
 20
685.81328728176368
 30
0.0
 11
3609.709269600894
 21
700.14093993043696
 31
0.0
  0
LINE
  5
1799
  8
TITLE
 10
3597.127314405092
 20
685.81328728176368
 30
0.0
 11
3611.4549670536921
 21
700.14093993043696
 31
0.0
  0
LINE
  5
179A
  8
TITLE
 10
3598.873011858037
 20
685.81328728176368
 30
0.0
 11
3613.200664506634
 21
700.14093993043696
 31
0.0
  0
LINE
  5
179B
  8
TITLE
 10
3600.618709310977
 20
685.81328728176368
 30
0.0
 11
3614.946361959574
 21
700.14093993043696
 31
0.0
  0
LINE
  5
179C
  8
TITLE
 10
3602.3644067639202
 20
685.81328728176368
 30
0.0
 11
3616.6920594125199
 21
700.14093993043696
 31
0.0
  0
LINE
  5
179D
  8
TITLE
 10
3604.1101042168589
 20
685.81328728176368
 30
0.0
 11
3618.4377568654568
 21
700.14093993043696
 31
0.0
  0
LINE
  5
179E
  8
TITLE
 10
3605.8558016698039
 20
685.81328728176368
 30
0.0
 11
3620.1834543184059
 21
700.14093993043696
 31
0.0
  0
LINE
  5
179F
  8
TITLE
 10
3607.601499122753
 20
685.81328728176368
 30
0.0
 11
3621.9291517713491
 21
700.14093993043696
 31
0.0
  0
LINE
  5
17A0
  8
TITLE
 10
3609.3471965756898
 20
685.81328728176368
 30
0.0
 11
3623.674849224295
 21
700.14093993043696
 31
0.0
  0
LINE
  5
17A1
  8
TITLE
 10
3611.0928940284962
 20
685.81328728176368
 30
0.0
 11
3625.4205466772291
 21
700.14093993043696
 31
0.0
  0
LINE
  5
17A2
  8
TITLE
 10
3591.6139702509381
 20
725.68807690369817
 30
0.0
 11
3605.6909649964041
 21
739.76507164923555
 31
0.0
  0
LINE
  5
17A3
  8
TITLE
 10
3591.8835041971829
 20
724.2119133969976
 30
0.0
 11
3607.436662449345
 21
739.76507164923555
 31
0.0
  0
LINE
  5
17A4
  8
TITLE
 10
3591.7600023098248
 20
722.34271405677475
 30
0.0
 11
3609.1823599022919
 21
739.76507164923555
 31
0.0
  0
LINE
  5
17A5
  8
TITLE
 10
3591.4720345641449
 20
720.30904885822417
 30
0.0
 11
3610.9280573552342
 21
739.76507164923555
 31
0.0
  0
LINE
  5
17A6
  8
TITLE
 10
3610.8166422331701
 20
725.68807690369817
 30
0.0
 11
3624.893636978632
 21
739.76507164923555
 31
0.0
  0
LINE
  5
17A7
  8
TITLE
 10
3586.152726444071
 20
753.39508470260284
 30
0.0
 11
3597.0271108319389
 21
764.26946909048775
 31
0.0
  0
LINE
  5
17A8
  8
TITLE
 10
3586.152726444071
 20
751.64938724966225
 30
0.0
 11
3598.7728082848898
 21
764.26946909048775
 31
0.0
  0
LINE
  5
17A9
  8
TITLE
 10
3586.152726444071
 20
749.90368979671655
 30
0.0
 11
3600.518505737833
 21
764.26946909048775
 31
0.0
  0
LINE
  5
17AA
  8
TITLE
 10
3586.6230979179072
 20
748.62836381768943
 30
0.0
 11
3602.2642031907731
 21
764.26946909048775
 31
0.0
  0
LINE
  5
17AB
  8
TITLE
 10
3588.3687953708531
 20
748.62836381768943
 30
0.0
 11
3604.009900643719
 21
764.26946909048775
 31
0.0
  0
LINE
  5
17AC
  8
TITLE
 10
3590.1144928238009
 20
748.62836381768943
 30
0.0
 11
3605.7555980966599
 21
764.26946909048775
 31
0.0
  0
LINE
  5
17AD
  8
TITLE
 10
3591.8601902767341
 20
748.62836381768943
 30
0.0
 11
3607.501295549599
 21
764.26946909048775
 31
0.0
  0
LINE
  5
17AE
  8
TITLE
 10
3593.6058877296859
 20
748.62836381768943
 30
0.0
 11
3609.2469930025509
 21
764.26946909048775
 31
0.0
  0
LINE
  5
17AF
  8
TITLE
 10
3595.3515851826251
 20
748.62836381768943
 30
0.0
 11
3610.9926904553458
 21
764.26946909048775
 31
0.0
  0
LINE
  5
17B0
  8
TITLE
 10
3597.097282635561
 20
748.62836381768943
 30
0.0
 11
3612.738387908289
 21
764.26946909048775
 31
0.0
  0
LINE
  5
17B1
  8
TITLE
 10
3598.8429800885092
 20
748.62836381768943
 30
0.0
 11
3614.4840853612332
 21
764.26946909048775
 31
0.0
  0
LINE
  5
17B2
  8
TITLE
 10
3600.588677541451
 20
748.62836381768943
 30
0.0
 11
3616.2297828141809
 21
764.26946909048775
 31
0.0
  0
LINE
  5
17B3
  8
TITLE
 10
3602.3343749943938
 20
748.62836381768943
 30
0.0
 11
3617.9754802671191
 21
764.26946909048775
 31
0.0
  0
LINE
  5
17B4
  8
TITLE
 10
3604.0800724473388
 20
748.62836381768943
 30
0.0
 11
3619.7211777200619
 21
764.26946909048775
 31
0.0
  0
LINE
  5
17B5
  8
TITLE
 10
3605.8257699001392
 20
748.62836381768943
 30
0.0
 11
3621.4668751730051
 21
764.26946909048775
 31
0.0
  0
LINE
  5
17B6
  8
TITLE
 10
3607.5714673530802
 20
748.62836381768943
 30
0.0
 11
3623.212572625951
 21
764.26946909048775
 31
0.0
  0
LINE
  5
17B7
  8
TITLE
 10
3609.3171648060261
 20
748.62836381768943
 30
0.0
 11
3624.9582700788942
 21
764.26946909048775
 31
0.0
  0
LINE
  5
17B8
  8
TITLE
 10
3552.34719967912
 20
768.46908661963926
 30
0.0
 11
3557.1630391446602
 21
773.28492608518366
 31
0.0
  0
LINE
  5
17B9
  8
TITLE
 10
3554.0928971320591
 20
768.46908661963926
 30
0.0
 11
3557.1630391446602
 21
771.53922863223784
 31
0.0
  0
LINE
  5
17BA
  8
TITLE
 10
3555.838594585005
 20
768.46908661963926
 30
0.0
 11
3557.1630391446602
 21
769.79353117929497
 31
0.0
  0
LINE
  5
17BB
  8
TITLE
 10
3568.4034200056531
 20
772.30542477563745
 30
0.0
 11
3570.116354507059
 21
774.01835927711545
 31
0.0
  0
LINE
  5
17BC
  8
TITLE
 10
3568.4034200056531
 20
770.55972732269777
 30
0.0
 11
3572.2686724117461
 21
774.42497972885712
 31
0.0
  0
LINE
  5
17BD
  8
TITLE
 10
3568.4034200056531
 20
768.81402986983119
 30
0.0
 11
3574.5009944657472
 21
774.9116043299241
 31
0.0
  0
LINE
  5
17BE
  8
TITLE
 10
3568.4034200056531
 20
767.06833241688241
 30
0.0
 11
3576.8247696323829
 21
775.48968204361563
 31
0.0
  0
LINE
  5
17BF
  8
TITLE
 10
3548.8558047732322
 20
768.46908661963926
 30
0.0
 11
3557.1630391446602
 21
776.77632099105995
 31
0.0
  0
LINE
  5
17C0
  8
TITLE
 10
3550.6015022261749
 20
768.46908661963926
 30
0.0
 11
3557.1630391446602
 21
775.03062353812334
 31
0.0
  0
LINE
  5
17C1
  8
TITLE
 10
3568.4034200056531
 20
765.32263496393625
 30
0.0
 11
3579.2547720380412
 21
776.17398699632963
 31
0.0
  0
LINE
  5
17C2
  8
TITLE
 10
3545.3644098673531
 20
768.46908661963926
 30
0.0
 11
3557.1630391446602
 21
780.26771589687644
 31
0.0
  0
LINE
  5
17C3
  8
TITLE
 10
3547.1101073202949
 20
768.46908661963926
 30
0.0
 11
3557.1630391446602
 21
778.52201844400633
 31
0.0
  0
LINE
  5
17C4
  8
TITLE
 10
3545.9869509804548
 20
788.29429971497507
 30
0.0
 11
3554.7984162927951
 21
797.10576502716344
 31
0.0
  0
LINE
  5
17C5
  8
TITLE
 10
3547.7326484333962
 20
788.29429971497507
 30
0.0
 11
3556.5441137455932
 21
797.10576502716344
 31
0.0
  0
LINE
  5
17C6
  8
TITLE
 10
3549.478345886339
 20
788.29429971497507
 30
0.0
 11
3557.1630391446602
 21
795.97899297329445
 31
0.0
  0
LINE
  5
17C7
  8
TITLE
 10
3551.224043339284
 20
788.29429971497507
 30
0.0
 11
3557.1630391446602
 21
794.23329552034954
 31
0.0
  0
LINE
  5
17C8
  8
TITLE
 10
3552.969740792234
 20
788.29429971497507
 30
0.0
 11
3557.1630391446602
 21
792.48759806741555
 31
0.0
  0
LINE
  5
17C9
  8
TITLE
 10
3554.7154382451731
 20
788.29429971497507
 30
0.0
 11
3557.1630391446602
 21
790.74190061446313
 31
0.0
  0
LINE
  5
17CA
  8
TITLE
 10
3556.4611356981131
 20
788.29429971497507
 30
0.0
 11
3557.1630391446602
 21
788.99620316151766
 31
0.0
  0
LINE
  5
17CB
  8
TITLE
 10
3545.1977042617409
 20
693.23739053797397
 30
0.0
 11
3557.1630391446602
 21
705.20272542097473
 31
0.0
  0
LINE
  5
17CC
  8
TITLE
 10
3546.2000190312551
 20
692.49400785461535
 30
0.0
 11
3557.1630391446602
 21
703.45702796802595
 31
0.0
  0
LINE
  5
17CD
  8
TITLE
 10
3547.2167324768088
 20
691.76502384716628
 30
0.0
 11
3557.1630391446602
 21
701.71133051507695
 31
0.0
  0
LINE
  5
17CE
  8
TITLE
 10
3548.2479598699169
 20
691.05055378746226
 30
0.0
 11
3557.1630391446602
 21
699.96563306214296
 31
0.0
  0
LINE
  5
17CF
  8
TITLE
 10
3574.1458410285941
 20
697.745762963841
 30
0.0
 11
3578.4895068019532
 21
702.08942873719229
 31
0.0
  0
LINE
  5
17D0
  8
TITLE
 10
3553.6267869460989
 20
687.70089359893507
 30
0.0
 11
3557.1630391446602
 21
691.23714579749901
 31
0.0
  0
LINE
  5
17D1
  8
TITLE
 10
3554.748291996239
 20
687.07670119620161
 30
0.0
 11
3557.1630391446602
 21
689.49144834455319
 31
0.0
  0
LINE
  5
17D2
  8
TITLE
 10
3555.8855191409461
 20
686.46823088796282
 30
0.0
 11
3557.1630391446602
 21
687.74575089168866
 31
0.0
  0
LINE
  5
17D3
  8
TITLE
 10
3557.0387077098599
 20
685.87572200386535
 30
0.0
 11
3557.1630391446602
 21
686.00005343874045
 31
0.0
  0
LINE
  5
17D4
  8
TITLE
 10
3549.293829539839
 20
690.35072600437377
 30
0.0
 11
3557.1630391446602
 21
698.21993560919736
 31
0.0
  0
LINE
  5
17D5
  8
TITLE
 10
3550.354483414736
 20
689.66568242633355
 30
0.0
 11
3557.1630391446602
 21
696.47423815625746
 31
0.0
  0
LINE
  5
17D6
  8
TITLE
 10
3551.4300776351911
 20
688.99557919384142
 30
0.0
 11
3557.1630391446602
 21
694.72854070331152
 31
0.0
  0
LINE
  5
17D7
  8
TITLE
 10
3552.5207832416008
 20
688.34058734730434
 30
0.0
 11
3557.1630391446602
 21
692.98284325043585
 31
0.0
  0
LINE
  5
17D8
  8
TITLE
 10
3574.1458410285941
 20
699.49146041678375
 30
0.0
 11
3575.1720198172138
 21
700.51763920547501
 31
0.0
  0
LINE
  5
17D9
  8
TITLE
 10
3568.4034200056531
 20
728.66298845241545
 30
0.0
 11
3579.5055032024061
 21
739.76507164923555
 31
0.0
  0
LINE
  5
17DA
  8
TITLE
 10
3568.4034200056531
 20
733.90008081118071
 30
0.0
 11
3574.2684108437179
 21
739.76507164923555
 31
0.0
  0
LINE
  5
17DB
  8
TITLE
 10
3568.4034200056531
 20
732.15438335830186
 30
0.0
 11
3576.0141082966552
 21
739.76507164923555
 31
0.0
  0
LINE
  5
17DC
  8
TITLE
 10
3568.4034200056531
 20
730.40868590536138
 30
0.0
 11
3577.759805749457
 21
739.76507164923555
 31
0.0
  0
LINE
  5
17DD
  8
TITLE
 10
3568.4034200056531
 20
739.13717316993689
 30
0.0
 11
3569.0313184848842
 21
739.76507164923555
 31
0.0
  0
LINE
  5
17DE
  8
TITLE
 10
3568.4034200056531
 20
737.39147571699073
 30
0.0
 11
3570.7770159378242
 21
739.76507164923555
 31
0.0
  0
LINE
  5
17DF
  8
TITLE
 10
3568.4034200056531
 20
735.64577826412324
 30
0.0
 11
3572.5227133907729
 21
739.76507164923555
 31
0.0
  0
LINE
  5
17E0
  8
TITLE
 10
3568.4034200056531
 20
758.33984515216196
 30
0.0
 11
3590.5754621517549
 21
780.51188729834143
 31
0.0
  0
LINE
  5
17E1
  8
TITLE
 10
3568.4034200056531
 20
756.59414769921614
 30
0.0
 11
3594.0887682017719
 21
782.27949589540128
 31
0.0
  0
LINE
  5
17E2
  8
TITLE
 10
3570.254022512659
 20
756.69905275327653
 30
0.0
 11
3598.1732235875788
 21
784.61825382820496
 31
0.0
  0
LINE
  5
17E3
  8
TITLE
 10
3572.4390350014351
 20
757.13836778918665
 30
0.0
 11
3603.4287579245288
 21
788.12809071228287
 31
0.0
  0
LINE
  5
17E4
  8
TITLE
 10
3574.686236426197
 20
757.63987176100295
 30
0.0
 11
3614.1521296922801
 21
797.10576502716344
 31
0.0
  0
LINE
  5
17E5
  8
TITLE
 10
3577.0022926341289
 20
758.21023051613918
 30
0.0
 11
3615.8978271452252
 21
797.10576502716344
 31
0.0
  0
LINE
  5
17E6
  8
TITLE
 10
3579.3952724415949
 20
758.85751287066739
 30
0.0
 11
3617.643524598172
 21
797.10576502716344
 31
0.0
  0
LINE
  5
17E7
  8
TITLE
 10
3574.1458410285941
 20
696.00006551089768
 30
0.0
 11
3617.9108471668578
 21
739.76507164923555
 31
0.0
  0
LINE
  5
17E8
  8
TITLE
 10
3574.1458410285941
 20
694.25436805795493
 30
0.0
 11
3619.6565446198042
 21
739.76507164923555
 31
0.0
  0
LINE
  5
17E9
  8
TITLE
 10
3574.1458410285941
 20
692.50867060501832
 30
0.0
 11
3621.4022420727529
 21
739.76507164923555
 31
0.0
  0
LINE
  5
17EA
  8
TITLE
 10
3574.1458410285941
 20
690.76297315214242
 30
0.0
 11
3623.1479395256938
 21
739.76507164923555
 31
0.0
  0
LINE
  5
17EB
  8
TITLE
 10
3574.1458410285941
 20
689.01727569920524
 30
0.0
 11
3609.5818252970462
 21
724.45325996757686
 31
0.0
  0
LINE
  5
17EC
  8
TITLE
 10
3574.1458410285941
 20
687.27157824632945
 30
0.0
 11
3609.3480440605049
 21
722.47378127824072
 31
0.0
  0
LINE
  5
17ED
  8
TITLE
 10
3574.4332475169681
 20
685.81328728176368
 30
0.0
 11
3609.0042469566411
 21
720.38428672143573
 31
0.0
  0
LINE
  5
17EE
  8
TITLE
 10
3576.1789449699199
 20
685.81328728176368
 30
0.0
 11
3608.5263352162092
 21
718.16067752805634
 31
0.0
  0
LINE
  5
17EF
  8
TITLE
 10
3577.9246424228609
 20
685.81328728176368
 30
0.0
 11
3607.8784311391451
 21
715.76707599804877
 31
0.0
  0
LINE
  5
17F0
  8
TITLE
 10
3579.6703398758
 20
685.81328728176368
 30
0.0
 11
3607.0027022011782
 21
713.14564960713369
 31
0.0
  0
LINE
  5
17F1
  8
TITLE
 10
3577.648390627392
 20
725.68807690369817
 30
0.0
 11
3591.7253853729999
 21
739.76507164923555
 31
0.0
  0
LINE
  5
17F2
  8
TITLE
 10
3579.3940880803402
 20
725.68807690369817
 30
0.0
 11
3593.4710828259449
 21
739.76507164923555
 31
0.0
  0
LINE
  5
17F3
  8
TITLE
 10
3575.9026931745921
 20
725.68807690369817
 30
0.0
 11
3589.9796879200549
 21
739.76507164923555
 31
0.0
  0
LINE
  5
17F4
  8
TITLE
 10
3568.4034200056531
 20
726.91729099947895
 30
0.0
 11
3581.2512006553411
 21
739.76507164923555
 31
0.0
  0
LINE
  5
17F5
  8
TITLE
 10
3568.9199033628188
 20
725.68807690369817
 30
0.0
 11
3582.9968981082839
 21
739.76507164923555
 31
0.0
  0
LINE
  5
17F6
  8
TITLE
 10
3570.6656008157652
 20
725.68807690369817
 30
0.0
 11
3584.7425955612339
 21
739.76507164923555
 31
0.0
  0
LINE
  5
17F7
  8
TITLE
 10
3572.4112982687102
 20
725.68807690369817
 30
0.0
 11
3586.4882930141762
 21
739.76507164923555
 31
0.0
  0
LINE
  5
17F8
  8
TITLE
 10
3574.1569957216529
 20
725.68807690369817
 30
0.0
 11
3588.2339904671162
 21
739.76507164923555
 31
0.0
  0
LINE
  5
17F9
  8
TITLE
 10
3568.4034200056531
 20
763.57693751099305
 30
0.0
 11
3581.8106441164791
 21
776.98416162188869
 31
0.0
  0
LINE
  5
17FA
  8
TITLE
 10
3568.4034200056531
 20
761.83124005805644
 30
0.0
 11
3584.5195088678929
 21
777.9473289202964
 31
0.0
  0
LINE
  5
17FB
  8
TITLE
 10
3568.4034200056531
 20
760.08554260511687
 30
0.0
 11
3587.420727891722
 21
779.10285049117874
 31
0.0
  0
LINE
  5
17FC
  8
TITLE
 10
3698.6173471714801
 20
766.35495061298252
 30
0.0
 11
3728.3035453108801
 21
796.0411487523736
 31
0.0
  0
LINE
  5
17FD
  8
TITLE
 10
3700.363044624426
 20
766.35495061298252
 30
0.0
 11
3728.3035453108801
 21
794.29545129942767
 31
0.0
  0
LINE
  5
17FE
  8
TITLE
 10
3702.1087420772242
 20
766.35495061298252
 30
0.0
 11
3728.3035453108801
 21
792.54975384649379
 31
0.0
  0
LINE
  5
17FF
  8
TITLE
 10
3703.8544395301642
 20
766.35495061298252
 30
0.0
 11
3728.3035453108801
 21
790.80405639354478
 31
0.0
  0
LINE
  5
1800
  8
TITLE
 10
3705.6001369831101
 20
766.35495061298252
 30
0.0
 11
3728.3035453108801
 21
789.05835894060544
 31
0.0
  0
LINE
  5
1801
  8
TITLE
 10
3707.3458344360552
 20
766.35495061298252
 30
0.0
 11
3728.3035453108801
 21
787.31266148765985
 31
0.0
  0
LINE
  5
1802
  8
TITLE
 10
3695.125952265601
 20
766.35495061298252
 30
0.0
 11
3708.3306544598531
 21
779.55965280717135
 31
0.0
  0
LINE
  5
1803
  8
TITLE
 10
3696.871649718536
 20
766.35495061298252
 30
0.0
 11
3710.0763519126499
 21
779.55965280717135
 31
0.0
  0
LINE
  5
1804
  8
TITLE
 10
3706.8692255937099
 20
718.74451054146391
 30
0.0
 11
3739.7868039627292
 21
751.66208891048177
 31
0.0
  0
LINE
  5
1805
  8
TITLE
 10
3690.7167823064942
 20
716.55764687771216
 30
0.0
 11
3744.7339150780208
 21
770.57477964916995
 31
0.0
  0
LINE
  5
1806
  8
TITLE
 10
3694.1301053788102
 20
714.73387759127706
 30
0.0
 11
3743.7974369129138
 21
764.40120912531393
 31
0.0
  0
LINE
  5
1807
  8
TITLE
 10
3696.3718681748701
 20
715.22994293439285
 30
0.0
 11
3743.301371569798
 21
762.15944632931894
 31
0.0
  0
LINE
  5
1808
  8
TITLE
 10
3698.733243736001
 20
715.84562104257645
 30
0.0
 11
3742.6856934616148
 21
759.79807076819986
 31
0.0
  0
LINE
  5
1809
  8
TITLE
 10
3701.2404733473581
 20
716.60715320098745
 30
0.0
 11
3741.9241613030581
 21
757.29084115670173
 31
0.0
  0
LINE
  5
180A
  8
TITLE
 10
3703.9321251615752
 20
717.55310756226868
 30
0.0
 11
3740.9782069419198
 21
754.59918934261464
 31
0.0
  0
LINE
  5
180B
  8
TITLE
 10
3690.7167823064942
 20
714.81194942484228
 30
0.0
 11
3744.5012650832759
 21
768.59643220148894
 31
0.0
  0
LINE
  5
180C
  8
TITLE
 10
3691.9891292082548
 20
714.33859887366214
 30
0.0
 11
3744.192715630521
 21
766.54218529579555
 31
0.0
  0
LINE
  5
180D
  8
TITLE
 10
3690.7167823064942
 20
779.40275518316571
 30
0.0
 11
3690.8736799305761
 21
779.55965280717135
 31
0.0
  0
LINE
  5
180E
  8
TITLE
 10
3690.7167823064942
 20
777.65705773021625
 30
0.0
 11
3692.6193773833738
 21
779.55965280717135
 31
0.0
  0
LINE
  5
180F
  8
TITLE
 10
3690.7167823064942
 20
775.91136027727703
 30
0.0
 11
3694.3650748363152
 21
779.55965280717135
 31
0.0
  0
LINE
  5
1810
  8
TITLE
 10
3663.1464736567159
 20
760.56093379809545
 30
0.0
 11
3676.8010109827342
 21
774.21547112411406
 31
0.0
  0
LINE
  5
1811
  8
TITLE
 10
3664.4546948223251
 20
760.12345751077567
 30
0.0
 11
3678.2812878506052
 21
773.95005053904993
 31
0.0
  0
LINE
  5
1812
  8
TITLE
 10
3665.7770953661802
 20
759.70016060168314
 30
0.0
 11
3679.5975929203291
 21
773.52065815583398
 31
0.0
  0
LINE
  5
1813
  8
TITLE
 10
3667.1139623034201
 20
759.29133008590736
 30
0.0
 11
3679.5975929203291
 21
771.77496070288578
 31
0.0
  0
LINE
  5
1814
  8
TITLE
 10
3672.6124721345132
 20
757.80705010530482
 30
0.0
 11
3679.5975929203291
 21
764.79217089118924
 31
0.0
  0
LINE
  5
1815
  8
TITLE
 10
3674.026634222404
 20
757.47551474024408
 30
0.0
 11
3679.5975929203291
 21
763.04647343831346
 31
0.0
  0
LINE
  5
1816
  8
TITLE
 10
3668.4656000695172
 20
758.89727039905608
 30
0.0
 11
3679.5975929203291
 21
770.02926324994235
 31
0.0
  0
LINE
  5
1817
  8
TITLE
 10
3669.8323318141661
 20
758.51830469076265
 30
0.0
 11
3679.5975929203291
 21
768.28356579707577
 31
0.0
  0
LINE
  5
1818
  8
TITLE
 10
3671.214500830125
 20
758.15477625385427
 30
0.0
 11
3679.5975929203291
 21
766.53786834413484
 31
0.0
  0
LINE
  5
1819
  8
TITLE
 10
3675.4574010164411
 20
757.16058408148581
 30
0.0
 11
3679.5975929203291
 21
761.30077598537116
 31
0.0
  0
LINE
  5
181A
  8
TITLE
 10
3676.9052140396161
 20
756.8626996517163
 30
0.0
 11
3679.5975929203291
 21
759.55507853242784
 31
0.0
  0
LINE
  5
181B
  8
TITLE
 10
3678.3705448418491
 20
756.58233300100915
 30
0.0
 11
3679.5975929203291
 21
757.809381079491
 31
0.0
  0
LINE
  5
181C
  8
TITLE
 10
3693.3802548126532
 20
766.35495061298252
 30
0.0
 11
3706.5849570069149
 21
779.55965280717135
 31
0.0
  0
LINE
  5
181D
  8
TITLE
 10
3690.7167823064942
 20
768.92857046564245
 30
0.0
 11
3701.3478646480849
 21
779.55965280717135
 31
0.0
  0
LINE
  5
181E
  8
TITLE
 10
3690.7167823064942
 20
767.18287301270198
 30
0.0
 11
3703.0935621010258
 21
779.55965280717135
 31
0.0
  0
LINE
  5
181F
  8
TITLE
 10
3691.6345573597118
 20
766.35495061298252
 30
0.0
 11
3704.839259553974
 21
779.55965280717135
 31
0.0
  0
LINE
  5
1820
  8
TITLE
 10
3690.7167823064942
 20
772.41996537146417
 30
0.0
 11
3697.8564697421971
 21
779.55965280717135
 31
0.0
  0
LINE
  5
1821
  8
TITLE
 10
3690.7167823064942
 20
770.67426791852085
 30
0.0
 11
3699.6021671951421
 21
779.55965280717135
 31
0.0
  0
LINE
  5
1822
  8
TITLE
 10
3690.7167823064942
 20
774.16566282440101
 30
0.0
 11
3696.110772289253
 21
779.55965280717135
 31
0.0
  0
LINE
  5
1823
  8
TITLE
 10
3628.6057231700879
 20
780.1368043522765
 30
0.0
 11
3640.0968457916251
 21
791.62792697374232
 31
0.0
  0
LINE
  5
1824
  8
TITLE
 10
3629.5565675168159
 20
779.3419512459227
 30
0.0
 11
3641.0519958074378
 21
790.83737953654224
 31
0.0
  0
LINE
  5
1825
  8
TITLE
 10
3630.51761070162
 20
778.55729697792356
 30
0.0
 11
3642.0207967958622
 21
790.06048307202047
 31
0.0
  0
LINE
  5
1826
  8
TITLE
 10
3631.4888886111412
 20
777.7828774344357
 30
0.0
 11
3643.0033186896649
 21
789.29730751288946
 31
0.0
  0
LINE
  5
1827
  8
TITLE
 10
3632.4704414951561
 20
777.01873286557793
 30
0.0
 11
3643.9996420082211
 21
788.54793337864203
 31
0.0
  0
LINE
  5
1828
  8
TITLE
 10
3633.4623140511549
 20
776.26490796863789
 30
0.0
 11
3645.0098581596249
 21
787.81245207711561
 31
0.0
  0
LINE
  5
1829
  8
TITLE
 10
3634.4645555174789
 20
775.5214519820214
 30
0.0
 11
3646.034069787956
 21
787.0909662524856
 31
0.0
  0
LINE
  5
182A
  8
TITLE
 10
3635.477219778375
 20
774.78841878996207
 30
0.0
 11
3647.0723911696741
 21
786.38359018126846
 31
0.0
  0
LINE
  5
182B
  8
TITLE
 10
3642.8632686535761
 20
769.95458549470095
 30
0.0
 11
3654.7479911625978
 21
781.8393080037298
 31
0.0
  0
LINE
  5
182C
  8
TITLE
 10
3643.9618564011262
 20
769.30747578932301
 30
0.0
 11
3655.9048771755952
 21
781.2504965637844
 31
0.0
  0
LINE
  5
182D
  8
TITLE
 10
3645.0715842044951
 20
768.67150613981391
 30
0.0
 11
3657.077520266645
 21
780.67744220189377
 31
0.0
  0
LINE
  5
182E
  8
TITLE
 10
3638.578360358425
 20
772.65246701126534
 30
0.0
 11
3650.273340909122
 21
784.34744756195585
 31
0.0
  0
LINE
  5
182F
  8
TITLE
 10
3639.633351839957
 20
771.96176103992389
 30
0.0
 11
3651.3694936445158
 21
783.69790284433759
 31
0.0
  0
LINE
  5
1830
  8
TITLE
 10
3640.6991096845791
 20
771.28182143159609
 30
0.0
 11
3652.4805197953519
 21
783.06323154236918
 31
0.0
  0
LINE
  5
1831
  8
TITLE
 10
3641.7757185086029
 20
770.61273280268142
 30
0.0
 11
3653.6066150257061
 21
782.44362931977435
 31
0.0
  0
LINE
  5
1832
  8
TITLE
 10
3636.5003654786578
 20
774.06586703731534
 30
0.0
 11
3648.1249486623451
 21
785.69045022099863
 31
0.0
  0
LINE
  5
1833
  8
TITLE
 10
3637.5340561517719
 20
773.35386025748221
 30
0.0
 11
3649.1918812098502
 21
785.0116853155522
 31
0.0
  0
LINE
  5
1834
  8
TITLE
 10
3647.3249021879769
 20
767.43342921733927
 30
0.0
 11
3659.471165082412
 21
779.57969211184559
 31
0.0
  0
LINE
  5
1835
  8
TITLE
 10
3648.4687305120592
 20
766.83156008854644
 30
0.0
 11
3660.6927640242388
 21
779.05559360080258
 31
0.0
  0
LINE
  5
1836
  8
TITLE
 10
3649.6241757979378
 20
766.24130792148674
 30
0.0
 11
3661.9313176819069
 21
778.548449805377
 31
0.0
  0
LINE
  5
1837
  8
TITLE
 10
3646.192560941829
 20
768.04678542413831
 30
0.0
 11
3658.266187085113
 21
780.12041156748955
 31
0.0
  0
LINE
  5
1838
  8
TITLE
 10
3626.7345088293719
 20
781.75698491738899
 30
0.0
 11
3638.2272703655349
 21
793.24974645353836
 31
0.0
  0
LINE
  5
1839
  8
TITLE
 10
3627.665046064993
 20
780.94182470005262
 30
0.0
 11
3639.1552871430849
 21
792.43206577822025
 31
0.0
  0
LINE
  5
183A
  8
TITLE
 10
3661.8521611006008
 20
761.01231869478966
 30
0.0
 11
3675.3445774990082
 21
774.50473509319761
 31
0.0
  0
LINE
  5
183B
  8
TITLE
 10
3651.9704754814161
 20
765.09621269899753
 30
0.0
 11
3664.460755848113
 21
777.58649306584653
 31
0.0
  0
LINE
  5
183C
  8
TITLE
 10
3653.1616295020358
 20
764.54166926674407
 30
0.0
 11
3665.7524461571261
 21
777.13248592191712
 31
0.0
  0
LINE
  5
183D
  8
TITLE
 10
3650.7913755921149
 20
765.66281026272134
 30
0.0
 11
3663.187185725219
 21
778.05862039582291
 31
0.0
  0
LINE
  5
183E
  8
TITLE
 10
3690.7167823064942
 20
718.30334433065502
 30
0.0
 11
3707.2122936239962
 21
734.79885564809706
 31
0.0
  0
LINE
  5
183F
  8
TITLE
 10
3663.4638176163521
 20
685.81328728176368
 30
0.0
 11
3673.6103468648339
 21
695.95981653023955
 31
0.0
  0
LINE
  5
1840
  8
TITLE
 10
3665.2095150692958
 20
685.81328728176368
 30
0.0
 11
3674.2581754103139
 21
694.86194762278274
 31
0.0
  0
LINE
  5
1841
  8
TITLE
 10
3666.9552125222372
 20
685.81328728176368
 30
0.0
 11
3674.9060039559458
 21
693.76407871546462
 31
0.0
  0
LINE
  5
1842
  8
TITLE
 10
3668.7009099751831
 20
685.81328728176368
 30
0.0
 11
3675.5538325014281
 21
692.66620980800985
 31
0.0
  0
LINE
  5
1843
  8
TITLE
 10
3670.446607428124
 20
685.81328728176368
 30
0.0
 11
3676.2016610470582
 21
691.56834090062262
 31
0.0
  0
LINE
  5
1844
  8
TITLE
 10
3672.1923048810759
 20
685.81328728176368
 30
0.0
 11
3676.8494895925401
 21
690.47047199323833
 31
0.0
  0
LINE
  5
1845
  8
TITLE
 10
3673.9380023340118
 20
685.81328728176368
 30
0.0
 11
3677.4973181380328
 21
689.37260308585235
 31
0.0
  0
LINE
  5
1846
  8
TITLE
 10
3675.683699786955
 20
685.81328728176368
 30
0.0
 11
3678.1451466836602
 21
688.27473417846272
 31
0.0
  0
LINE
  5
1847
  8
TITLE
 10
3677.4293972399
 20
685.81328728176368
 30
0.0
 11
3678.7929752291452
 21
687.17686527108094
 31
0.0
  0
LINE
  5
1848
  8
TITLE
 10
3679.17509469284
 20
685.81328728176368
 30
0.0
 11
3679.4408037746348
 21
686.07899636369302
 31
0.0
  0
LINE
  5
1849
  8
TITLE
 10
3673.6617505385411
 20
725.68807690369817
 30
0.0
 11
3679.5975929203291
 21
731.62391928555223
 31
0.0
  0
LINE
  5
184A
  8
TITLE
 10
3690.7167823064942
 20
721.79473923647038
 30
0.0
 11
3699.5845864065982
 21
730.66254333657639
 31
0.0
  0
LINE
  5
184B
  8
TITLE
 10
3690.7167823064942
 20
720.04904178359482
 30
0.0
 11
3702.8507230454452
 21
732.18298252248292
 31
0.0
  0
LINE
  5
184C
  8
TITLE
 10
3663.1875658210288
 20
725.68807690369817
 30
0.0
 11
3677.2645605664939
 21
739.76507164923555
 31
0.0
  0
LINE
  5
184D
  8
TITLE
 10
3664.9332632739752
 20
725.68807690369817
 30
0.0
 11
3679.0102580194389
 21
739.76507164923555
 31
0.0
  0
LINE
  5
184E
  8
TITLE
 10
3666.6789607269202
 20
725.68807690369817
 30
0.0
 11
3679.5975929203291
 21
738.60670909725684
 31
0.0
  0
LINE
  5
184F
  8
TITLE
 10
3668.4246581797152
 20
725.68807690369817
 30
0.0
 11
3679.5975929203291
 21
736.86101164431363
 31
0.0
  0
LINE
  5
1850
  8
TITLE
 10
3670.1703556326588
 20
725.68807690369817
 30
0.0
 11
3679.5975929203291
 21
735.11531419137418
 31
0.0
  0
LINE
  5
1851
  8
TITLE
 10
3671.9160530856038
 20
725.68807690369817
 30
0.0
 11
3679.5975929203291
 21
733.36961673842563
 31
0.0
  0
LINE
  5
1852
  8
TITLE
 10
3675.4074479914889
 20
725.68807690369817
 30
0.0
 11
3679.5975929203291
 21
729.87822183261517
 31
0.0
  0
LINE
  5
1853
  8
TITLE
 10
3677.1531454444321
 20
725.68807690369817
 30
0.0
 11
3679.5975929203291
 21
728.13252437966935
 31
0.0
  0
LINE
  5
1854
  8
TITLE
 10
3690.7167823064942
 20
723.54043668941642
 30
0.0
 11
3696.8023969181331
 21
729.62605130114059
 31
0.0
  0
LINE
  5
1855
  8
TITLE
 10
3690.7167823064942
 20
727.03183159529942
 30
0.0
 11
3692.035117030965
 21
728.35016631978249
 31
0.0
  0
LINE
  5
1856
  8
TITLE
 10
3690.7167823064942
 20
725.28613414235576
 30
0.0
 11
3694.3154212153809
 21
728.88477305124741
 31
0.0
  0
LINE
  5
1857
  8
TITLE
 10
3678.898842897378
 20
725.68807690369817
 30
0.0
 11
3679.5975929203291
 21
726.38682692680266
 31
0.0
  0
LINE
  5
1858
  8
TITLE
 10
3626.804171104975
 20
685.81328728176368
 30
0.0
 11
3660.0059474084842
 21
719.01506358541735
 31
0.0
  0
LINE
  5
1859
  8
TITLE
 10
3628.5498685577768
 20
685.81328728176368
 30
0.0
 11
3660.653775953966
 21
717.91719467795372
 31
0.0
  0
LINE
  5
185A
  8
TITLE
 10
3630.2955660107232
 20
685.81328728176368
 30
0.0
 11
3661.3016044996002
 21
716.81932577064208
 31
0.0
  0
LINE
  5
185B
  8
TITLE
 10
3632.0412634636591
 20
685.81328728176368
 30
0.0
 11
3661.9494330450862
 21
715.72145686318459
 31
0.0
  0
LINE
  5
185C
  8
TITLE
 10
3633.786960916605
 20
685.81328728176368
 30
0.0
 11
3662.5972615907131
 21
714.62358795580269
 31
0.0
  0
LINE
  5
185D
  8
TITLE
 10
3644.9564424976529
 20
714.43974339216697
 30
0.0
 11
3649.9483363585459
 21
719.43163725299041
 31
0.0
  0
LINE
  5
185E
  8
TITLE
 10
3645.604271043278
 20
713.34187448478247
 30
0.0
 11
3651.694033811486
 21
719.43163725299041
 31
0.0
  0
LINE
  5
185F
  8
TITLE
 10
3645.5113041804229
 20
711.50321016905446
 30
0.0
 11
3653.4397312644269
 21
719.43163725299041
 31
0.0
  0
LINE
  5
1860
  8
TITLE
 10
3644.4953314737759
 20
708.7415400093862
 30
0.0
 11
3655.1854287173769
 21
719.43163725299041
 31
0.0
  0
LINE
  5
1861
  8
TITLE
 10
3642.365128315565
 20
718.83121902170603
 30
0.0
 11
3642.9655465467708
 21
719.43163725299041
 31
0.0
  0
LINE
  5
1862
  8
TITLE
 10
3643.0129568610532
 20
717.73335011432698
 30
0.0
 11
3644.711243999709
 21
719.43163725299041
 31
0.0
  0
LINE
  5
1863
  8
TITLE
 10
3643.6607854066801
 20
716.63548120693713
 30
0.0
 11
3646.4569414526582
 21
719.43163725299041
 31
0.0
  0
LINE
  5
1864
  8
TITLE
 10
3644.3086139521661
 20
715.53761229954875
 30
0.0
 11
3648.2026389056032
 21
719.43163725299041
 31
0.0
  0
LINE
  5
1865
  8
TITLE
 10
3637.002104027029
 20
725.68807690369817
 30
0.0
 11
3651.0790987724931
 21
739.76507164923555
 31
0.0
  0
LINE
  5
1866
  8
TITLE
 10
3638.7478014799699
 20
725.68807690369817
 30
0.0
 11
3652.8247962254391
 21
739.76507164923555
 31
0.0
  0
LINE
  5
1867
  8
TITLE
 10
3640.4934989329172
 20
725.68807690369817
 30
0.0
 11
3654.570493678375
 21
739.76507164923555
 31
0.0
  0
LINE
  5
1868
  8
TITLE
 10
3642.2391963858581
 20
725.68807690369817
 30
0.0
 11
3656.31619113132
 21
739.76507164923555
 31
0.0
  0
LINE
  5
1869
  8
TITLE
 10
3645.7305912917409
 20
725.68807690369817
 30
0.0
 11
3659.8075860372069
 21
739.76507164923555
 31
0.0
  0
LINE
  5
186A
  8
TITLE
 10
3647.4762887446841
 20
725.68807690369817
 30
0.0
 11
3661.5532834901501
 21
739.76507164923555
 31
0.0
  0
LINE
  5
186B
  8
TITLE
 10
3643.9848938387991
 20
725.68807690369817
 30
0.0
 11
3658.0618885842659
 21
739.76507164923555
 31
0.0
  0
LINE
  5
186C
  8
TITLE
 10
3626.5279193095098
 20
725.68807690369817
 30
0.0
 11
3640.6049140549749
 21
739.76507164923555
 31
0.0
  0
LINE
  5
186D
  8
TITLE
 10
3628.273616762458
 20
725.68807690369817
 30
0.0
 11
3642.3506115079158
 21
739.76507164923555
 31
0.0
  0
LINE
  5
186E
  8
TITLE
 10
3630.0193142153962
 20
725.68807690369817
 30
0.0
 11
3644.0963089608599
 21
739.76507164923555
 31
0.0
  0
LINE
  5
186F
  8
TITLE
 10
3631.7650116681948
 20
725.68807690369817
 30
0.0
 11
3645.842006413809
 21
739.76507164923555
 31
0.0
  0
LINE
  5
1870
  8
TITLE
 10
3633.5107091211398
 20
725.68807690369817
 30
0.0
 11
3647.5877038667531
 21
739.76507164923555
 31
0.0
  0
LINE
  5
1871
  8
TITLE
 10
3635.2564065740812
 20
725.68807690369817
 30
0.0
 11
3649.3334013196941
 21
739.76507164923555
 31
0.0
  0
LINE
  5
1872
  8
TITLE
 10
3658.196693488142
 20
748.62836381768943
 30
0.0
 11
3661.848291152105
 21
752.27996148171701
 31
0.0
  0
LINE
  5
1873
  8
TITLE
 10
3656.4509960351961
 20
748.62836381768943
 30
0.0
 11
3661.848291152105
 21
754.02565893466306
 31
0.0
  0
LINE
  5
1874
  8
TITLE
 10
3659.9423909409511
 20
748.62836381768943
 30
0.0
 11
3661.848291152105
 21
750.53426402877471
 31
0.0
  0
LINE
  5
1875
  8
TITLE
 10
3661.6880883938811
 20
748.62836381768943
 30
0.0
 11
3661.848291152105
 21
748.78856657583424
 31
0.0
  0
LINE
  5
1876
  8
TITLE
 10
3635.7368524046192
 20
686.01748131683303
 30
0.0
 11
3663.2450901361999
 21
713.52571904841557
 31
0.0
  0
LINE
  5
1877
  8
TITLE
 10
3637.9786946416862
 20
686.51362610095612
 30
0.0
 11
3663.8929186816858
 21
712.42785014102446
 31
0.0
  0
LINE
  5
1878
  8
TITLE
 10
3640.4752062920861
 20
687.26444029848528
 30
0.0
 11
3664.54074722732
 21
711.32998123364303
 31
0.0
  0
LINE
  5
1879
  8
TITLE
 10
3643.376385655492
 20
688.41992220893508
 30
0.0
 11
3665.1885757728
 21
710.23211232625545
 31
0.0
  0
LINE
  5
187A
  8
TITLE
 10
3647.1267256312499
 20
690.42456473183779
 30
0.0
 11
3665.836404318286
 21
709.13424341886457
 31
0.0
  0
LINE
  5
187B
  8
TITLE
 10
3657.2651848630198
 20
693.58023415176501
 30
0.0
 11
3668.427718500518
 21
704.74276778932881
 31
0.0
  0
LINE
  5
187C
  8
TITLE
 10
3657.9130134085071
 20
692.48236524437402
 30
0.0
 11
3669.0755470460031
 21
703.64489888186586
 31
0.0
  0
LINE
  5
187D
  8
TITLE
 10
3658.5608419539922
 20
691.38449633699599
 30
0.0
 11
3669.7233755916318
 21
702.54702997455433
 31
0.0
  0
LINE
  5
187E
  8
TITLE
 10
3659.20867049962
 20
690.28662742960466
 30
0.0
 11
3670.3712041371191
 21
701.44916106709616
 31
0.0
  0
LINE
  5
187F
  8
TITLE
 10
3659.8564990451091
 20
689.18875852221777
 30
0.0
 11
3671.019032682746
 21
700.35129215978429
 31
0.0
  0
LINE
  5
1880
  8
TITLE
 10
3660.5043275907378
 20
688.09088961483587
 30
0.0
 11
3671.6668612282328
 21
699.25342325232964
 31
0.0
  0
LINE
  5
1881
  8
TITLE
 10
3655.3216992264252
 20
696.87384087392468
 30
0.0
 11
3666.4842328639179
 21
708.03637451149245
 31
0.0
  0
LINE
  5
1882
  8
TITLE
 10
3655.9695277719129
 20
695.77597196660395
 30
0.0
 11
3667.1320614094061
 21
706.93850560409589
 31
0.0
  0
LINE
  5
1883
  8
TITLE
 10
3656.617356317392
 20
694.678103059156
 30
0.0
 11
3667.7798899550321
 21
705.8406366967107
 31
0.0
  0
LINE
  5
1884
  8
TITLE
 10
3661.1521561362201
 20
686.99302070744523
 30
0.0
 11
3672.3146897737161
 21
698.15555434500868
 31
0.0
  0
LINE
  5
1885
  8
TITLE
 10
3661.7999846817138
 20
685.89515180006083
 30
0.0
 11
3672.9625183193389
 21
697.05768543754857
 31
0.0
  0
LINE
  5
1886
  8
TITLE
 10
3649.2219861976291
 20
725.68807690369817
 30
0.0
 11
3663.2989809430928
 21
739.76507164923555
 31
0.0
  0
LINE
  5
1887
  8
TITLE
 10
3657.9504734621992
 20
725.68807690369817
 30
0.0
 11
3672.0274682076611
 21
739.76507164923555
 31
0.0
  0
LINE
  5
1888
  8
TITLE
 10
3659.6961709151401
 20
725.68807690369817
 30
0.0
 11
3673.7731656606138
 21
739.76507164923555
 31
0.0
  0
LINE
  5
1889
  8
TITLE
 10
3661.441868368086
 20
725.68807690369817
 30
0.0
 11
3675.5188631135511
 21
739.76507164923555
 31
0.0
  0
LINE
  5
188A
  8
TITLE
 10
3650.9676836504291
 20
725.68807690369817
 30
0.0
 11
3665.0446783960342
 21
739.76507164923555
 31
0.0
  0
LINE
  5
188B
  8
TITLE
 10
3652.7133811033759
 20
725.68807690369817
 30
0.0
 11
3666.790375848982
 21
739.76507164923555
 31
0.0
  0
LINE
  5
188C
  8
TITLE
 10
3654.4590785563182
 20
725.68807690369817
 30
0.0
 11
3668.5360733017819
 21
739.76507164923555
 31
0.0
  0
LINE
  5
188D
  8
TITLE
 10
3656.204776009261
 20
725.68807690369817
 30
0.0
 11
3670.2817707547251
 21
739.76507164923555
 31
0.0
  0
LINE
  5
188E
  8
TITLE
 10
3626.7741393353158
 20
748.62836381768943
 30
0.0
 11
3642.4152446081871
 21
764.26946909048775
 31
0.0
  0
LINE
  5
188F
  8
TITLE
 10
3628.519836788259
 20
748.62836381768943
 30
0.0
 11
3644.1609420611198
 21
764.26946909048775
 31
0.0
  0
LINE
  5
1890
  8
TITLE
 10
3630.2655342411949
 20
748.62836381768943
 30
0.0
 11
3645.9066395139189
 21
764.26946909048775
 31
0.0
  0
LINE
  5
1891
  8
TITLE
 10
3632.011231694139
 20
748.62836381768943
 30
0.0
 11
3647.6523369668662
 21
764.26946909048775
 31
0.0
  0
LINE
  5
1892
  8
TITLE
 10
3633.7569291470859
 20
748.62836381768943
 30
0.0
 11
3649.3980344198098
 21
764.26946909048775
 31
0.0
  0
LINE
  5
1893
  8
TITLE
 10
3635.5026266000259
 20
748.62836381768943
 30
0.0
 11
3651.1437318727531
 21
764.26946909048775
 31
0.0
  0
LINE
  5
1894
  8
TITLE
 10
3637.2483240529691
 20
748.62836381768943
 30
0.0
 11
3652.8894293256949
 21
764.26946909048775
 31
0.0
  0
LINE
  5
1895
  8
TITLE
 10
3649.4682062234301
 20
748.62836381768943
 30
0.0
 11
3661.848291152105
 21
761.00844874628285
 31
0.0
  0
LINE
  5
1896
  8
TITLE
 10
3651.213903676376
 20
748.62836381768943
 30
0.0
 11
3661.848291152105
 21
759.26275129341616
 31
0.0
  0
LINE
  5
1897
  8
TITLE
 10
3652.9596011293138
 20
748.62836381768943
 30
0.0
 11
3661.848291152105
 21
757.5170538404783
 31
0.0
  0
LINE
  5
1898
  8
TITLE
 10
3654.7052985822629
 20
748.62836381768943
 30
0.0
 11
3661.848291152105
 21
755.77135638760228
 31
0.0
  0
LINE
  5
1899
  8
TITLE
 10
3638.9940215059141
 20
748.62836381768943
 30
0.0
 11
3667.0627078643902
 21
776.69705017624437
 31
0.0
  0
LINE
  5
189A
  8
TITLE
 10
3640.7397189588601
 20
748.62836381768943
 30
0.0
 11
3668.392028331119
 21
776.28067319009676
 31
0.0
  0
LINE
  5
189B
  8
TITLE
 10
3642.4854164116582
 20
748.62836381768943
 30
0.0
 11
3669.740934517431
 21
775.88388192339733
 31
0.0
  0
LINE
  5
189C
  8
TITLE
 10
3644.231113864601
 20
748.62836381768943
 30
0.0
 11
3671.109996903594
 21
775.50724685661055
 31
0.0
  0
LINE
  5
189D
  8
TITLE
 10
3645.9768113175469
 20
748.62836381768943
 30
0.0
 11
3672.4998339652011
 21
775.15138646534569
 31
0.0
  0
LINE
  5
189E
  8
TITLE
 10
3647.7225087704851
 20
748.62836381768943
 30
0.0
 11
3673.9111172962848
 21
774.81697234356614
 31
0.0
  0
LINE
  5
189F
  8
TITLE
 10
3765.0169030723782
 20
780.38358292601538
 30
0.0
 11
3781.7390851735331
 21
797.10576502716344
 31
0.0
  0
LINE
  5
18A0
  8
TITLE
 10
3765.0169030723782
 20
778.63788547307593
 30
0.0
 11
3782.585501112811
 21
796.20648351357715
 31
0.0
  0
LINE
  5
18A1
  8
TITLE
 10
3765.0169030723782
 20
776.89218802013556
 30
0.0
 11
3782.585501112811
 21
794.46078606063429
 31
0.0
  0
LINE
  5
18A2
  8
TITLE
 10
3765.0169030723782
 20
775.14649056718952
 30
0.0
 11
3782.585501112811
 21
792.71508860775543
 31
0.0
  0
LINE
  5
18A3
  8
TITLE
 10
3749.6012862318598
 20
754.49378136790813
 30
0.0
 11
3782.585501112811
 21
787.47799624892696
 31
0.0
  0
LINE
  5
18A4
  8
TITLE
 10
3751.346983684803
 20
754.49378136790813
 30
0.0
 11
3782.585501112811
 21
785.73229879599
 31
0.0
  0
LINE
  5
18A5
  8
TITLE
 10
3753.0926811377449
 20
754.49378136790813
 30
0.0
 11
3782.585501112811
 21
783.98660134304373
 31
0.0
  0
LINE
  5
18A6
  8
TITLE
 10
3754.838378590689
 20
754.49378136790813
 30
0.0
 11
3782.585501112811
 21
782.24090389010428
 31
0.0
  0
LINE
  5
18A7
  8
TITLE
 10
3756.5840760436299
 20
754.49378136790813
 30
0.0
 11
3782.585501112811
 21
780.49520643716755
 31
0.0
  0
LINE
  5
18A8
  8
TITLE
 10
3765.0169030723782
 20
773.40079311424449
 30
0.0
 11
3782.585501112811
 21
790.96939115481575
 31
0.0
  0
LINE
  5
18A9
  8
TITLE
 10
3765.0169030723782
 20
771.65509566130379
 30
0.0
 11
3782.585501112811
 21
789.22369370187278
 31
0.0
  0
LINE
  5
18AA
  8
TITLE
 10
3748.452223452075
 20
758.58181094688598
 30
0.0
 11
3761.4089878283739
 21
771.53857532332484
 31
0.0
  0
LINE
  5
18AB
  8
TITLE
 10
3748.452223452075
 20
756.83611349401554
 30
0.0
 11
3763.1546852813099
 21
771.53857532332484
 31
0.0
  0
LINE
  5
18AC
  8
TITLE
 10
3748.452223452075
 20
755.09041604106926
 30
0.0
 11
3764.9003827342549
 21
771.53857532332484
 31
0.0
  0
LINE
  5
18AD
  8
TITLE
 10
3748.452223452075
 20
760.32750839982555
 30
0.0
 11
3759.6632903755658
 21
771.53857532332484
 31
0.0
  0
LINE
  5
18AE
  8
TITLE
 10
3748.452223452075
 20
765.5646007586621
 30
0.0
 11
3754.4261980167389
 21
771.53857532332484
 31
0.0
  0
LINE
  5
18AF
  8
TITLE
 10
3748.452223452075
 20
763.81890330571366
 30
0.0
 11
3756.1718954696839
 21
771.53857532332484
 31
0.0
  0
LINE
  5
18B0
  8
TITLE
 10
3748.452223452075
 20
762.07320585276875
 30
0.0
 11
3757.9175929226249
 21
771.53857532332484
 31
0.0
  0
LINE
  5
18B1
  8
TITLE
 10
3748.452223452075
 20
769.05599566453702
 30
0.0
 11
3750.9348031108502
 21
771.53857532332484
 31
0.0
  0
LINE
  5
18B2
  8
TITLE
 10
3748.452223452075
 20
767.31029821159632
 30
0.0
 11
3752.6805005638021
 21
771.53857532332484
 31
0.0
  0
LINE
  5
18B3
  8
TITLE
 10
3763.5668658552599
 20
754.49378136790813
 30
0.0
 11
3782.585501112811
 21
773.51241662552627
 31
0.0
  0
LINE
  5
18B4
  8
TITLE
 10
3748.452223452075
 20
770.80169311748273
 30
0.0
 11
3749.1891056579129
 21
771.53857532332484
 31
0.0
  0
LINE
  5
18B5
  8
TITLE
 10
3760.0754709493799
 20
754.49378136790813
 30
0.0
 11
3782.585501112811
 21
777.00381153134583
 31
0.0
  0
LINE
  5
18B6
  8
TITLE
 10
3761.8211684023172
 20
754.49378136790813
 30
0.0
 11
3782.585501112811
 21
775.25811407840001
 31
0.0
  0
LINE
  5
18B7
  8
TITLE
 10
3758.3297734964299
 20
754.49378136790813
 30
0.0
 11
3782.585501112811
 21
778.74950898428233
 31
0.0
  0
LINE
  5
18B8
  8
TITLE
 10
3765.0169030723782
 20
782.12928037895495
 30
0.0
 11
3779.9933877205858
 21
797.10576502716344
 31
0.0
  0
LINE
  5
18B9
  8
TITLE
 10
3765.0169030723782
 20
792.60346509647877
 30
0.0
 11
3769.519203003073
 21
797.10576502716344
 31
0.0
  0
LINE
  5
18BA
  8
TITLE
 10
3765.0169030723782
 20
790.85776764353045
 30
0.0
 11
3771.2649004560171
 21
797.10576502716344
 31
0.0
  0
LINE
  5
18BB
  8
TITLE
 10
3765.0169030723782
 20
789.11207019058702
 30
0.0
 11
3773.0105979088148
 21
797.10576502716344
 31
0.0
  0
LINE
  5
18BC
  8
TITLE
 10
3765.0169030723782
 20
787.36637273771737
 30
0.0
 11
3774.7562953617539
 21
797.10576502716344
 31
0.0
  0
LINE
  5
18BD
  8
TITLE
 10
3765.0169030723782
 20
785.62067528477678
 30
0.0
 11
3776.5019928146949
 21
797.10576502716344
 31
0.0
  0
LINE
  5
18BE
  8
TITLE
 10
3765.0169030723782
 20
783.87497783183426
 30
0.0
 11
3778.2476902676399
 21
797.10576502716344
 31
0.0
  0
LINE
  5
18BF
  8
TITLE
 10
3765.0169030723782
 20
796.09486000236166
 30
0.0
 11
3766.0278080971798
 21
797.10576502716344
 31
0.0
  0
LINE
  5
18C0
  8
TITLE
 10
3765.0169030723782
 20
794.34916254941572
 30
0.0
 11
3767.773505550128
 21
797.10576502716344
 31
0.0
  0
LINE
  5
18C1
  8
TITLE
 10
3765.0169030723782
 20
714.04707971468213
 30
0.0
 11
3782.585501112811
 21
731.61567775518074
 31
0.0
  0
LINE
  5
18C2
  8
TITLE
 10
3765.0169030723782
 20
712.30138226173619
 30
0.0
 11
3782.585501112811
 21
729.86998030223594
 31
0.0
  0
LINE
  5
18C3
  8
TITLE
 10
3765.0169030723782
 20
710.55568480879913
 30
0.0
 11
3782.585501112811
 21
728.12428284929535
 31
0.0
  0
LINE
  5
18C4
  8
TITLE
 10
3765.0169030723782
 20
708.80998735592357
 30
0.0
 11
3782.585501112811
 21
726.37858539635295
 31
0.0
  0
LINE
  5
18C5
  8
TITLE
 10
3765.0169030723782
 20
707.0642899029865
 30
0.0
 11
3782.585501112811
 21
724.63288794348284
 31
0.0
  0
LINE
  5
18C6
  8
TITLE
 10
3765.0169030723782
 20
705.31859245003807
 30
0.0
 11
3782.585501112811
 21
722.88719049054566
 31
0.0
  0
LINE
  5
18C7
  8
TITLE
 10
3765.0169030723782
 20
703.57289499709475
 30
0.0
 11
3782.585501112811
 21
721.141493037597
 31
0.0
  0
LINE
  5
18C8
  8
TITLE
 10
3765.0169030723782
 20
719.284172073435
 30
0.0
 11
3782.585501112811
 21
736.8527701140124
 31
0.0
  0
LINE
  5
18C9
  8
TITLE
 10
3765.0169030723782
 20
717.53847462049509
 30
0.0
 11
3782.585501112811
 21
735.10707266107011
 31
0.0
  0
LINE
  5
18CA
  8
TITLE
 10
3765.0169030723782
 20
715.79277716755257
 30
0.0
 11
3782.585501112811
 21
733.36137520812952
 31
0.0
  0
LINE
  5
18CB
  8
TITLE
 10
3745.5115979041111
 20
685.81328728176368
 30
0.0
 11
3762.5563918594389
 21
702.85808123716959
 31
0.0
  0
LINE
  5
18CC
  8
TITLE
 10
3747.2572953570439
 20
685.81328728176368
 30
0.0
 11
3764.3020893123798
 21
702.85808123716959
 31
0.0
  0
LINE
  5
18CD
  8
TITLE
 10
3749.0029928099948
 20
685.81328728176368
 30
0.0
 11
3782.585501112811
 21
719.39579558472406
 31
0.0
  0
LINE
  5
18CE
  8
TITLE
 10
3750.7486902629321
 20
685.81328728176368
 30
0.0
 11
3782.585501112811
 21
717.65009813178426
 31
0.0
  0
LINE
  5
18CF
  8
TITLE
 10
3752.4943877158812
 20
685.81328728176368
 30
0.0
 11
3782.585501112811
 21
715.90440067883821
 31
0.0
  0
LINE
  5
18D0
  8
TITLE
 10
3754.2400851688171
 20
685.81328728176368
 30
0.0
 11
3782.585501112811
 21
714.15870322590126
 31
0.0
  0
LINE
  5
18D1
  8
TITLE
 10
3755.985782621618
 20
685.81328728176368
 30
0.0
 11
3782.585501112811
 21
712.41300577295544
 31
0.0
  0
LINE
  5
18D2
  8
TITLE
 10
3757.7314800745612
 20
685.81328728176368
 30
0.0
 11
3782.585501112811
 21
710.66730832000917
 31
0.0
  0
LINE
  5
18D3
  8
TITLE
 10
3759.477177527504
 20
685.81328728176368
 30
0.0
 11
3782.585501112811
 21
708.92161086706119
 31
0.0
  0
LINE
  5
18D4
  8
TITLE
 10
3761.2228749804449
 20
685.81328728176368
 30
0.0
 11
3782.585501112811
 21
707.17591341412412
 31
0.0
  0
LINE
  5
18D5
  8
TITLE
 10
3762.9685724333881
 20
685.81328728176368
 30
0.0
 11
3782.585501112811
 21
705.43021596125629
 31
0.0
  0
LINE
  5
18D6
  8
TITLE
 10
3764.7142698863381
 20
685.81328728176368
 30
0.0
 11
3782.585501112811
 21
703.68451850831434
 31
0.0
  0
LINE
  5
18D7
  8
TITLE
 10
3766.459967339275
 20
685.81328728176368
 30
0.0
 11
3783.5047612946141
 21
702.85808123716959
 31
0.0
  0
LINE
  5
18D8
  8
TITLE
 10
3768.205664792225
 20
685.81328728176368
 30
0.0
 11
3785.2504587475569
 21
702.85808123716959
 31
0.0
  0
LINE
  5
18D9
  8
TITLE
 10
3769.9513622451659
 20
685.81328728176368
 30
0.0
 11
3786.9961562005001
 21
702.85808123716959
 31
0.0
  0
LINE
  5
18DA
  8
TITLE
 10
3771.6970596981059
 20
685.81328728176368
 30
0.0
 11
3788.7418536534392
 21
702.85808123716959
 31
0.0
  0
LINE
  5
18DB
  8
TITLE
 10
3765.0169030723782
 20
736.74114660272369
 30
0.0
 11
3782.585501112811
 21
754.30974464329893
 31
0.0
  0
LINE
  5
18DC
  8
TITLE
 10
3765.0169030723782
 20
734.99544914978424
 30
0.0
 11
3782.585501112811
 21
752.56404719035822
 31
0.0
  0
LINE
  5
18DD
  8
TITLE
 10
3765.0169030723782
 20
733.24975169684092
 30
0.0
 11
3782.585501112811
 21
750.81834973741604
 31
0.0
  0
LINE
  5
18DE
  8
TITLE
 10
3765.0169030723782
 20
731.5040542439624
 30
0.0
 11
3782.585501112811
 21
749.07265228446386
 31
0.0
  0
LINE
  5
18DF
  8
TITLE
 10
3765.0169030723782
 20
729.75835679102283
 30
0.0
 11
3782.585501112811
 21
747.32695483152702
 31
0.0
  0
LINE
  5
18E0
  8
TITLE
 10
3765.0169030723782
 20
728.01265933815785
 30
0.0
 11
3782.585501112811
 21
745.58125737858097
 31
0.0
  0
LINE
  5
18E1
  8
TITLE
 10
3765.0169030723782
 20
726.26696188520918
 30
0.0
 11
3782.585501112811
 21
743.83555992564413
 31
0.0
  0
LINE
  5
18E2
  8
TITLE
 10
3765.0169030723782
 20
724.52126443226405
 30
0.0
 11
3782.585501112811
 21
742.08986247276835
 31
0.0
  0
LINE
  5
18E3
  8
TITLE
 10
3765.0169030723782
 20
722.77556697932607
 30
0.0
 11
3782.585501112811
 21
740.34416501982605
 31
0.0
  0
LINE
  5
18E4
  8
TITLE
 10
3765.0169030723782
 20
721.02986952638105
 30
0.0
 11
3782.585501112811
 21
738.59846756695561
 31
0.0
  0
LINE
  5
18E5
  8
TITLE
 10
3765.0169030723782
 20
754.19812113201567
 30
0.0
 11
3782.585501112811
 21
771.76671917258443
 31
0.0
  0
LINE
  5
18E6
  8
TITLE
 10
3765.0169030723782
 20
752.45242367907531
 30
0.0
 11
3784.1030547164842
 21
771.53857532332484
 31
0.0
  0
LINE
  5
18E7
  8
TITLE
 10
3765.0169030723782
 20
750.70672622619645
 30
0.0
 11
3785.8487521694292
 21
771.53857532332484
 31
0.0
  0
LINE
  5
18E8
  8
TITLE
 10
3765.0169030723782
 20
748.961028773257
 30
0.0
 11
3787.5944496223701
 21
771.53857532332484
 31
0.0
  0
LINE
  5
18E9
  8
TITLE
 10
3765.0169030723782
 20
747.21533132031095
 30
0.0
 11
3789.3401470753101
 21
771.53857532332484
 31
0.0
  0
LINE
  5
18EA
  8
TITLE
 10
3709.0915318889979
 20
766.35495061298252
 30
0.0
 11
3728.3035453108801
 21
785.56696403471631
 31
0.0
  0
LINE
  5
18EB
  8
TITLE
 10
3710.8372293419388
 20
766.35495061298252
 30
0.0
 11
3728.3035453108801
 21
783.82126658177685
 31
0.0
  0
LINE
  5
18EC
  8
TITLE
 10
3712.5829267948839
 20
766.35495061298252
 30
0.0
 11
3728.3035453108801
 21
782.07556912890038
 31
0.0
  0
LINE
  5
18ED
  8
TITLE
 10
3724.4141720944658
 20
760.72922138327635
 30
0.0
 11
3743.2446035184289
 21
779.55965280717135
 31
0.0
  0
LINE
  5
18EE
  8
TITLE
 10
3723.8795653629932
 20
758.44891719886562
 30
0.0
 11
3744.9903009713748
 21
779.55965280717135
 31
0.0
  0
LINE
  5
18EF
  8
TITLE
 10
3714.3286242478262
 20
766.35495061298252
 30
0.0
 11
3728.3035453108801
 21
780.32987167595491
 31
0.0
  0
LINE
  5
18F0
  8
TITLE
 10
3716.0743217007721
 20
766.35495061298252
 30
0.0
 11
3729.279023894886
 21
779.55965280717135
 31
0.0
  0
LINE
  5
18F1
  8
TITLE
 10
3717.8200191537148
 20
766.35495061298252
 30
0.0
 11
3731.024721347831
 21
779.55965280717135
 31
0.0
  0
LINE
  5
18F2
  8
TITLE
 10
3719.5657166065162
 20
766.35495061298252
 30
0.0
 11
3732.7704188007719
 21
779.55965280717135
 31
0.0
  0
LINE
  5
18F3
  8
TITLE
 10
3721.3114140594562
 20
766.35495061298252
 30
0.0
 11
3734.5161162537129
 21
779.55965280717135
 31
0.0
  0
LINE
  5
18F4
  8
TITLE
 10
3723.0571115123989
 20
766.35495061298252
 30
0.0
 11
3736.2618137066602
 21
779.55965280717135
 31
0.0
  0
LINE
  5
18F5
  8
TITLE
 10
3724.802808965339
 20
766.35495061298252
 30
0.0
 11
3738.0075111596061
 21
779.55965280717135
 31
0.0
  0
LINE
  5
18F6
  8
TITLE
 10
3725.0453658846131
 20
764.85181007917026
 30
0.0
 11
3739.7532086125402
 21
779.55965280717135
 31
0.0
  0
LINE
  5
18F7
  8
TITLE
 10
3724.7922149484589
 20
762.85296169020887
 30
0.0
 11
3741.4989060654862
 21
779.55965280717135
 31
0.0
  0
LINE
  5
18F8
  8
TITLE
 10
3711.5983209413139
 20
782.82731928869396
 30
0.0
 11
3725.8767666797798
 21
797.10576502716344
 31
0.0
  0
LINE
  5
18F9
  8
TITLE
 10
3711.5983209413139
 20
781.08162183574552
 30
0.0
 11
3727.6224641327208
 21
797.10576502716344
 31
0.0
  0
LINE
  5
18FA
  8
TITLE
 10
3711.5983209413139
 20
793.30150400620812
 30
0.0
 11
3715.4025819622598
 21
797.10576502716344
 31
0.0
  0
LINE
  5
18FB
  8
TITLE
 10
3711.5983209413139
 20
791.55580655326537
 30
0.0
 11
3717.1482794152098
 21
797.10576502716344
 31
0.0
  0
LINE
  5
18FC
  8
TITLE
 10
3711.5983209413139
 20
789.81010910033115
 30
0.0
 11
3718.8939768680052
 21
797.10576502716344
 31
0.0
  0
LINE
  5
18FD
  8
TITLE
 10
3711.5983209413139
 20
788.06441164745536
 30
0.0
 11
3720.6396743209571
 21
797.10576502716344
 31
0.0
  0
LINE
  5
18FE
  8
TITLE
 10
3711.5983209413139
 20
786.31871419450954
 30
0.0
 11
3722.3853717738948
 21
797.10576502716344
 31
0.0
  0
LINE
  5
18FF
  8
TITLE
 10
3711.5983209413139
 20
784.57301674156417
 30
0.0
 11
3724.1310692268389
 21
797.10576502716344
 31
0.0
  0
LINE
  5
1900
  8
TITLE
 10
3711.5983209413139
 20
796.79289891209703
 30
0.0
 11
3711.9111870563811
 21
797.10576502716344
 31
0.0
  0
LINE
  5
1901
  8
TITLE
 10
3711.5983209413139
 20
795.04720145915439
 30
0.0
 11
3713.656884509322
 21
797.10576502716344
 31
0.0
  0
LINE
  5
1902
  8
TITLE
 10
3711.5983209413139
 20
709.50802626566485
 30
0.0
 11
3728.3035453108801
 21
726.21325063516292
 31
0.0
  0
LINE
  5
1903
  8
TITLE
 10
3711.5983209413139
 20
707.76232881271631
 30
0.0
 11
3728.3035453108801
 21
724.46755318221813
 31
0.0
  0
LINE
  5
1904
  8
TITLE
 10
3711.5983209413139
 20
706.01663135977685
 30
0.0
 11
3728.3035453108801
 21
722.72185572934188
 31
0.0
  0
LINE
  5
1905
  8
TITLE
 10
3711.5983209413139
 20
704.27093390683376
 30
0.0
 11
3728.3035453108801
 21
720.97615827639595
 31
0.0
  0
LINE
  5
1906
  8
TITLE
 10
3737.3894311271761
 20
719.58785937510345
 30
0.0
 11
3745.008774350491
 21
727.20720259849122
 31
0.0
  0
LINE
  5
1907
  8
TITLE
 10
3738.3739195839098
 20
718.8266503789705
 30
0.0
 11
3745.008774350491
 21
725.46150514554495
 31
0.0
  0
LINE
  5
1908
  8
TITLE
 10
3739.358408040639
 20
718.06544138275535
 30
0.0
 11
3745.008774350491
 21
723.71580769267564
 31
0.0
  0
LINE
  5
1909
  8
TITLE
 10
3740.3428964973782
 20
717.3042323866224
 30
0.0
 11
3745.008774350491
 21
721.97011023973505
 31
0.0
  0
LINE
  5
190A
  8
TITLE
 10
3741.3273849542502
 20
716.54302339048638
 30
0.0
 11
3745.008774350491
 21
720.22441278679571
 31
0.0
  0
LINE
  5
190B
  8
TITLE
 10
3711.5983209413139
 20
718.23651353022456
 30
0.0
 11
3735.6854021335948
 21
742.32359472266126
 31
0.0
  0
LINE
  5
190C
  8
TITLE
 10
3711.5983209413139
 20
716.49081607728249
 30
0.0
 11
3736.5352189461719
 21
741.42771408221824
 31
0.0
  0
LINE
  5
190D
  8
TITLE
 10
3711.5983209413139
 20
714.74511862441443
 30
0.0
 11
3737.3850357587398
 21
740.53183344178274
 31
0.0
  0
LINE
  5
190E
  8
TITLE
 10
3711.5983209413139
 20
712.99942117147782
 30
0.0
 11
3738.2348525711732
 21
739.63595280140919
 31
0.0
  0
LINE
  5
190F
  8
TITLE
 10
3711.5983209413139
 20
711.25372371852927
 30
0.0
 11
3739.0846693837461
 21
738.74007216103894
 31
0.0
  0
LINE
  5
1910
  8
TITLE
 10
3711.5983209413139
 20
695.54244664218663
 30
0.0
 11
3728.3035453108801
 21
712.24767101168197
 31
0.0
  0
LINE
  5
1911
  8
TITLE
 10
3711.5983209413139
 20
693.79674918924343
 30
0.0
 11
3728.3035453108801
 21
710.50197355881153
 31
0.0
  0
LINE
  5
1912
  8
TITLE
 10
3711.5983209413139
 20
692.05105173637696
 30
0.0
 11
3728.3035453108801
 21
708.75627610586912
 31
0.0
  0
LINE
  5
1913
  8
TITLE
 10
3711.5983209413139
 20
690.30535428342773
 30
0.0
 11
3728.3035453108801
 21
707.01057865292307
 31
0.0
  0
LINE
  5
1914
  8
TITLE
 10
3711.5983209413139
 20
688.55965683049021
 30
0.0
 11
3728.3035453108801
 21
705.26488120005286
 31
0.0
  0
LINE
  5
1915
  8
TITLE
 10
3711.5983209413139
 20
686.81395937754155
 30
0.0
 11
3728.3035453108801
 21
703.51918374711602
 31
0.0
  0
LINE
  5
1916
  8
TITLE
 10
3712.343346298474
 20
685.81328728176368
 30
0.0
 11
3728.3035453108801
 21
701.77348629416713
 31
0.0
  0
LINE
  5
1917
  8
TITLE
 10
3714.0890437514172
 20
685.81328728176368
 30
0.0
 11
3728.3035453108801
 21
700.02778884122108
 31
0.0
  0
LINE
  5
1918
  8
TITLE
 10
3711.5983209413139
 20
697.28814409513552
 30
0.0
 11
3728.3035453108801
 21
713.99336846462415
 31
0.0
  0
LINE
  5
1919
  8
TITLE
 10
3715.8347412043559
 20
685.81328728176368
 30
0.0
 11
3728.3035453108801
 21
698.28209138828458
 31
0.0
  0
LINE
  5
191A
  8
TITLE
 10
3717.5804386573
 20
685.81328728176368
 30
0.0
 11
3728.3035453108801
 21
696.53639393534149
 31
0.0
  0
LINE
  5
191B
  8
TITLE
 10
3719.3261361101058
 20
685.81328728176368
 30
0.0
 11
3728.3035453108801
 21
694.79069648239283
 31
0.0
  0
LINE
  5
191C
  8
TITLE
 10
3721.0718335630422
 20
685.81328728176368
 30
0.0
 11
3728.3035453108801
 21
693.04499902945031
 31
0.0
  0
LINE
  5
191D
  8
TITLE
 10
3722.8175310159882
 20
685.81328728176368
 30
0.0
 11
3728.3035453108801
 21
691.29930157657691
 31
0.0
  0
LINE
  5
191E
  8
TITLE
 10
3724.5632284689291
 20
685.81328728176368
 30
0.0
 11
3728.3035453108801
 21
689.55360412364314
 31
0.0
  0
LINE
  5
191F
  8
TITLE
 10
3726.3089259218741
 20
685.81328728176368
 30
0.0
 11
3728.3035453108801
 21
687.80790667069755
 31
0.0
  0
LINE
  5
1920
  8
TITLE
 10
3728.0546233748132
 20
685.81328728176368
 30
0.0
 11
3728.3035453108801
 21
686.06220921782995
 31
0.0
  0
LINE
  5
1921
  8
TITLE
 10
3711.5983209413139
 20
702.52523645388783
 30
0.0
 11
3728.3035453108801
 21
719.23046082345525
 31
0.0
  0
LINE
  5
1922
  8
TITLE
 10
3711.5983209413139
 20
700.77953900094542
 30
0.0
 11
3728.3035453108801
 21
717.48476337051875
 31
0.0
  0
LINE
  5
1923
  8
TITLE
 10
3711.5983209413139
 20
699.0338415479996
 30
0.0
 11
3728.3035453108801
 21
715.73906591756725
 31
0.0
  0
LINE
  5
1924
  8
TITLE
 10
3741.9267420450092
 20
701.43110340489716
 30
0.0
 11
3743.3537198772142
 21
702.85808123716959
 31
0.0
  0
LINE
  5
1925
  8
TITLE
 10
3744.2808503244501
 20
714.25939640199408
 30
0.0
 11
3745.008774350491
 21
714.98732042803397
 31
0.0
  0
LINE
  5
1926
  8
TITLE
 10
3742.3118734109789
 20
715.78181439427522
 30
0.0
 11
3745.008774350491
 21
718.47871533392504
 31
0.0
  0
LINE
  5
1927
  8
TITLE
 10
3743.2963618677122
 20
715.02060539813851
 30
0.0
 11
3745.008774350491
 21
716.73301788098286
 31
0.0
  0
LINE
  5
1928
  8
TITLE
 10
3710.1596132318341
 20
720.28920072670769
 30
0.0
 11
3738.242113777414
 21
748.37170127221646
 31
0.0
  0
LINE
  5
1929
  8
TITLE
 10
3711.5983209413139
 20
719.98221098317288
 30
0.0
 11
3736.1144525698251
 21
744.49834261169383
 31
0.0
  0
LINE
  5
192A
  8
TITLE
 10
3734.4359657568298
 20
721.87148636359564
 30
0.0
 11
3745.008774350491
 21
732.44429495732231
 31
0.0
  0
LINE
  5
192B
  8
TITLE
 10
3735.4204542135658
 20
721.11027736745677
 30
0.0
 11
3745.008774350491
 21
730.69859750437649
 31
0.0
  0
LINE
  5
192C
  8
TITLE
 10
3728.529035016285
 20
726.43874034056034
 30
0.0
 11
3739.9344861963259
 21
737.84419152067062
 31
0.0
  0
LINE
  5
192D
  8
TITLE
 10
3729.5135234730178
 20
725.67753134442376
 30
0.0
 11
3740.7843030087538
 21
736.94831088023557
 31
0.0
  0
LINE
  5
192E
  8
TITLE
 10
3730.4980119297561
 20
724.91632234821748
 30
0.0
 11
3741.634119821329
 21
736.05243023979733
 31
0.0
  0
LINE
  5
192F
  8
TITLE
 10
3731.4825003864848
 20
724.155113352076
 30
0.0
 11
3742.4839366338988
 21
735.15654959942367
 31
0.0
  0
LINE
  5
1930
  8
TITLE
 10
3732.4669888432209
 20
723.39390435594328
 30
0.0
 11
3743.3337534463381
 21
734.26066895905592
 31
0.0
  0
LINE
  5
1931
  8
TITLE
 10
3733.4514773001001
 20
722.63269535972836
 30
0.0
 11
3744.1835702589101
 21
733.36478831861496
 31
0.0
  0
LINE
  5
1932
  8
TITLE
 10
3736.404942670295
 20
720.3490683712447
 30
0.0
 11
3745.008774350491
 21
728.95290005143704
 31
0.0
  0
LINE
  5
1933
  8
TITLE
 10
3720.5813558917589
 20
749.91361536886882
 30
0.0
 11
3745.0040818511229
 21
774.33634132830252
 31
0.0
  0
LINE
  5
1934
  8
TITLE
 10
3717.9654827661502
 20
745.55204479031772
 30
0.0
 11
3744.8992209614198
 21
772.48578298559676
 31
0.0
  0
LINE
  5
1935
  8
TITLE
 10
3743.7659004511602
 20
685.81328728176368
 30
0.0
 11
3760.810694406498
 21
702.85808123716959
 31
0.0
  0
LINE
  5
1936
  8
TITLE
 10
3741.9267420450092
 20
689.2112212343028
 30
0.0
 11
3755.5736020478089
 21
702.85808123716959
 31
0.0
  0
LINE
  5
1937
  8
TITLE
 10
3741.9267420450092
 20
687.46552378142405
 30
0.0
 11
3757.3192995007521
 21
702.85808123716959
 31
0.0
  0
LINE
  5
1938
  8
TITLE
 10
3742.0202029982188
 20
685.81328728176368
 30
0.0
 11
3759.0649969535511
 21
702.85808123716959
 31
0.0
  0
LINE
  5
1939
  8
TITLE
 10
3741.9267420450092
 20
696.19401104606573
 30
0.0
 11
3748.5908122360338
 21
702.85808123716959
 31
0.0
  0
LINE
  5
193A
  8
TITLE
 10
3741.9267420450092
 20
694.44831359312275
 30
0.0
 11
3750.3365096889802
 21
702.85808123716959
 31
0.0
  0
LINE
  5
193B
  8
TITLE
 10
3741.9267420450092
 20
692.70261614018318
 30
0.0
 11
3752.0822071419229
 21
702.85808123716959
 31
0.0
  0
LINE
  5
193C
  8
TITLE
 10
3741.9267420450092
 20
690.95691868723975
 30
0.0
 11
3753.827904594873
 21
702.85808123716959
 31
0.0
  0
LINE
  5
193D
  8
TITLE
 10
3741.9267420450092
 20
697.93970849901461
 30
0.0
 11
3746.8451147831011
 21
702.85808123716959
 31
0.0
  0
LINE
  5
193E
  8
TITLE
 10
3741.9267420450092
 20
699.68540595195122
 30
0.0
 11
3745.099417330151
 21
702.85808123716959
 31
0.0
  0
LINE
  5
193F
  8
TITLE
 10
3722.10179507767
 20
753.17975200771809
 30
0.0
 11
3745.0541576016808
 21
776.13211453173813
 31
0.0
  0
LINE
  5
1940
  8
TITLE
 10
3723.1382871131791
 20
755.96194149603662
 30
0.0
 11
3745.054159305852
 21
777.87781368870435
 31
0.0
  0
LINE
  5
1941
  8
TITLE
 10
3791.4980251022048
 20
754.49378136790813
 30
0.0
 11
3799.6521422783399
 21
762.64789854411549
 31
0.0
  0
LINE
  5
1942
  8
TITLE
 10
3793.2437225550052
 20
754.49378136790813
 30
0.0
 11
3799.6521422783399
 21
760.90220109117251
 31
0.0
  0
LINE
  5
1943
  8
TITLE
 10
3794.989420007953
 20
754.49378136790813
 30
0.0
 11
3799.6521422783399
 21
759.15650363823568
 31
0.0
  0
LINE
  5
1944
  8
TITLE
 10
3796.7351174608889
 20
754.49378136790813
 30
0.0
 11
3799.6521422783399
 21
757.41080618528406
 31
0.0
  0
LINE
  5
1945
  8
TITLE
 10
3798.4808149138339
 20
754.49378136790813
 30
0.0
 11
3799.6521422783399
 21
755.66510873234085
 31
0.0
  0
LINE
  5
1946
  8
TITLE
 10
3790.8997316803302
 20
685.81328728176368
 30
0.0
 11
3804.6717390498729
 21
699.58529465129925
 31
0.0
  0
LINE
  5
1947
  8
TITLE
 10
3799.628218944913
 20
685.81328728176368
 30
0.0
 11
3804.6717390498729
 21
690.85680738672124
 31
0.0
  0
LINE
  5
1948
  8
TITLE
 10
3801.3739163978521
 20
685.81328728176368
 30
0.0
 11
3804.6717390498729
 21
689.11110993378452
 31
0.0
  0
LINE
  5
1949
  8
TITLE
 10
3792.6454291331329
 20
685.81328728176368
 30
0.0
 11
3804.6717390498729
 21
697.83959719835048
 31
0.0
  0
LINE
  5
194A
  8
TITLE
 10
3794.3911265860779
 20
685.81328728176368
 30
0.0
 11
3804.6717390498729
 21
696.09389974548344
 31
0.0
  0
LINE
  5
194B
  8
TITLE
 10
3796.1368240390202
 20
685.81328728176368
 30
0.0
 11
3804.6717390498729
 21
694.34820229253762
 31
0.0
  0
LINE
  5
194C
  8
TITLE
 10
3797.882521491963
 20
685.81328728176368
 30
0.0
 11
3804.6717390498729
 21
692.60250483966695
 31
0.0
  0
LINE
  5
194D
  8
TITLE
 10
3803.119613850793
 20
685.81328728176368
 30
0.0
 11
3804.6717390498729
 21
687.36541248083859
 31
0.0
  0
LINE
  5
394D
  8
TITLE
 10
2540.9314575050762
 20
873.43145750507631
 30
0.0
 11
2654.0685424949238
 21
986.56854249492369
 31
0.0
  0
LINE
  5
497A
  8
MODEL
 10
3072.5000000000009
 20
3748.3200000000002
 30
0.0
 11
3122.5000000000009
 21
3748.3200000000002
 31
0.0
  0
LINE
  5
497B
  8
MODEL
 10
3072.5000000000009
 20
3748.3200000000002
 30
0.0
 11
3072.5000000000009
 21
2748.3200000000002
 31
0.0
  0
LINE
  5
497C
  8
MODEL
 10
3122.5000000000009
 20
3748.3200000000002
 30
0.0
 11
3122.5000000000009
 21
2748.3200000000002
 31
0.0
  0
LINE
  5
497D
  8
MODEL
 10
1246.9200000000001
 20
3748.3200000000002
 30
0.0
 11
1246.9200000000001
 21
2748.3200000000002
 31
0.0
  0
LINE
  5
497E
  8
MODEL
 10
1246.9200000000001
 20
3748.3200000000002
 30
0.0
 11
2146.920000000001
 21
3748.3200000000002
 31
0.0
  0
LINE
  5
497F
  8
MODEL
 10
2146.920000000001
 20
3748.3200000000002
 30
0.0
 11
2146.920000000001
 21
2748.3200000000002
 31
0.0
  0
LINE
  5
4980
  8
MODEL
 10
1246.9200000000001
 20
2748.3200000000002
 30
0.0
 11
2146.920000000001
 21
2748.3200000000002
 31
0.0
  0
LINE
  5
4981
  8
MODEL
 10
1246.9200000000001
 20
4714.1599999999989
 30
0.0
 11
1246.9200000000001
 21
4764.1599999999989
 31
0.0
  0
LINE
  5
4982
  8
MODEL
 10
1246.9200000000001
 20
4714.1599999999989
 30
0.0
 11
2146.920000000001
 21
4714.1599999999989
 31
0.0
  0
LINE
  5
4983
  8
MODEL
 10
2146.920000000001
 20
4714.1599999999989
 30
0.0
 11
2146.920000000001
 21
4764.1599999999989
 31
0.0
  0
LINE
  5
4984
  8
MODEL
 10
1246.9200000000001
 20
4764.1599999999989
 30
0.0
 11
2146.920000000001
 21
4764.1599999999989
 31
0.0
  0
LINE
  5
4985
  8
MODEL
 10
3072.5000000000009
 20
2748.3200000000002
 30
0.0
 11
3122.5000000000009
 21
2748.3200000000002
 31
0.0
  0
LINE
  5
4A93
  8
DIMS
  6
CONTINUOUS
 62
     1
 10
2166.920000000001
 20
2748.3200000000002
 30
0.0
 11
2286.9200000000001
 21
2748.3200000000002
 31
0.0
  0
LINE
  5
4A94
  8
DIMS
  6
CONTINUOUS
 62
     1
 10
2166.920000000001
 20
3748.3200000000002
 30
0.0
 11
2286.9200000000001
 21
3748.3200000000002
 31
0.0
  0
LINE
  5
4A95
  8
DIMS
  6
CONTINUOUS
 62
     1
 10
2266.9200000000001
 20
2788.3200000000002
 30
0.0
 11
2266.9200000000001
 21
3708.3200000000002
 31
0.0
  0
SOLID
  5
4A96
  8
DIMS
  6
CONTINUOUS
 62
     1
 10
2260.2533333333331
 20
2788.3200000000002
 30
0.0
 11
2273.5866666666661
 21
2788.3200000000002
 31
0.0
 12
2266.9200000000001
 22
2748.3200000000002
 32
0.0
 13
2266.9200000000001
 23
2748.3200000000002
 33
0.0
  0
SOLID
  5
4A97
  8
DIMS
  6
CONTINUOUS
 62
     1
 10
2260.253333333334
 20
3708.3200000000002
 30
0.0
 11
2273.586666666667
 21
3708.3200000000002
 31
0.0
 12
2266.9200000000001
 22
3748.3200000000002
 32
0.0
 13
2266.9200000000001
 23
3748.3200000000002
 33
0.0
  0
INSERT
  5
4A98
  8
0
  2
*U9
 10
0.0
 20
0.0
 30
0.0
  0
LINE
  5
4A99
  8
DIMS
  6
CONTINUOUS
 62
     1
 10
2166.920000000001
 20
4714.1599999999989
 30
0.0
 11
2286.920000000001
 21
4714.1599999999989
 31
0.0
  0
LINE
  5
4A9A
  8
DIMS
  6
CONTINUOUS
 62
     1
 10
2166.920000000001
 20
4764.1599999999989
 30
0.0
 11
2286.920000000001
 21
4764.1599999999989
 31
0.0
  0
LINE
  5
4A9B
  8
DIMS
  6
CONTINUOUS
 62
     1
 10
2266.920000000001
 20
4674.1599999999989
 30
0.0
 11
2266.920000000001
 21
4634.1599999999999
 31
0.0
  0
LINE
  5
4A9C
  8
DIMS
  6
CONTINUOUS
 62
     1
 10
2266.920000000001
 20
4804.1599999999999
 30
0.0
 11
2266.920000000001
 21
4844.1599999999999
 31
0.0
  0
LINE
  5
4A9D
  8
DIMS
  6
CONTINUOUS
 62
     1
 10
2266.920000000001
 20
4510.6076939650438
 30
0.0
 11
2266.920000000001
 21
4714.1599999999989
 31
0.0
  0
INSERT
  5
4A9E
  8
0
  2
*U10
 10
0.0
 20
0.0
 30
0.0
  0
LINE
  5
4A9F
  8
DIMS
  6
CONTINUOUS
 62
     1
 10
2266.920000000001
 20
4714.1599999999989
 30
0.0
 11
2266.920000000001
 21
4764.1599999999989
 31
0.0
  0
LINE
  5
4AA0
  8
DIMS
  6
CONTINUOUS
 62
     1
 10
2266.920000000001
 20
4714.1599999999989
 30
0.0
 11
2266.920000000001
 21
4764.1599999999989
 31
0.0
  0
SOLID
  5
4AA1
  8
DIMS
  6
CONTINUOUS
 62
     1
 10
2260.253333333334
 20
4674.1599999999989
 30
0.0
 11
2273.586666666667
 21
4674.1599999999989
 31
0.0
 12
2266.920000000001
 22
4714.1599999999989
 32
0.0
 13
2266.920000000001
 23
4714.1599999999989
 33
0.0
  0
SOLID
  5
4AA2
  8
DIMS
  6
CONTINUOUS
 62
     1
 10
2260.253333333334
 20
4804.1599999999999
 30
0.0
 11
2273.586666666667
 21
4804.1599999999999
 31
0.0
 12
2266.920000000001
 22
4764.1599999999989
 32
0.0
 13
2266.920000000001
 23
4764.1599999999989
 33
0.0
  0
LINE
  5
4AA3
  8
DIMS
  6
CONTINUOUS
 62
     1
 10
1246.9200000000001
 20
3768.3200000000002
 30
0.0
 11
1246.9200000000001
 21
3888.3200000000002
 31
0.0
  0
LINE
  5
4AA4
  8
DIMS
  6
CONTINUOUS
 62
     1
 10
2146.920000000001
 20
3768.3200000000002
 30
0.0
 11
2146.920000000001
 21
3888.3200000000002
 31
0.0
  0
LINE
  5
4AA5
  8
DIMS
  6
CONTINUOUS
 62
     1
 10
1286.9200000000001
 20
3868.3200000000002
 30
0.0
 11
2106.920000000001
 21
3868.3200000000002
 31
0.0
  0
SOLID
  5
4AA6
  8
DIMS
  6
CONTINUOUS
 62
     1
 10
1286.9200000000001
 20
3874.9866666666662
 30
0.0
 11
1286.9200000000001
 21
3861.6533333333332
 31
0.0
 12
1246.9200000000001
 22
3868.3200000000002
 32
0.0
 13
1246.9200000000001
 23
3868.3200000000002
 33
0.0
  0
SOLID
  5
4AA7
  8
DIMS
  6
CONTINUOUS
 62
     1
 10
2106.920000000001
 20
3874.9866666666662
 30
0.0
 11
2106.920000000001
 21
3861.6533333333332
 31
0.0
 12
2146.920000000001
 22
3868.3200000000002
 32
0.0
 13
2146.920000000001
 23
3868.3200000000002
 33
0.0
  0
INSERT
  5
4AA8
  8
0
  2
*U11
 10
0.0
 20
0.0
 30
0.0
  0
LINE
  5
4AA9
  8
DIMS
  6
CONTINUOUS
 62
     1
 10
3072.5000000000009
 20
3768.3200000000002
 30
0.0
 11
3072.5000000000009
 21
3888.3200000000002
 31
0.0
  0
LINE
  5
4AAA
  8
DIMS
  6
CONTINUOUS
 62
     1
 10
3122.5000000000009
 20
3768.3200000000002
 30
0.0
 11
3122.5000000000009
 21
3888.3200000000002
 31
0.0
  0
LINE
  5
4AAB
  8
DIMS
  6
CONTINUOUS
 62
     1
 10
3032.5000000000009
 20
3868.3200000000002
 30
0.0
 11
2992.5000000000009
 21
3868.3200000000002
 31
0.0
  0
LINE
  5
4AAC
  8
DIMS
  6
CONTINUOUS
 62
     1
 10
3162.5000000000009
 20
3868.3200000000002
 30
0.0
 11
3202.5000000000009
 21
3868.3200000000002
 31
0.0
  0
LINE
  5
4AAD
  8
DIMS
  6
CONTINUOUS
 62
     1
 10
3072.5000000000009
 20
3868.3200000000002
 30
0.0
 11
3122.5000000000009
 21
3868.3200000000002
 31
0.0
  0
SOLID
  5
4AAE
  8
DIMS
  6
CONTINUOUS
 62
     1
 10
3032.5000000000009
 20
3874.9866666666662
 30
0.0
 11
3032.5000000000009
 21
3861.6533333333332
 31
0.0
 12
3072.5000000000009
 22
3868.3200000000002
 32
0.0
 13
3072.5000000000009
 23
3868.3200000000002
 33
0.0
  0
SOLID
  5
4AAF
  8
DIMS
  6
CONTINUOUS
 62
     1
 10
3162.5000000000009
 20
3874.9866666666662
 30
0.0
 11
3162.5000000000009
 21
3861.6533333333332
 31
0.0
 12
3122.5000000000009
 22
3868.3200000000002
 32
0.0
 13
3122.5000000000009
 23
3868.3200000000002
 33
0.0
  0
INSERT
  5
4AB0
  8
0
  2
*U12
 10
0.0
 20
0.0
 30
0.0
  0
TEXT
  5
4AB1
  8
TITLE
 10
469.8509016960042
 20
477.62567890044232
 30
0.0
 40
50.0
  1
色：グレー、ベージュ、ブラウン、木調ダーク、木調ライト
1001
ACAD
1000
ACAD_MTEXT_DEFINED_HEIGHT_BEGIN
1070
    46
1040
275.12567890044232
1000
ACAD_MTEXT_DEFINED_HEIGHT_END
  0
TEXT
  5
4AB2
  8
TITLE
 10
469.8509016960042
 20
394.29234556710901
 30
0.0
 40
50.0
  1
外被材：合成レザーシート
1001
ACAD
1000
ACAD_MTEXT_DEFINED_HEIGHT_BEGIN
1070
    46
1040
275.12567890044232
1000
ACAD_MTEXT_DEFINED_HEIGHT_END
  0
TEXT
  5
4AB3
  8
TITLE
 10
466.51756836267089
 20
310.9590122337757
 30
0.0
 40
50.0
  1
内部構造材：ウレタンチップ、ウレタンフォーム（多重層のみ）
1001
ACAD
1000
ACAD_MTEXT_DEFINED_HEIGHT_BEGIN
1070
    46
1040
275.12567890044232
1000
ACAD_MTEXT_DEFINED_HEIGHT_END
  0
TEXT
  5
4AB4
  8
TITLE
 10
2524.2647908384101
 20
936.56854249492369
 30
0.0
 40
50.0
  1
１
  0
TEXT
  5
4AB5
  8
TITLE
 10
2597.4018758282568
 20
873.43145750507631
 30
0.0
 40
50.0
  1
２０
  0
TEXT
  5
4AB6
  8
TITLE
 10
3464.166666666667
 20
884.88095238095241
 30
0.0
 40
50.0
  1
Ｈ２８．２．１９
  0
TEXT
  5
4AB7
  8
TITLE
 10
3309.166666666667
 20
1125.0
 30
0.0
 40
50.0
  1
１７Ｓ－０１０２
  0
TEXT
  5
4AB8
  8
TITLE
 10
2297.5
 20
1125.0
 30
0.0
 40
50.0
  1
ＹＭＳＷ－５０－１０００
  0
TEXT
  5
4AB9
  8
TITLE
 10
645.0
 20
1125.0
 30
0.0
 40
50.0
  1
ソフトウォール
  0
TEXT
  5
4ABA
  8
TITLE
 10
1665.833333333333
 20
1125.0
 30
0.0
 40
50.0
  1
製品図
  0
LINE
  5
4ABB
  8
DEFPOINTS
 10
0.0
 20
0.0
 30
0.0
 11
4200.0
 21
0.0
 31
0.0
  0
LINE
  5
4ABC
  8
DEFPOINTS
 10
4200.0
 20
0.0
 30
0.0
 11
4200.0
 21
5940.0
 31
0.0
  0
LINE
  5
4ABD
  8
DEFPOINTS
 10
4200.0
 20
5940.0
 30
0.0
 11
0.0
 21
5940.0
 31
0.0
  0
LINE
  5
4ABE
  8
DEFPOINTS
 10
0.0
 20
5940.0
 30
0.0
 11
0.0
 21
0.0
 31
0.0
  0
TEXT
  5
4ABF
  8
TITLE
 10
2440.833333333333
 20
1273.5099413141329
 30
0.0
 40
50.0
  1
タ    イ    プ
  0
TEXT
  5
4AC0
  8
TITLE
 10
2823.7330376043278
 20
976.57592785082682
 30
0.0
 40
50.0
  1
仕上
  0
TEXT
  5
4AC1
  8
TITLE
 10
2218.7330376043278
 20
976.57592785082682
 30
0.0
 40
50.0
  1
縮尺
  0
TEXT
  5
4AC2
  8
TITLE
 10
3342.5
 20
1273.5099413141329
 30
0.0
 40
50.0
  1
図  面  番  号
  0
TEXT
  5
4AC3
  8
TITLE
 10
3414.6854185567099
 20
976.57592785082682
 30
0.0
 40
50.0
  1
日付
  0
TEXT
  5
4AC4
  8
TITLE
 10
1545.833333333333
 20
1273.5099413141329
 30
0.0
 40
50.0
  1
群          別
  0
TEXT
  5
4AC5
  8
TITLE
 10
1339.745864531975
 20
958.74799835220051
 30
0.0
 40
50.0
  1
材質
  0
TEXT
  5
4AC6
  8
TITLE
 10
1341.174435960547
 20
825.41466501886691
 30
0.0
 40
50.0
  1
規格
  0
TEXT
  5
4AC7
  8
TITLE
 10
1339.745864531975
 20
692.08133168553354
 30
0.0
 40
50.0
  1
重量
  0
TEXT
  5
4AC8
  8
TITLE
 10
464.4696516506778
 20
773.5480605349785
 30
0.0
 40
40.0
  1
2
  0
TEXT
  5
4AC9
  8
TITLE
 10
465.04290810808658
 20
873.5480605349785
 30
0.0
 40
40.0
  1
1
  0
TEXT
  5
4ACA
  8
TITLE
 10
464.46965165067797
 20
673.54806053497884
 30
0.0
 40
40.0
  1
3
  0
LINE
  5
4ACB
  8
TITLE
 10
487.5
 20
940.0
 30
0.0
 11
444.19872981077782
 21
865.0
 31
0.0
  0
LINE
  5
4ACC
  8
TITLE
 10
444.19872981077782
 20
865.0
 30
0.0
 11
530.80127018922155
 21
865.0
 31
0.0
  0
LINE
  5
4ACD
  8
TITLE
 10
530.80127018922155
 20
865.0
 30
0.0
 11
487.5
 21
940.0
 31
0.0
  0
LINE
  5
4ACE
  8
TITLE
 10
487.5
 20
740.0
 30
0.0
 11
444.19872981077782
 21
665.0
 31
0.0
  0
LINE
  5
4ACF
  8
TITLE
 10
444.19872981077782
 20
665.0
 30
0.0
 11
530.80127018922155
 21
665.0
 31
0.0
  0
LINE
  5
4AD0
  8
TITLE
 10
530.80127018922155
 20
665.0
 30
0.0
 11
487.5
 21
740.0
 31
0.0
  0
LINE
  5
4AD1
  8
TITLE
 10
487.5
 20
840.0
 30
0.0
 11
444.19872981077782
 21
765.0
 31
0.0
  0
LINE
  5
4AD2
  8
TITLE
 10
444.19872981077782
 20
765.0
 30
0.0
 11
530.80127018922155
 21
765.0
 31
0.0
  0
LINE
  5
4AD3
  8
TITLE
 10
530.80127018922155
 20
765.0
 30
0.0
 11
487.5
 21
840.0
 31
0.0
  0
TEXT
  5
4AD4
  8
TITLE
 10
426.68943253838148
 20
574.78712299588324
 30
0.0
 40
50.0
  1
特記事項
  0
TEXT
  5
4AD5
  8
TITLE
 10
648.33333333333337
 20
1273.509941314132
 30
0.0
 40
50.0
  1
品          名
  0
TEXT
  5
4AD6
  8
TITLE
 10
646.66666666666674
 20
973.50994131413233
 30
0.0
 40
50.0
  1
経          歴
  0
LINE
  5
4AD7
  8
TITLE
 10
400.0
 20
252.5
 30
0.0
 11
3995.0
 21
252.5
 31
0.0
  0
LINE
  5
4AD8
  8
TITLE
 10
3995.0
 20
252.5
 30
0.0
 11
3995.0
 21
5687.4999999999991
 31
0.0
  0
LINE
  5
4AD9
  8
TITLE
 10
3995.0
 20
5687.4999999999991
 30
0.0
 11
400.0
 21
5687.4999999999991
 31
0.0
  0
LINE
  5
4ADA
  8
TITLE
 10
400.0
 20
5687.4999999999991
 30
0.0
 11
400.0
 21
252.5
 31
0.0
  0
ENDSEC
  0
EOF
