  0
SECTION
  2
HEADER
  9
$ACADVER
  1
AC1009
  9
$INSBASE
 10
0.0
 20
0.0
 30
0.0
  9
$EXTMIN
 10
-0.01922157577701
 20
-0.0135919849680022
 30
-0.0000000000000058
  9
$EXTMAX
 10
210.02884219146279
 20
297.01359751731968
 30
0.0000000000000104
  9
$LIMMIN
 10
0.0
 20
0.0
  9
$LIMMAX
 10
420.0
 20
297.0
  9
$ORTHOMODE
 70
     1
  9
$REGENMODE
 70
     1
  9
$FILLMODE
 70
     1
  9
$QTEXTMODE
 70
     0
  9
$MIRRTEXT
 70
     1
  9
$DRAGMODE
 70
     2
  9
$LTSCALE
 40
0.4
  9
$OSMODE
 70
    37
  9
$ATTMODE
 70
     1
  9
$TEXTSIZE
 40
2.5
  9
$TRACEWID
 40
1.0
  9
$TEXTSTYLE
  7
STANDARD
  9
$CLAYER
  8
0
  9
$CELTYPE
  6
BYLAYER
  9
$CECOLOR
 62
   256
  9
$DIMSCALE
 40
0.0
  9
$DIMASZ
 40
2.0
  9
$DIMEXO
 40
1.25
  9
$DIMDLI
 40
7.5
  9
$DIMRND
 40
0.0
  9
$DIMDLE
 40
0.0
  9
$DIMEXE
 40
1.25
  9
$DIMTP
 40
0.0
  9
$DIMTM
 40
0.0
  9
$DIMTXT
 40
2.5
  9
$DIMCEN
 40
0.0
  9
$DIMTSZ
 40
0.0
  9
$DIMTOL
 70
     0
  9
$DIMLIM
 70
     0
  9
$DIMTIH
 70
     0
  9
$DIMTOH
 70
     0
  9
$DIMSE1
 70
     0
  9
$DIMSE2
 70
     0
  9
$DIMTAD
 70
     1
  9
$DIMZIN
 70
     8
  9
$DIMBLK
  1

  9
$DIMASO
 70
     1
  9
$DIMSHO
 70
     1
  9
$DIMPOST
  1

  9
$DIMAPOST
  1

  9
$DIMALT
 70
     0
  9
$DIMALTD
 70
     3
  9
$DIMALTF
 40
0.03937007874016
  9
$DIMLFAC
 40
1.0
  9
$DIMTOFL
 70
     1
  9
$DIMTVP
 40
0.0
  9
$DIMTIX
 70
     0
  9
$DIMSOXD
 70
     0
  9
$DIMSAH
 70
     0
  9
$DIMBLK1
  1

  9
$DIMBLK2
  1

  9
$DIMSTYLE
  2
DIMS
  9
$DIMCLRD
 70
     0
  9
$DIMCLRE
 70
     0
  9
$DIMCLRT
 70
     7
  9
$DIMTFAC
 40
1.0
  9
$DIMGAP
 40
0.625
  9
$LUNITS
 70
     2
  9
$LUPREC
 70
     4
  9
$SKETCHINC
 40
1.0
  9
$FILLETRAD
 40
0.0
  9
$AUNITS
 70
     0
  9
$AUPREC
 70
     0
  9
$MENU
  1
.
  9
$ELEVATION
 40
0.0
  9
$PELEVATION
 40
0.0
  9
$THICKNESS
 40
0.0
  9
$LIMCHECK
 70
     0
  9
$BLIPMODE
 70
     0
  9
$CHAMFERA
 40
10.0
  9
$CHAMFERB
 40
10.0
  9
$SKPOLY
 70
     0
  9
$TDCREATE
 40
2451661.3713946762
  9
$TDUPDATE
 40
2458816.6100282641
  9
$TDINDWG
 40
0.3571920486
  9
$TDUSRTIMER
 40
0.3571915856
  9
$USRTIMER
 70
     1
  9
$ANGBASE
 50
0.0
  9
$ANGDIR
 70
     0
  9
$PDMODE
 70
     0
  9
$PDSIZE
 40
0.0
  9
$PLINEWID
 40
0.0
  9
$COORDS
 70
     1
  9
$SPLFRAME
 70
     0
  9
$SPLINETYPE
 70
     6
  9
$SPLINESEGS
 70
     8
  9
$ATTDIA
 70
     1
  9
$ATTREQ
 70
     1
  9
$HANDLING
 70
     1
  9
$HANDSEED
  5
AC95
  9
$SURFTAB1
 70
     6
  9
$SURFTAB2
 70
     6
  9
$SURFTYPE
 70
     6
  9
$SURFU
 70
     6
  9
$SURFV
 70
     6
  9
$UCSNAME
  2

  9
$UCSORG
 10
0.0
 20
0.0
 30
0.0
  9
$UCSXDIR
 10
1.0
 20
0.0
 30
0.0
  9
$UCSYDIR
 10
0.0
 20
1.0
 30
0.0
  9
$PUCSNAME
  2

  9
$PUCSORG
 10
0.0
 20
0.0
 30
0.0
  9
$PUCSXDIR
 10
1.0
 20
0.0
 30
0.0
  9
$PUCSYDIR
 10
0.0
 20
1.0
 30
0.0
  9
$USERI1
 70
     0
  9
$USERI2
 70
     0
  9
$USERI3
 70
     0
  9
$USERI4
 70
     0
  9
$USERI5
 70
     0
  9
$USERR1
 40
0.0
  9
$USERR2
 40
0.0
  9
$USERR3
 40
0.0
  9
$USERR4
 40
0.0
  9
$USERR5
 40
0.0
  9
$WORLDVIEW
 70
     1
  9
$SHADEDGE
 70
     3
  9
$SHADEDIF
 70
    70
  9
$TILEMODE
 70
     1
  9
$MAXACTVP
 70
    48
  9
$PLIMCHECK
 70
     0
  9
$PEXTMIN
 10
25.699999999999989
 20
19.5
 30
0.0
  9
$PEXTMAX
 10
231.30000000000001
 20
175.5
 30
0.0
  9
$PLIMMIN
 10
-20.0
 20
-7.5
  9
$PLIMMAX
 10
277.0
 20
202.5
  9
$UNITMODE
 70
     0
  9
$VISRETAIN
 70
     1
  9
$PLINEGEN
 70
     0
  9
$PSLTSCALE
 70
     0
  0
ENDSEC
  0
SECTION
  2
TABLES
  0
TABLE
  2
VPORT
 70
     1
  0
VPORT
  2
*ACTIVE
 70
     0
 10
0.0
 20
0.0
 11
1.0
 21
1.0
 12
105.0048103078429
 22
148.50000276617581
 13
0.0
 23
0.0
 14
10.0
 24
10.0
 15
10.0
 25
10.0
 16
0.0
 26
0.0
 36
1.0
 17
0.0
 27
0.0
 37
0.0
 40
299.9777907225091
 41
1.656716417910447
 42
50.0
 43
0.0
 44
0.0
 50
0.0
 51
0.0
 71
     0
 72
   100
 73
     1
 74
     3
 75
     0
 76
     0
 77
     0
 78
     0
  0
ENDTAB
  0
TABLE
  2
LTYPE
 70
     3
  0
LTYPE
  2
CONTINUOUS
 70
     0
  3
Solid line
 72
    65
 73
     0
 40
0.0
  0
LTYPE
  2
CENTER2
 70
     0
  3
Center (.5x) ___ _ ___ _ ___ _ ___ _ ___ _ ___
 72
    65
 73
     4
 40
28.574999999999999
 49
19.050000000000001
 49
-3.1749999999999989
 49
3.1749999999999989
 49
-3.1749999999999989
  0
ENDTAB
  0
TABLE
  2
LAYER
 70
    10
  0
LAYER
  2
0
 70
     0
 62
     7
  6
CONTINUOUS
  0
LAYER
  2
DEFPOINTS
 70
     0
 62
     7
  6
CONTINUOUS
  0
LAYER
  2
MODEL
 70
     0
 62
     7
  6
CONTINUOUS
  0
LAYER
  2
DIMS
 70
     0
 62
     1
  6
CONTINUOUS
  0
LAYER
  2
CENTER
 70
     0
 62
     6
  6
CENTER2
  0
LAYER
  2
TITLE
 70
     0
 62
     7
  6
CONTINUOUS
  0
LAYER
  2
ZYUSHI
 70
     0
 62
     7
  6
CONTINUOUS
  0
LAYER
  2
TEXT
 70
     0
 62
     7
  6
CONTINUOUS
  0
LAYER
  2
ALUMI
 70
     0
 62
     7
  6
CONTINUOUS
  0
ENDTAB
  0
TABLE
  2
STYLE
 70
     2
  0
STYLE
  2
STANDARD
 70
     0
 40
0.0
 41
1.0
 50
0.0
 71
     0
 42
2.5
  3
romans.shx
  4
bigfont.shx
  0
STYLE
  2
DIMS
 70
     0
 40
0.0
 41
0.75
 50
0.0
 71
     0
 42
2.5
  3
romans.shx
  4
bigfont.shx
  0
ENDTAB
  0
TABLE
  2
VIEW
 70
     1
  0
VIEW
  2
PRINT
 70
     1
 40
125.5
 10
98.875866602002361
 20
143.74226553880581
 41
88.0
 11
0.0
 21
0.0
 31
1.0
 12
0.0
 22
0.0
 32
0.0
 42
50.0
 43
0.0
 44
0.0
 50
0.0
 71
     0
  0
ENDTAB
  0
TABLE
  2
UCS
 70
     0
  0
ENDTAB
  0
TABLE
  2
APPID
 70
     7
  0
APPID
  2
ACAD
 70
     0
  0
APPID
  2
ACAECLAYERSTANDARD
 70
     0
  0
APPID
  2
ACAD_MLEADERVER
 70
     0
  0
APPID
  2
ACAD_EXEMPT_FROM_CAD_STANDARDS
 70
     0
  0
APPID
  2
ACAD_PSEXT
 70
     0
  0
APPID
  2
ACAD_NAV_VCDISPLAY
 70
     0
  0
APPID
  2
ACCMTRANSPARENCY
 70
     0
  0
ENDTAB
  0
TABLE
  2
DIMSTYLE
 70
     3
  0
DIMSTYLE
  2
DIMS
 70
     0
  3

  4

  5

  6

  7

 40
0.0
 41
2.0
 42
1.25
 43
7.5
 44
1.25
 45
0.0
 46
0.0
 47
0.0
 48
0.0
140
2.5
141
0.0
142
0.0
143
0.03937007874016
144
1.0
145
0.0
146
1.0
147
0.625
 71
     0
 72
     0
 73
     0
 74
     0
 75
     0
 76
     0
 77
     1
 78
     8
170
     0
171
     3
172
     1
173
     0
174
     0
175
     0
176
     0
177
     0
178
     7
  0
DIMSTYLE
  2
DIMS1
 70
     0
  3

  4

  5

  6

  7

 40
1.0
 41
2.0
 42
1.0
 43
5.0
 44
1.0
 45
0.0
 46
0.0
 47
0.0
 48
0.0
140
2.5
141
0.0
142
0.0
143
0.03937007874016
144
1.0
145
0.0
146
1.0
147
0.625
 71
     0
 72
     0
 73
     0
 74
     0
 75
     0
 76
     0
 77
     1
 78
     8
170
     0
171
     3
172
     1
173
     0
174
     1
175
     0
176
     0
177
     0
178
     7
  0
ENDTAB
  0
ENDSEC
  0
SECTION
  2
BLOCKS
  0
BLOCK
  8
0
  2
$MODEL_SPACE
 70
     0
 10
0.0
 20
0.0
 30
0.0
  3
$MODEL_SPACE
  1

  0
ENDBLK
  5
21
  8
0
  0
BLOCK
 67
     1
  8
0
  2
$PAPER_SPACE
 70
     0
 10
0.0
 20
0.0
 30
0.0
  3
$PAPER_SPACE
  1

  0
ENDBLK
  5
1FA2
 67
     1
  8
0
  0
BLOCK
  8
0
  2
*D0
 70
     1
 10
0.0
 20
0.0
 30
0.0
  3
*D0
  1

  0
LINE
  5
A8D8
  8
DIMS
 62
     0
 10
80.799999996897014
 20
115.3287405263641
 30
0.0
 11
73.799999996896958
 21
115.3287405263641
 31
0.0
  0
LINE
  5
A8D9
  8
DIMS
 62
     0
 10
80.799999996896972
 20
97.328740526364115
 30
0.0
 11
73.799999996896958
 21
97.328740526364115
 31
0.0
  0
LINE
  5
A8DA
  8
DIMS
 62
     0
 10
75.050000000000182
 20
113.3287405213989
 30
0.0
 11
75.050000000000182
 21
99.328740531329245
 31
0.0
  0
SOLID
  5
A8DB
  8
DIMS
 62
     0
 10
74.716666665839327
 20
113.3287405213989
 30
0.0
 11
75.383333334161037
 21
113.3287405213989
 31
0.0
 12
75.050000000000182
 22
115.3287405263641
 32
0.0
 13
75.050000000000182
 23
115.3287405263641
 33
0.0
  0
SOLID
  5
A8DC
  8
DIMS
 62
     0
 10
74.716666665839327
 20
99.328740531329245
 30
0.0
 11
75.383333334161037
 21
99.328740531329245
 31
0.0
 12
75.050000000000182
 22
97.328740526364115
 32
0.0
 13
75.050000000000182
 23
97.328740526364115
 33
0.0
  0
INSERT
  5
A8DD
  8
0
  2
*U10
 10
0.0
 20
0.0
 30
0.0
  0
POINT
  5
A8DE
  8
DEFPOINTS
 62
     0
 10
82.050000000000239
 20
115.3287405263641
 30
0.0
  0
POINT
  5
A8DF
  8
DEFPOINTS
 62
     0
 10
82.050000000000168
 20
97.328740526364115
 30
0.0
  0
POINT
  5
A8E0
  8
DEFPOINTS
 62
     0
 10
75.050000000000182
 20
97.328740526364115
 30
0.0
  0
ENDBLK
  5
A885
  8
0
  0
BLOCK
  8
0
  2
*D1
 70
     1
 10
0.0
 20
0.0
 30
0.0
  3
*D1
  1

  0
LINE
  5
A8E1
  8
DIMS
 62
     0
 10
92.799999996897029
 20
97.328740526364115
 30
0.0
 11
80.799999996896943
 21
97.328740526364115
 31
0.0
  0
LINE
  5
A8E2
  8
DIMS
 62
     0
 10
82.050000000000168
 20
107.8287405213989
 30
0.0
 11
82.050000000000168
 21
99.328740531329245
 31
0.0
  0
SOLID
  5
A8E3
  8
DIMS
 62
     0
 10
81.716666665839327
 20
107.8287405213989
 30
0.0
 11
82.383333334161037
 21
107.8287405213989
 31
0.0
 12
82.050000000000168
 22
109.8287405263641
 32
0.0
 13
82.050000000000168
 23
109.8287405263641
 33
0.0
  0
SOLID
  5
A8E4
  8
DIMS
 62
     0
 10
81.716666665839327
 20
99.328740531329245
 30
0.0
 11
82.383333334161037
 21
99.328740531329245
 31
0.0
 12
82.050000000000168
 22
97.328740526364115
 32
0.0
 13
82.050000000000168
 23
97.328740526364115
 33
0.0
  0
INSERT
  5
A8E5
  8
0
  2
*U11
 10
0.0
 20
0.0
 30
0.0
  0
POINT
  5
A8E6
  8
DEFPOINTS
 62
     0
 10
82.050000000000239
 20
109.8287405263641
 30
0.0
  0
POINT
  5
A8E7
  8
DEFPOINTS
 62
     0
 10
94.050000000000239
 20
97.328740526364115
 30
0.0
  0
POINT
  5
A8E8
  8
DEFPOINTS
 62
     0
 10
82.050000000000168
 20
97.328740526364115
 30
0.0
  0
ENDBLK
  5
A891
  8
0
  0
BLOCK
  8
0
  2
*D2
 70
     1
 10
0.0
 20
0.0
 30
0.0
  3
*D2
  1

  0
LINE
  5
A8E9
  8
DIMS
 62
     0
 10
91.979812535940354
 20
114.5357346956727
 30
0.0
 11
91.979812535940354
 21
127.17874052946731
 31
0.0
  0
LINE
  5
A8EA
  8
DIMS
 62
     0
 10
127.8798125359404
 20
114.0787405294673
 30
0.0
 11
127.8798125359404
 21
127.17874052946731
 31
0.0
  0
LINE
  5
A8EB
  8
DIMS
 62
     0
 10
93.979812540905499
 20
125.92874052636409
 30
0.0
 11
125.8798125309752
 21
125.92874052636409
 31
0.0
  0
SOLID
  5
A8EC
  8
DIMS
 62
     0
 10
93.979812540905499
 20
126.26207386052489
 30
0.0
 11
93.979812540905499
 21
125.5954071922032
 31
0.0
 12
91.979812535940354
 22
125.92874052636409
 32
0.0
 13
91.979812535940354
 23
125.92874052636409
 33
0.0
  0
SOLID
  5
A8ED
  8
DIMS
 62
     0
 10
125.8798125309752
 20
126.26207386052489
 30
0.0
 11
125.8798125309752
 21
125.5954071922032
 31
0.0
 12
127.8798125359404
 22
125.92874052636409
 32
0.0
 13
127.8798125359404
 23
125.92874052636409
 33
0.0
  0
INSERT
  5
A8EE
  8
0
  2
*U12
 10
0.0
 20
0.0
 30
0.0
  0
POINT
  5
A8EF
  8
DEFPOINTS
 62
     0
 10
91.979812535940354
 20
113.28573469256951
 30
0.0
  0
POINT
  5
A8F0
  8
DEFPOINTS
 62
     0
 10
127.8798125359404
 20
112.8287405263641
 30
0.0
  0
POINT
  5
A8F1
  8
DEFPOINTS
 62
     0
 10
127.8798125359404
 20
125.92874052636409
 30
0.0
  0
ENDBLK
  5
A89C
  8
0
  0
BLOCK
  8
0
  2
*D3
 70
     1
 10
0.0
 20
0.0
 30
0.0
  3
*D3
  1

  0
LINE
  5
A8F2
  8
DIMS
 62
     0
 10
92.799999996897029
 20
115.3287405263641
 30
0.0
 11
80.799999996897014
 21
115.3287405263641
 31
0.0
  0
LINE
  5
A8F3
  8
DIMS
 62
     0
 10
92.339208319414155
 20
109.8287405263641
 30
0.0
 11
80.799999996897014
 21
109.8287405263641
 31
0.0
  0
LINE
  5
A8F4
  8
DIMS
 62
     0
 10
82.050000000000239
 20
113.3287405213989
 30
0.0
 11
82.050000000000239
 21
111.8287405313292
 31
0.0
  0
SOLID
  5
A8F5
  8
DIMS
 62
     0
 10
81.716666665839384
 20
113.3287405213989
 30
0.0
 11
82.383333334161094
 21
113.3287405213989
 31
0.0
 12
82.050000000000239
 22
115.3287405263641
 32
0.0
 13
82.050000000000239
 23
115.3287405263641
 33
0.0
  0
SOLID
  5
A8F6
  8
DIMS
 62
     0
 10
81.716666665839384
 20
111.8287405313292
 30
0.0
 11
82.383333334161094
 21
111.8287405313292
 31
0.0
 12
82.050000000000239
 22
109.8287405263641
 32
0.0
 13
82.050000000000239
 23
109.8287405263641
 33
0.0
  0
INSERT
  5
A8F7
  8
0
  2
*U13
 10
0.0
 20
0.0
 30
0.0
  0
POINT
  5
A8F8
  8
DEFPOINTS
 62
     0
 10
94.050000000000239
 20
115.3287405263641
 30
0.0
  0
POINT
  5
A8F9
  8
DEFPOINTS
 62
     0
 10
93.589208322517379
 20
109.8287405263641
 30
0.0
  0
POINT
  5
A8FA
  8
DEFPOINTS
 62
     0
 10
82.050000000000239
 20
109.8287405263641
 30
0.0
  0
ENDBLK
  5
A8A8
  8
0
  0
BLOCK
  8
0
  2
*D4
 70
     1
 10
0.0
 20
0.0
 30
0.0
  3
*D4
  1

  0
LINE
  5
A8FB
  8
DIMS
 62
     0
 10
129.12981253594029
 20
112.8287405263641
 30
0.0
 11
138.80000000000021
 21
112.8287405263641
 31
0.0
  0
LINE
  5
A8FC
  8
DIMS
 62
     0
 10
128.52981253594041
 20
109.8287405263641
 30
0.0
 11
138.80000000000021
 21
109.8287405263641
 31
0.0
  0
LINE
  5
A8FD
  8
DIMS
 62
     0
 10
137.55000000000021
 20
114.8287405263641
 30
0.0
 11
137.55000000000021
 21
116.8287405263641
 31
0.0
  0
LINE
  5
A8FE
  8
DIMS
 62
     0
 10
137.55000000000021
 20
107.8287405263641
 30
0.0
 11
137.55000000000021
 21
105.8287405263641
 31
0.0
  0
LINE
  5
A8FF
  8
DIMS
 62
     0
 10
137.55000000000021
 20
112.8287405263641
 30
0.0
 11
137.55000000000021
 21
109.8287405263641
 31
0.0
  0
SOLID
  5
A900
  8
DIMS
 62
     0
 10
137.2166666666669
 20
114.8287405263641
 30
0.0
 11
137.88333333333361
 21
114.8287405263641
 31
0.0
 12
137.55000000000021
 22
112.8287405263641
 32
0.0
 13
137.55000000000021
 23
112.8287405263641
 33
0.0
  0
SOLID
  5
A901
  8
DIMS
 62
     0
 10
137.2166666666669
 20
107.8287405263641
 30
0.0
 11
137.88333333333361
 21
107.8287405263641
 31
0.0
 12
137.55000000000021
 22
109.8287405263641
 32
0.0
 13
137.55000000000021
 23
109.8287405263641
 33
0.0
  0
INSERT
  5
A902
  8
0
  2
*U14
 10
0.0
 20
0.0
 30
0.0
  0
POINT
  5
A903
  8
DEFPOINTS
 62
     0
 10
127.8798125359403
 20
112.8287405263641
 30
0.0
  0
POINT
  5
A904
  8
DEFPOINTS
 62
     0
 10
127.27981253594039
 20
109.8287405263641
 30
0.0
  0
POINT
  5
A905
  8
DEFPOINTS
 62
     0
 10
137.55000000000021
 20
109.8287405263641
 30
0.0
  0
ENDBLK
  5
A8B4
  8
0
  0
BLOCK
  8
0
  2
*D5
 70
     1
 10
0.0
 20
0.0
 30
0.0
  3
*D5
  1

  0
LINE
  5
A906
  8
DIMS
 62
     0
 10
120.11923722377981
 20
116.42874052626409
 30
0.0
 11
145.80000000000021
 21
116.42874052626409
 31
0.0
  0
LINE
  5
A907
  8
DIMS
 62
     0
 10
138.80000000000021
 20
109.8287405263641
 30
0.0
 11
145.80000000000021
 21
109.8287405263641
 31
0.0
  0
LINE
  5
A908
  8
DIMS
 62
     0
 10
144.55000000000021
 20
114.42874052626409
 30
0.0
 11
144.55000000000021
 21
111.8287405263641
 31
0.0
  0
SOLID
  5
A909
  8
DIMS
 62
     0
 10
144.2166666666669
 20
114.42874052626409
 30
0.0
 11
144.88333333333361
 21
114.42874052626409
 31
0.0
 12
144.55000000000021
 22
116.42874052626409
 32
0.0
 13
144.55000000000021
 23
116.42874052626409
 33
0.0
  0
SOLID
  5
A90A
  8
DIMS
 62
     0
 10
144.2166666666669
 20
111.8287405263641
 30
0.0
 11
144.88333333333361
 21
111.8287405263641
 31
0.0
 12
144.55000000000021
 22
109.8287405263641
 32
0.0
 13
144.55000000000021
 23
109.8287405263641
 33
0.0
  0
INSERT
  5
A90B
  8
0
  2
*U15
 10
0.0
 20
0.0
 30
0.0
  0
POINT
  5
A90C
  8
DEFPOINTS
 62
     0
 10
118.86923722377981
 20
116.42874052626409
 30
0.0
  0
POINT
  5
A90D
  8
DEFPOINTS
 62
     0
 10
137.55000000000021
 20
109.8287405263641
 30
0.0
  0
POINT
  5
A90E
  8
DEFPOINTS
 62
     0
 10
144.55000000000021
 20
109.8287405263641
 30
0.0
  0
ENDBLK
  5
A8C2
  8
0
  0
BLOCK
  8
0
  2
*D6
 70
     1
 10
0.0
 20
0.0
 30
0.0
  3
*D6
  1

  0
LINE
  5
A90F
  8
DIMS
 62
     0
 10
92.019020858457452
 20
108.5787405263642
 30
0.0
 11
92.019020858457452
 21
103.5787405263636
 31
0.0
  0
LINE
  5
A910
  8
DIMS
 62
     0
 10
113.0190208584574
 20
106.61456518215491
 30
0.0
 11
113.0190208584574
 21
103.5787405263636
 31
0.0
  0
LINE
  5
A911
  8
DIMS
 62
     0
 10
94.019020858457466
 20
104.8287405263636
 30
0.0
 11
111.0190208584574
 21
104.8287405263636
 31
0.0
  0
SOLID
  5
A912
  8
DIMS
 62
     0
 10
94.019020858457466
 20
105.1620738596969
 30
0.0
 11
94.019020858457466
 21
104.4954071930302
 31
0.0
 12
92.019020858457452
 22
104.8287405263636
 32
0.0
 13
92.019020858457452
 23
104.8287405263636
 33
0.0
  0
SOLID
  5
A913
  8
DIMS
 62
     0
 10
111.0190208584574
 20
105.1620738596969
 30
0.0
 11
111.0190208584574
 21
104.4954071930302
 31
0.0
 12
113.0190208584574
 22
104.8287405263636
 32
0.0
 13
113.0190208584574
 23
104.8287405263636
 33
0.0
  0
INSERT
  5
A914
  8
0
  2
*U16
 10
0.0
 20
0.0
 30
0.0
  0
POINT
  5
A915
  8
DEFPOINTS
 62
     0
 10
92.019020858457452
 20
109.8287405263642
 30
0.0
  0
POINT
  5
A916
  8
DEFPOINTS
 62
     0
 10
113.0190208584574
 20
107.86456518215491
 30
0.0
  0
POINT
  5
A917
  8
DEFPOINTS
 62
     0
 10
113.0190208584574
 20
104.8287405263636
 30
0.0
  0
ENDBLK
  5
A8CE
  8
0
  0
BLOCK
  8
0
  2
*U10
 70
     1
 10
0.0
 20
0.0
 30
0.0
  3
*U10
  1

  0
TEXT
  5
AC57
  8
DIMS
 62
     7
 10
74.424999998448556
 20
104.4090976644556
 30
0.0
 40
2.5000000062064331
  1
18
 50
90.0
 41
0.75
  7
DIMS
  0
ENDBLK
  5
AC59
  8
0
  0
BLOCK
  8
0
  2
*U11
 70
     1
 10
0.0
 20
0.0
 30
0.0
  3
*U11
  1

  0
TEXT
  5
AC5B
  8
DIMS
 62
     7
 10
81.424999998448556
 20
100.31981194684499
 30
0.0
 40
2.5000000062064331
  1
12.5
 50
90.0
 41
0.75
  7
DIMS
  0
ENDBLK
  5
AC5D
  8
0
  0
BLOCK
  8
0
  2
*U12
 70
     1
 10
0.0
 20
0.0
 30
0.0
  3
*U12
  1

  0
TEXT
  5
AC5F
  8
DIMS
 62
     7
 10
106.849455385436
 20
126.55374052791571
 30
0.0
 40
2.5000000062064331
  1
35.9
 41
0.75
  7
DIMS
  0
ENDBLK
  5
AC61
  8
0
  0
BLOCK
  8
0
  2
*U13
 70
     1
 10
0.0
 20
0.0
 30
0.0
  3
*U13
  1

  0
TEXT
  5
AC63
  8
DIMS
 62
     7
 10
81.424999998448612
 20
110.3465976636798
 30
0.0
 40
2.5000000062064331
  1
5.5
 50
90.0
 41
0.75
  7
DIMS
  0
ENDBLK
  5
AC65
  8
0
  0
BLOCK
  8
0
  2
*U14
 70
     1
 10
0.0
 20
0.0
 30
0.0
  3
*U14
  1

  0
TEXT
  5
AC67
  8
DIMS
 62
     7
 10
136.92500000000021
 20
110.435883383507
 30
0.0
 40
2.5
  1
3
 50
90.0
 41
0.75
  7
DIMS
  0
ENDBLK
  5
AC69
  8
0
  0
BLOCK
  8
0
  2
*U15
 70
     1
 10
0.0
 20
0.0
 30
0.0
  3
*U15
  1

  0
TEXT
  5
AC6B
  8
DIMS
 62
     7
 10
143.92500000000021
 20
110.8519548120284
 30
0.0
 40
2.5
  1
6.6
 50
90.0
 41
0.75
  7
DIMS
  0
ENDBLK
  5
AC6D
  8
0
  0
BLOCK
  8
0
  2
*U16
 70
     1
 10
0.0
 20
0.0
 30
0.0
  3
*U16
  1

  0
TEXT
  5
AC6F
  8
DIMS
 62
     7
 10
101.0011637156003
 20
105.4537405263636
 30
0.0
 40
2.5
  1
21
 41
0.75
  7
DIMS
  0
ENDBLK
  5
AC71
  8
0
  0
BLOCK
  8
0
  2
*U17
 70
     1
 10
0.0
 20
0.0
 30
0.0
  3
*U17
  1

  0
TEXT
  5
AC77
  8
DIMS
 62
     7
 10
101.0011637156003
 20
105.4537405263636
 30
0.0
 40
2.5
  1
21
 41
0.75
  7
DIMS
  0
ENDBLK
  5
AC79
  8
0
  0
BLOCK
  8
0
  2
*U18
 70
     1
 10
0.0
 20
0.0
 30
0.0
  3
*U18
  1

  0
TEXT
  5
AC7B
  8
DIMS
 62
     7
 10
143.92500000000021
 20
110.8519548120284
 30
0.0
 40
2.5
  1
6.6
 50
90.0
 41
0.75
  7
DIMS
  0
ENDBLK
  5
AC7D
  8
0
  0
BLOCK
  8
0
  2
*U19
 70
     1
 10
0.0
 20
0.0
 30
0.0
  3
*U19
  1

  0
TEXT
  5
AC7F
  8
DIMS
 62
     7
 10
136.92500000000021
 20
110.435883383507
 30
0.0
 40
2.5
  1
3
 50
90.0
 41
0.75
  7
DIMS
  0
ENDBLK
  5
AC81
  8
0
  0
BLOCK
  8
0
  2
*U20
 70
     1
 10
0.0
 20
0.0
 30
0.0
  3
*U20
  1

  0
TEXT
  5
AC83
  8
DIMS
 62
     7
 10
81.424999998448612
 20
110.3465976636798
 30
0.0
 40
2.5000000062064331
  1
5.5
 50
90.0
 41
0.75
  7
DIMS
  0
ENDBLK
  5
AC85
  8
0
  0
BLOCK
  8
0
  2
*U21
 70
     1
 10
0.0
 20
0.0
 30
0.0
  3
*U21
  1

  0
TEXT
  5
AC87
  8
DIMS
 62
     7
 10
106.849455385436
 20
126.55374052791571
 30
0.0
 40
2.5000000062064331
  1
35.9
 41
0.75
  7
DIMS
  0
ENDBLK
  5
AC89
  8
0
  0
BLOCK
  8
0
  2
*U22
 70
     1
 10
0.0
 20
0.0
 30
0.0
  3
*U22
  1

  0
TEXT
  5
AC8B
  8
DIMS
 62
     7
 10
81.424999998448556
 20
100.31981194684499
 30
0.0
 40
2.5000000062064331
  1
12.5
 50
90.0
 41
0.75
  7
DIMS
  0
ENDBLK
  5
AC8D
  8
0
  0
BLOCK
  8
0
  2
*U23
 70
     1
 10
0.0
 20
0.0
 30
0.0
  3
*U23
  1

  0
TEXT
  5
AC8F
  8
DIMS
 62
     7
 10
74.424999998448556
 20
104.4090976644556
 30
0.0
 40
2.5000000062064331
  1
18
 50
90.0
 41
0.75
  7
DIMS
  0
ENDBLK
  5
AC91
  8
0
  0
ENDSEC
  0
SECTION
  2
ENTITIES
  0
LINE
  5
9922
  8
TITLE
 10
20.000000000000231
 20
32.5
 30
0.0
 11
199.7500000000002
 21
32.5
 31
0.0
  0
LINE
  5
9923
  8
TITLE
 10
20.000000000000231
 20
52.5
 30
0.0
 11
199.7500000000002
 21
52.5
 31
0.0
  0
LINE
  5
9924
  8
TITLE
 10
20.000000000000231
 20
62.5
 30
0.0
 11
199.7500000000002
 21
62.5
 31
0.0
  0
LINE
  5
9925
  8
TITLE
 10
64.875000000000213
 20
39.166666666666629
 30
0.0
 11
109.8750000000002
 21
39.166666666666629
 31
0.0
  0
LINE
  5
9926
  8
TITLE
 10
64.875000000000213
 20
45.833333333333307
 30
0.0
 11
109.8750000000002
 21
45.833333333333307
 31
0.0
  0
LINE
  5
9927
  8
TITLE
 10
20.000000000000231
 20
67.5
 30
0.0
 11
199.7500000000002
 21
67.5
 31
0.0
  0
LINE
  5
992B
  8
TITLE
 10
20.000000000000231
 20
47.5
 30
0.0
 11
64.875000000000213
 21
47.5
 31
0.0
  0
LINE
  5
992C
  8
TITLE
 10
20.000000000000231
 20
42.5
 30
0.0
 11
64.875000000000213
 21
42.5
 31
0.0
  0
LINE
  5
992D
  8
TITLE
 10
20.000000000000231
 20
47.5
 30
0.0
 11
64.875000000000213
 21
47.5
 31
0.0
  0
LINE
  5
992E
  8
TITLE
 10
20.000000000000231
 20
37.5
 30
0.0
 11
64.875000000000213
 21
37.5
 31
0.0
  0
LINE
  5
9936
  8
TITLE
 10
64.875000000000213
 20
67.5
 30
0.0
 11
64.875000000000213
 21
32.5
 31
0.0
  0
LINE
  5
993B
  8
TITLE
 10
172.46755249781711
 20
38.42345433098194
 30
0.0
 11
173.17186919796691
 21
39.127771031131147
 31
0.0
  0
LINE
  5
993C
  8
TITLE
 10
172.55483737046421
 20
38.42345433098194
 30
0.0
 11
173.2591540706141
 21
39.127771031131147
 31
0.0
  0
LINE
  5
993D
  8
TITLE
 10
172.64212224311149
 20
38.42345433098194
 30
0.0
 11
173.34643894326101
 21
39.127771031131147
 31
0.0
  0
LINE
  5
993E
  8
TITLE
 10
172.72940711575151
 20
38.42345433098194
 30
0.0
 11
173.43372381590819
 21
39.127771031131147
 31
0.0
  0
LINE
  5
993F
  8
TITLE
 10
172.8166919883987
 20
38.42345433098194
 30
0.0
 11
173.52100868854819
 21
39.127771031131147
 31
0.0
  0
LINE
  5
9940
  8
TITLE
 10
172.90397686104581
 20
38.42345433098194
 30
0.0
 11
173.60829356119561
 21
39.127771031131147
 31
0.0
  0
LINE
  5
9941
  8
TITLE
 10
172.99126173369299
 20
38.42345433098194
 30
0.0
 11
173.6955784338424
 21
39.127771031131147
 31
0.0
  0
LINE
  5
9942
  8
TITLE
 10
173.0785466063401
 20
38.42345433098194
 30
0.0
 11
173.7828633064897
 21
39.127771031131147
 31
0.0
  0
LINE
  5
9943
  8
TITLE
 10
172.29475386004381
 20
34.322836424122222
 30
0.0
 11
173.15670774170621
 21
35.184790305784759
 31
0.0
  0
LINE
  5
9944
  8
TITLE
 10
172.350790915517
 20
34.291588606948039
 30
0.0
 11
173.25261030160979
 21
35.193407993034207
 31
0.0
  0
LINE
  5
9945
  8
TITLE
 10
172.4401466895487
 20
34.293659508329029
 30
0.0
 11
173.3492241826182
 21
35.202737001402461
 31
0.0
  0
LINE
  5
9946
  8
TITLE
 10
172.5302638594371
 20
34.296491805577887
 30
0.0
 11
173.44656687467619
 21
35.212794820813201
 31
0.0
  0
LINE
  5
9947
  8
TITLE
 10
172.62116284594421
 20
34.300105919434323
 30
0.0
 11
173.54465669864359
 21
35.223599772133809
 31
0.0
  0
LINE
  5
9948
  8
TITLE
 10
172.71286516917101
 20
34.304523370017307
 30
0.0
 11
174.3581739212141
 21
35.949832122056712
 31
0.0
  0
LINE
  5
9949
  8
TITLE
 10
172.8053935330019
 20
34.309766861197602
 30
0.0
 11
174.3581739212141
 21
35.862547249409317
 31
0.0
  0
LINE
  5
994A
  8
TITLE
 10
172.8987719179967
 20
34.315860373552027
 30
0.0
 11
174.3581739212141
 21
35.775262376761987
 31
0.0
  0
LINE
  5
994B
  8
TITLE
 10
172.9930256840498
 20
34.322829266958188
 30
0.0
 11
174.3581739212141
 21
35.687977504115167
 31
0.0
  0
LINE
  5
994C
  8
TITLE
 10
173.08818168389291
 20
34.330700394146731
 30
0.0
 11
174.3581739212141
 21
35.60069263147119
 31
0.0
  0
LINE
  5
994D
  8
TITLE
 10
172.45146938162549
 20
37.010813252449907
 30
0.0
 11
173.15979363709181
 21
37.719137507916351
 31
0.0
  0
LINE
  5
994E
  8
TITLE
 10
172.4905901703014
 20
36.962649168478997
 30
0.0
 11
173.24707850973871
 21
37.719137507916351
 31
0.0
  0
LINE
  5
994F
  8
TITLE
 10
172.57787504294851
 20
36.962649168478997
 30
0.0
 11
173.3343633823859
 21
37.719137507916351
 31
0.0
  0
LINE
  5
9950
  8
TITLE
 10
172.66515991559589
 20
36.962649168478997
 30
0.0
 11
173.42164825503309
 21
37.719137507916351
 31
0.0
  0
LINE
  5
9951
  8
TITLE
 10
172.7524447882432
 20
36.962649168478997
 30
0.0
 11
173.5089331276732
 21
37.719137507916351
 31
0.0
  0
LINE
  5
9952
  8
TITLE
 10
172.8397296608901
 20
36.962649168478997
 30
0.0
 11
173.59621800032011
 21
37.719137507916351
 31
0.0
  0
LINE
  5
9953
  8
TITLE
 10
172.92701453353021
 20
36.962649168478997
 30
0.0
 11
173.68350287296749
 21
37.719137507916351
 31
0.0
  0
LINE
  5
9954
  8
TITLE
 10
173.01429940617729
 20
36.962649168478997
 30
0.0
 11
173.77078774561491
 21
37.719137507916351
 31
0.0
  0
LINE
  5
9955
  8
TITLE
 10
173.10158427882439
 20
36.962649168478997
 30
0.0
 11
173.85807261826201
 21
37.719137507916351
 31
0.0
  0
LINE
  5
9958
  8
TITLE
 10
109.8750000000002
 20
42.5
 30
0.0
 11
199.7500000000002
 21
42.5
 31
0.0
  0
LINE
  5
9959
  8
TITLE
 10
154.87500000000011
 20
67.5
 30
0.0
 11
154.87500000000011
 21
52.5
 31
0.0
  0
LINE
  5
995A
  8
TITLE
 10
109.8750000000002
 20
67.5
 30
0.0
 11
109.8750000000001
 21
32.5
 31
0.0
  0
LINE
  5
995B
  8
TITLE
 10
139.94629400025639
 20
38.284883585264197
 30
0.0
 11
141.3601337483824
 21
39.698723333390092
 31
0.0
  0
LINE
  5
995C
  8
TITLE
 10
140.09331629552699
 20
38.344621007887781
 30
0.0
 11
141.3601337483824
 21
39.611438460742818
 31
0.0
  0
LINE
  5
995D
  8
TITLE
 10
140.2335037822173
 20
38.397523621927292
 30
0.0
 11
141.3601337483824
 21
39.524153588095828
 31
0.0
  0
LINE
  5
995E
  8
TITLE
 10
139.62562638847399
 20
38.138785718775637
 30
0.0
 11
141.3266014247063
 21
39.839760755008342
 31
0.0
  0
LINE
  5
995F
  8
TITLE
 10
139.79104971230339
 20
38.216924169958247
 30
0.0
 11
141.3601337483824
 21
39.786008206037252
 31
0.0
  0
LINE
  5
9960
  8
TITLE
 10
138.0822591989288
 20
37.206412637753431
 30
0.0
 11
140.5272332402119
 21
39.651386679040797
 31
0.0
  0
LINE
  5
9961
  8
TITLE
 10
138.17835846748949
 20
37.215227033663162
 30
0.0
 11
140.65121190913339
 21
39.68808047531104
 31
0.0
  0
LINE
  5
9962
  8
TITLE
 10
138.17835846748949
 20
37.127942161019639
 30
0.0
 11
140.7713804755158
 21
39.720964169046233
 31
0.0
  0
LINE
  5
9963
  8
TITLE
 10
138.17835846748949
 20
37.04065728837282
 30
0.0
 11
140.8881251627422
 21
39.750423983625872
 31
0.0
  0
LINE
  5
9964
  8
TITLE
 10
138.17835846748949
 20
36.953372415725482
 30
0.0
 11
141.0017675703869
 21
39.776781518622727
 31
0.0
  0
LINE
  5
9965
  8
TITLE
 10
138.17835846748949
 20
36.8660875430785
 30
0.0
 11
141.1125789192389
 21
39.800307994835009
 31
0.0
  0
LINE
  5
9966
  8
TITLE
 10
138.17835846748949
 20
36.778802670431219
 30
0.0
 11
141.22079048910439
 21
39.821234692053849
 31
0.0
  0
LINE
  5
9967
  8
TITLE
 10
137.92468580383641
 20
37.13612411530471
 30
0.0
 11
140.3989737173689
 21
39.610412028840528
 31
0.0
  0
LINE
  5
9968
  8
TITLE
 10
125.33823048282331
 20
41.10407912057218
 30
0.0
 11
122.41937018706091
 21
38.185218824809738
 31
0.0
  0
LINE
  5
9969
  8
TITLE
 10
123.38447913735151
 20
33.451262901534562
 30
0.0
 11
127.15332611033629
 21
37.22010987451722
 31
0.0
  0
LINE
  5
996A
  8
TITLE
 10
123.2968840985494
 20
33.450952735378792
 30
0.0
 11
127.1536362764918
 21
37.307704913320272
 31
0.0
  0
LINE
  5
996B
  8
TITLE
 10
123.2112351791921
 20
33.452588688660228
 30
0.0
 11
127.1608025945808
 21
37.402156104049432
 31
0.0
  0
LINE
  5
996C
  8
TITLE
 10
123.127410395469
 20
33.456048777583987
 30
0.0
 11
127.1485402342864
 21
37.477178616409113
 31
0.0
  0
LINE
  5
996D
  8
TITLE
 10
123.045302428369
 20
33.461225683142857
 30
0.0
 11
127.1433633287283
 21
37.559286583495009
 31
0.0
  0
LINE
  5
996E
  8
TITLE
 10
122.9648162964989
 20
33.468024423909128
 30
0.0
 11
127.1365645879617
 21
37.639772715371407
 31
0.0
  0
LINE
  5
996F
  8
TITLE
 10
122.8603401779434
 20
33.450833178000892
 30
0.0
 11
127.128228524726
 21
37.718721524790169
 31
0.0
  0
LINE
  5
9970
  8
TITLE
 10
123.56608722700921
 20
33.458301245895427
 30
0.0
 11
127.1462877659752
 21
37.038501784862213
 31
0.0
  0
LINE
  5
9971
  8
TITLE
 10
123.47415987532111
 20
33.453658766853778
 30
0.0
 11
127.1509302450168
 21
37.130429136551761
 31
0.0
  0
LINE
  5
9972
  8
TITLE
 10
123.8573909979951
 20
33.487750398940882
 30
0.0
 11
127.1168386129297
 21
36.747198013875511
 31
0.0
  0
LINE
  5
9973
  8
TITLE
 10
123.66044827911131
 20
33.465377425351512
 30
0.0
 11
127.13921158651929
 21
36.944140732759138
 31
0.0
  0
LINE
  5
9974
  8
TITLE
 10
123.7574626493618
 20
33.475106922954751
 30
0.0
 11
127.12948208891591
 21
36.847126362508732
 31
0.0
  0
LINE
  5
9975
  8
TITLE
 10
122.773055305296
 20
33.450833178000607
 30
0.0
 11
127.11843069948659
 21
37.79620857219129
 31
0.0
  0
LINE
  5
9976
  8
TITLE
 10
122.6857704326456
 20
33.450833178000607
 30
0.0
 11
127.1072389624089
 21
37.872301707764173
 31
0.0
  0
LINE
  5
9977
  8
TITLE
 10
122.598485560002
 20
33.450833178000607
 30
0.0
 11
127.09471447931629
 21
37.947062097314983
 31
0.0
  0
LINE
  5
9978
  8
TITLE
 10
122.5112006873548
 20
33.450833178000607
 30
0.0
 11
127.0809125858311
 21
38.020545076476878
 31
0.0
  0
LINE
  5
9979
  8
TITLE
 10
122.4239158147078
 20
33.450833178000607
 30
0.0
 11
127.06588350361631
 21
38.092800866909563
 31
0.0
  0
LINE
  5
997A
  8
TITLE
 10
122.33663094205809
 20
33.450833178000607
 30
0.0
 11
127.04967294494671
 21
38.163875180883387
 31
0.0
  0
LINE
  5
997B
  8
TITLE
 10
122.24934606941071
 20
33.450833178000607
 30
0.0
 11
127.0323226261438
 21
38.233809734727863
 31
0.0
  0
LINE
  5
997C
  8
TITLE
 10
122.16206119677349
 20
33.450833178000607
 30
0.0
 11
127.0138707060769
 21
38.302642687304058
 31
0.0
  0
LINE
  5
997D
  8
TITLE
 10
122.07477632412601
 20
33.450833178000607
 30
0.0
 11
126.9943521626073
 21
38.370409016481922
 31
0.0
  0
LINE
  5
997E
  8
TITLE
 10
121.9874914514789
 20
33.450833178000892
 30
0.0
 11
126.9737991173364
 21
38.437140843857946
 31
0.0
  0
LINE
  5
997F
  8
TITLE
 10
121.9002065788325
 20
33.450833178000607
 30
0.0
 11
126.93653616684919
 21
38.487162766017718
 31
0.0
  0
LINE
  5
9980
  8
TITLE
 10
121.8129217061848
 20
33.450833178000607
 30
0.0
 11
126.8492512942024
 21
38.487162766017718
 31
0.0
  0
LINE
  5
9981
  8
TITLE
 10
121.72563683353739
 20
33.450833178000892
 30
0.0
 11
126.7619664215552
 21
38.487162766017491
 31
0.0
  0
LINE
  5
9982
  8
TITLE
 10
121.6383519608915
 20
33.450833178000607
 30
0.0
 11
126.6746815489072
 21
38.487162766017718
 31
0.0
  0
LINE
  5
9983
  8
TITLE
 10
119.8506890949842
 20
35.678274453828408
 30
0.0
 11
125.2764937617294
 21
41.10407912057218
 31
0.0
  0
LINE
  5
9984
  8
TITLE
 10
119.8236175319748
 20
35.738487763465123
 30
0.0
 11
125.1892088890816
 21
41.10407912057218
 31
0.0
  0
LINE
  5
9985
  8
TITLE
 10
119.79741619693201
 20
35.79957130106925
 30
0.0
 11
125.1019240164338
 21
41.10407912057218
 31
0.0
  0
LINE
  5
9986
  8
TITLE
 10
119.7721034095353
 20
35.861543386320882
 30
0.0
 11
125.0146391437878
 21
41.10407912057218
 31
0.0
  0
LINE
  5
9987
  8
TITLE
 10
119.747698981418
 20
35.924423830850287
 30
0.0
 11
124.9273542711402
 21
41.10407912057218
 31
0.0
  0
LINE
  5
9988
  8
TITLE
 10
119.55935903193971
 20
36.608932607828763
 30
0.0
 11
124.0545055446688
 21
41.10407912057218
 31
0.0
  0
LINE
  5
9989
  8
TITLE
 10
119.54685359953341
 20
36.683712048076757
 30
0.0
 11
123.9672206720288
 21
41.10407912057218
 31
0.0
  0
LINE
  5
998A
  8
TITLE
 10
119.6401178100721
 20
36.253267022746172
 30
0.0
 11
124.490929907912
 21
41.10407912057218
 31
0.0
  0
LINE
  5
998B
  8
TITLE
 10
119.6216817176951
 20
36.322115803015947
 30
0.0
 11
124.4036450352647
 21
41.10407912057218
 31
0.0
  0
LINE
  5
998C
  8
TITLE
 10
119.604347760081
 20
36.392066718045442
 30
0.0
 11
124.3163601626208
 21
41.10407912057218
 31
0.0
  0
LINE
  5
998D
  8
TITLE
 10
119.58815414520031
 20
36.463157975812237
 30
0.0
 11
124.22907528997401
 21
41.10407912057218
 31
0.0
  0
LINE
  5
998E
  8
TITLE
 10
119.5731426444105
 20
36.535431347660051
 30
0.0
 11
124.1417904173158
 21
41.10407912057218
 31
0.0
  0
LINE
  5
998F
  8
TITLE
 10
119.7242243448938
 20
35.988234066972552
 30
0.0
 11
124.8400693984929
 21
41.10407912057218
 31
0.0
  0
LINE
  5
9990
  8
TITLE
 10
119.70170269854781
 20
36.052997293274132
 30
0.0
 11
124.7527845258457
 21
41.10407912057218
 31
0.0
  0
LINE
  5
9991
  8
TITLE
 10
119.6801591723349
 20
36.118738639708617
 30
0.0
 11
124.66549965319911
 21
41.10407912057218
 31
0.0
  0
LINE
  5
9992
  8
TITLE
 10
119.65962101534799
 20
36.185485355375313
 30
0.0
 11
124.5782147805602
 21
41.10407912057218
 31
0.0
  0
LINE
  5
9993
  8
TITLE
 10
121.28921247032321
 20
33.450833178000607
 30
0.0
 11
124.06602082510101
 21
36.227641532797747
 31
0.0
  0
LINE
  5
9994
  8
TITLE
 10
121.5510670882433
 20
33.450833178000607
 30
0.0
 11
126.58739667626079
 21
38.487162766017718
 31
0.0
  0
LINE
  5
9995
  8
TITLE
 10
121.46378221559669
 20
33.450833178000607
 30
0.0
 11
126.5001118036125
 21
38.487162766017491
 31
0.0
  0
LINE
  5
9996
  8
TITLE
 10
121.37649734294909
 20
33.450833178000607
 30
0.0
 11
126.41282693096581
 21
38.487162766017718
 31
0.0
  0
LINE
  5
9997
  8
TITLE
 10
121.2019275976623
 20
33.450833178000892
 30
0.0
 11
123.8610965150268
 21
36.110002095365822
 31
0.0
  0
LINE
  5
9998
  8
TITLE
 10
121.11464272501431
 20
33.450833178000892
 30
0.0
 11
123.7186552097547
 21
36.054845662740611
 31
0.0
  0
LINE
  5
9999
  8
TITLE
 10
121.0273578523671
 20
33.450833178000607
 30
0.0
 11
123.59941847054139
 21
36.022893796174799
 31
0.0
  0
LINE
  5
999A
  8
TITLE
 10
120.9400729797207
 20
33.450833178000607
 30
0.0
 11
123.4937891012034
 21
36.004549299483529
 31
0.0
  0
LINE
  5
999B
  8
TITLE
 10
120.8527881070728
 20
33.450833178000607
 30
0.0
 11
123.39757486641869
 21
35.995619937345793
 31
0.0
  0
LINE
  5
999C
  8
TITLE
 10
120.76550323442601
 20
33.450833178000501
 30
0.0
 11
123.3084912726904
 21
35.993821216265083
 31
0.0
  0
LINE
  5
999D
  8
TITLE
 10
120.6782183617792
 20
33.450833178000607
 30
0.0
 11
123.2251298298502
 21
35.997744646072142
 31
0.0
  0
LINE
  5
999E
  8
TITLE
 10
120.5909334891319
 20
33.450833178000607
 30
0.0
 11
123.146550496882
 21
36.006450185750737
 31
0.0
  0
LINE
  5
999F
  8
TITLE
 10
120.5036486164843
 20
33.450833178000607
 30
0.0
 11
123.072090535087
 21
36.01927509660328
 31
0.0
  0
LINE
  5
99A0
  8
TITLE
 10
120.416363743823
 20
33.450833178000892
 30
0.0
 11
123.00126389369601
 21
36.035733327855723
 31
0.0
  0
LINE
  5
99A1
  8
TITLE
 10
120.329078871197
 20
33.450833178000892
 30
0.0
 11
122.9337036430672
 21
36.055457949870231
 31
0.0
  0
LINE
  5
99A2
  8
TITLE
 10
120.24179399855031
 20
33.450833178000607
 30
0.0
 11
122.8691268949389
 21
36.078166074389173
 31
0.0
  0
LINE
  5
99A3
  8
TITLE
 10
120.15450912590251
 20
33.450833178000607
 30
0.0
 11
122.8073123541473
 21
36.103636406244789
 31
0.0
  0
LINE
  5
99A4
  8
TITLE
 10
120.0672242532567
 20
33.450833178000607
 30
0.0
 11
122.74808539198671
 21
36.131694316731227
 31
0.0
  0
LINE
  5
99A5
  8
TITLE
 10
119.979939380609
 20
33.450833178000607
 30
0.0
 11
122.6913078215828
 21
36.162201618974557
 31
0.0
  0
LINE
  5
99A6
  8
TITLE
 10
119.8926545079612
 20
33.450833178000607
 30
0.0
 11
122.6368707391247
 21
36.195049409163801
 31
0.0
  0
LINE
  5
99A7
  8
TITLE
 10
119.8053696353138
 20
33.450833178000607
 30
0.0
 11
122.5846894423364
 21
36.230152985022762
 31
0.0
  0
LINE
  5
99A8
  8
TITLE
 10
119.63079989002
 20
33.450833178000607
 30
0.0
 11
122.4868557481597
 21
36.306889036140092
 31
0.0
  0
LINE
  5
99A9
  8
TITLE
 10
119.54351501740349
 20
33.450833178000607
 30
0.0
 11
122.44112745604021
 21
36.348445616665167
 31
0.0
  0
LINE
  5
99AA
  8
TITLE
 10
119.7180847626673
 20
33.450833178000501
 30
0.0
 11
122.53469980975891
 21
36.267448225091982
 31
0.0
  0
LINE
  5
99AC
  8
TITLE
 10
119.69919558426299
 20
38.494466613062862
 30
0.0
 11
122.30880809173961
 21
41.10407912057218
 31
0.0
  0
LINE
  5
99AD
  8
TITLE
 10
119.535681762503
 20
36.759825083693897
 30
0.0
 11
123.8799357993813
 21
41.10407912057218
 31
0.0
  0
LINE
  5
99AE
  8
TITLE
 10
119.52590477776261
 20
36.837332971600183
 30
0.0
 11
123.7926509267344
 21
41.10407912057218
 31
0.0
  0
LINE
  5
99AF
  8
TITLE
 10
119.51759060022501
 20
36.91630366670978
 30
0.0
 11
123.70536605408699
 21
41.10407912057218
 31
0.0
  0
LINE
  5
99B0
  8
TITLE
 10
119.5108149115579
 20
36.996812850689821
 30
0.0
 11
123.6180811814399
 21
41.10407912057218
 31
0.0
  0
LINE
  5
99B1
  8
TITLE
 10
119.5056623657138
 20
37.078945177492869
 30
0.0
 11
123.5307963087929
 21
41.10407912057218
 31
0.0
  0
LINE
  5
99B2
  8
TITLE
 10
119.50222810986629
 20
37.16279579428334
 30
0.0
 11
123.4435114361457
 21
41.10407912057218
 31
0.0
  0
LINE
  5
99B3
  8
TITLE
 10
119.50061965915781
 20
37.248472216222581
 30
0.0
 11
123.35622656349859
 21
41.10407912057218
 31
0.0
  0
LINE
  5
99B4
  8
TITLE
 10
119.5009592315625
 20
37.336096661273821
 30
0.0
 11
123.26894169085131
 21
41.10407912057218
 31
0.0
  0
LINE
  5
99B5
  8
TITLE
 10
119.5033866891871
 20
37.425808991536087
 30
0.0
 11
123.181656818204
 21
41.10407912057218
 31
0.0
  0
LINE
  5
99B6
  8
TITLE
 10
119.5080632908663
 20
37.517770465861418
 30
0.0
 11
123.094371945557
 21
41.10407912057218
 31
0.0
  0
LINE
  5
99B7
  8
TITLE
 10
119.5151765482414
 20
37.61216859589581
 30
0.0
 11
123.007087072917
 21
41.10407912057218
 31
0.0
  0
LINE
  5
99B8
  8
TITLE
 10
119.524946610931
 20
37.709223531232908
 30
0.0
 11
122.9198022002701
 21
41.10407912057218
 31
0.0
  0
LINE
  5
99B9
  8
TITLE
 10
119.5376348155603
 20
37.809196608509239
 30
0.0
 11
122.8325173276226
 21
41.10407912057218
 31
0.0
  0
LINE
  5
99BA
  8
TITLE
 10
119.5535553710683
 20
37.91240203666348
 30
0.0
 11
122.74523245497539
 21
41.10407912057218
 31
0.0
  0
LINE
  5
99BB
  8
TITLE
 10
119.57309171664249
 20
38.019223254885453
 30
0.0
 11
122.6579475823285
 21
41.10407912057218
 31
0.0
  0
LINE
  5
99BC
  8
TITLE
 10
119.59672006767281
 20
38.130136478562797
 30
0.0
 11
122.5706627096812
 21
41.10407912057218
 31
0.0
  0
LINE
  5
99BD
  8
TITLE
 10
119.6250444443593
 20
38.24574572788282
 30
0.0
 11
122.4833778370339
 21
41.10407912057218
 31
0.0
  0
LINE
  5
99BE
  8
TITLE
 10
119.65885089087379
 20
38.366837047043362
 30
0.0
 11
122.3960929643868
 21
41.10407912057218
 31
0.0
  0
LINE
  5
99BF
  8
TITLE
 10
119.7475570630409
 20
38.630112964483317
 30
0.0
 11
122.2215232190928
 21
41.10407912057218
 31
0.0
  0
LINE
  5
99C0
  8
TITLE
 10
123.7842161662911
 20
38.477098180735247
 30
0.0
 11
123.79428075157379
 21
38.487162766017718
 31
0.0
  0
LINE
  5
99C1
  8
TITLE
 10
123.8460696877483
 20
38.451666829545729
 30
0.0
 11
123.8815656242205
 21
38.487162766017718
 31
0.0
  0
LINE
  5
99C2
  8
TITLE
 10
119.87837471686851
 20
38.935500363634219
 30
0.0
 11
122.0469534738056
 21
41.10407912057218
 31
0.0
  0
LINE
  5
99C3
  8
TITLE
 10
119.8061210691305
 20
38.775961843213743
 30
0.0
 11
122.1342383464457
 21
41.10407912057218
 31
0.0
  0
LINE
  5
99C4
  8
TITLE
 10
119.99855021796191
 20
35.389711213578501
 30
0.0
 11
122.0544190242499
 21
37.44558001986514
 31
0.0
  0
LINE
  5
99C5
  8
TITLE
 10
119.96735740685359
 20
35.445803275119722
 30
0.0
 11
122.072925247729
 21
37.551371115991969
 31
0.0
  0
LINE
  5
99C6
  8
TITLE
 10
119.936962026015
 20
35.502692766959569
 30
0.0
 11
122.1051251839027
 21
37.670855924819648
 31
0.0
  0
LINE
  5
99C7
  8
TITLE
 10
119.9073764141268
 20
35.560392027709497
 30
0.0
 11
122.1607584701227
 21
37.813774083683882
 31
0.0
  0
LINE
  5
99C8
  8
TITLE
 10
119.8786139441458
 20
35.618914430321752
 30
0.0
 11
122.2803928826207
 21
38.020693368814712
 31
0.0
  0
LINE
  5
99C9
  8
TITLE
 10
120.0305290909708
 20
35.334405213938169
 30
0.0
 11
122.04537152320751
 21
37.349247646174952
 31
0.0
  0
LINE
  5
99CA
  8
TITLE
 10
120.47256755522881
 20
34.729025206448171
 30
0.0
 11
122.27930117902881
 21
36.535758830238251
 31
0.0
  0
LINE
  5
99CB
  8
TITLE
 10
120.5992525161103
 20
34.593855549403322
 30
0.0
 11
122.3975003441048
 21
36.392103377374902
 31
0.0
  0
LINE
  5
99CC
  8
TITLE
 10
120.556319246317
 20
34.638207152264563
 30
0.0
 11
122.355974519046
 21
36.437862424963441
 31
0.0
  0
LINE
  5
99CD
  8
TITLE
 10
120.5140905573132
 20
34.683263335880213
 30
0.0
 11
122.3165647872937
 21
36.485737565855857
 31
0.0
  0
LINE
  5
99CE
  8
TITLE
 10
120.3916458255556
 20
34.82267322205854
 30
0.0
 11
122.21141576110151
 21
36.642443157604191
 31
0.0
  0
LINE
  5
99CF
  8
TITLE
 10
120.3522521212297
 20
34.870564390380203
 30
0.0
 11
122.1809433794774
 21
36.699255648627911
 31
0.0
  0
LINE
  5
99D0
  8
TITLE
 10
120.3135741703729
 20
34.91917131217042
 30
0.0
 11
122.152922182325
 21
36.758519324122631
 31
0.0
  0
LINE
  5
99D1
  8
TITLE
 10
120.2756159502573
 20
34.968497964702692
 30
0.0
 11
122.1274908311352
 21
36.82037284558016
 31
0.0
  0
LINE
  5
99D2
  8
TITLE
 10
120.16610875714311
 20
35.120845389507913
 30
0.0
 11
122.06873736886121
 21
37.02347400124421
 31
0.0
  0
LINE
  5
99D3
  8
TITLE
 10
120.2383820510447
 20
35.018548938136242
 30
0.0
 11
122.1048245534633
 21
36.884991440554757
 31
0.0
  0
LINE
  5
99D4
  8
TITLE
 10
120.20187769474811
 20
35.069329454486883
 30
0.0
 11
122.085145422389
 21
36.952597182127867
 31
0.0
  0
LINE
  5
99D5
  8
TITLE
 10
120.1310817927651
 20
35.17310329781867
 30
0.0
 11
122.0559687700525
 21
37.097990275081152
 31
0.0
  0
LINE
  5
99D6
  8
TITLE
 10
120.0968040634877
 20
35.226110441196226
 30
0.0
 11
122.0473277703138
 21
37.176634147990001
 31
0.0
  0
LINE
  5
99D7
  8
TITLE
 10
120.06328357058339
 20
35.279874820909917
 30
0.0
 11
122.043480290609
 21
37.260071540929232
 31
0.0
  0
LINE
  5
99D8
  8
TITLE
 10
120.4317519027413
 20
34.775494426607452
 30
0.0
 11
122.2442300364998
 21
36.58797256035615
 31
0.0
  0
LINE
  5
99D9
  8
TITLE
 10
121.7420937297894
 20
41.10407912057218
 30
0.0
 11
120.621301810544
 21
39.983287201326618
 31
0.0
  0
LINE
  5
99DA
  8
TITLE
 10
120.30236018531249
 20
39.621340450015168
 30
0.0
 11
121.78509885586401
 21
41.10407912057218
 31
0.0
  0
LINE
  5
99DB
  8
TITLE
 10
120.0962783141608
 20
39.327973706222743
 30
0.0
 11
121.8723837285112
 21
41.10407912057218
 31
0.0
  0
LINE
  5
99DC
  8
TITLE
 10
119.97055903818389
 20
39.114969557597817
 30
0.0
 11
121.9596686011584
 21
41.10407912057218
 31
0.0
  0
LINE
  5
99DD
  8
TITLE
 10
124.542226138814
 20
33.648876303887853
 30
0.0
 11
126.9557127079828
 21
36.0623628730566
 31
0.0
  0
LINE
  5
99DE
  8
TITLE
 10
124.2936969420909
 20
33.57491685245526
 30
0.0
 11
127.0296721594154
 21
36.310892069779811
 31
0.0
  0
LINE
  5
99DF
  8
TITLE
 10
124.4147014068193
 20
33.608636444536273
 30
0.0
 11
126.9959525673343
 21
36.189887605051517
 31
0.0
  0
LINE
  5
99E0
  8
TITLE
 10
124.1781613964548
 20
33.546666179466293
 30
0.0
 11
127.0579228324044
 21
36.42642761541606
 31
0.0
  0
LINE
  5
99E1
  8
TITLE
 10
124.0673119095803
 20
33.52310156523879
 30
0.0
 11
127.081487446631
 21
36.5372771022856
 31
0.0
  0
LINE
  5
99E2
  8
TITLE
 10
123.96054665794691
 20
33.503621186252587
 30
0.0
 11
127.10096782561691
 21
36.644042353919083
 31
0.0
  0
LINE
  5
99E3
  8
TITLE
 10
124.8234209858058
 20
33.755501405585392
 30
0.0
 11
126.8490876062877
 21
35.781168026070418
 31
0.0
  0
LINE
  5
99E4
  8
TITLE
 10
124.67774191356411
 20
33.697107205987152
 30
0.0
 11
126.90748180588309
 21
35.926847098305757
 31
0.0
  0
LINE
  5
99E5
  8
TITLE
 10
124.9827243368435
 20
33.827519883972172
 30
0.0
 11
126.7770691278985
 21
35.62186467502665
 31
0.0
  0
LINE
  5
99E6
  8
TITLE
 10
125.161833204571
 20
33.91934387905394
 30
0.0
 11
126.6852451328145
 21
35.442755807295782
 31
0.0
  0
LINE
  5
99E7
  8
TITLE
 10
131.62276507624699
 20
38.689841925901881
 30
0.0
 11
132.7781583346723
 21
39.845235184330882
 31
0.0
  0
LINE
  5
99E8
  8
TITLE
 10
131.71004994889421
 20
38.689841925901881
 30
0.0
 11
132.8654432073198
 21
39.845235184330882
 31
0.0
  0
LINE
  5
99E9
  8
TITLE
 10
131.7973348215412
 20
38.689841925901881
 30
0.0
 11
132.9527280799669
 21
39.845235184330882
 31
0.0
  0
LINE
  5
99EA
  8
TITLE
 10
131.88461969418839
 20
38.689841925901881
 30
0.0
 11
133.04001295261381
 21
39.845235184330882
 31
0.0
  0
LINE
  5
99EB
  8
TITLE
 10
131.9719045668358
 20
38.689841925901881
 30
0.0
 11
133.12729782526131
 21
39.845235184330882
 31
0.0
  0
LINE
  5
99EC
  8
TITLE
 10
132.05918943948279
 20
38.689841925901881
 30
0.0
 11
133.21458269790779
 21
39.845235184330882
 31
0.0
  0
LINE
  5
99ED
  8
TITLE
 10
131.01177096772429
 20
38.689841925901881
 30
0.0
 11
132.16716422614931
 21
39.845235184330882
 31
0.0
  0
LINE
  5
99EE
  8
TITLE
 10
131.09905584037151
 20
38.689841925901881
 30
0.0
 11
132.25444909879641
 21
39.845235184330882
 31
0.0
  0
LINE
  5
99EF
  8
TITLE
 10
131.1863407130183
 20
38.689841925901881
 30
0.0
 11
132.34173397144389
 21
39.845235184330882
 31
0.0
  0
LINE
  5
99F0
  8
TITLE
 10
131.27362558566571
 20
38.689841925901881
 30
0.0
 11
132.4290188440909
 21
39.845235184330882
 31
0.0
  0
LINE
  5
99F1
  8
TITLE
 10
131.36091045830551
 20
38.689841925901881
 30
0.0
 11
132.51630371673821
 21
39.845235184330882
 31
0.0
  0
LINE
  5
99F2
  8
TITLE
 10
131.44819533095259
 20
38.689841925901881
 30
0.0
 11
132.60358858938511
 21
39.845235184330882
 31
0.0
  0
LINE
  5
99F3
  8
TITLE
 10
131.53548020359989
 20
38.689841925901881
 30
0.0
 11
132.6908734620323
 21
39.845235184330882
 31
0.0
  0
LINE
  5
99F4
  8
TITLE
 10
131.58783114675899
 20
34.290664364088173
 30
0.0
 11
132.76881084983501
 21
35.471644067164789
 31
0.0
  0
LINE
  5
99F5
  8
TITLE
 10
131.67511601940589
 20
34.290664364088173
 30
0.0
 11
132.93325710182381
 21
35.548805446506208
 31
0.0
  0
LINE
  5
99F6
  8
TITLE
 10
131.76240089205299
 20
34.290664364088173
 30
0.0
 11
133.190691609829
 21
35.718955081863903
 31
0.0
  0
LINE
  5
99F7
  8
TITLE
 10
131.06412191088299
 20
34.290664364088173
 30
0.0
 11
132.12154666370631
 21
35.348089116911297
 31
0.0
  0
LINE
  5
99F8
  8
TITLE
 10
131.15140678353021
 20
34.290664364088173
 30
0.0
 11
132.21053226598809
 21
35.34978984654623
 31
0.0
  0
LINE
  5
99F9
  8
TITLE
 10
131.23869165617731
 20
34.290664364088173
 30
0.0
 11
132.3046877111446
 21
35.356660419062848
 31
0.0
  0
LINE
  5
99FA
  8
TITLE
 10
131.32597652881731
 20
34.290664364088173
 30
0.0
 11
132.40519659512489
 21
35.369884430395807
 31
0.0
  0
LINE
  5
99FB
  8
TITLE
 10
131.4132614014645
 20
34.290664364088173
 30
0.0
 11
132.51376815854891
 21
35.391171121172867
 31
0.0
  0
LINE
  5
99FC
  8
TITLE
 10
131.50054627411171
 20
34.290664364088173
 30
0.0
 11
132.63321247342341
 21
35.423330563399993
 31
0.0
  0
LINE
  5
99FD
  8
TITLE
 10
131.84968576470021
 20
34.290664364088173
 30
0.0
 11
135.1387854337801
 21
37.57976403316809
 31
0.0
  0
LINE
  5
99FE
  8
TITLE
 10
131.9369706373472
 20
34.290664364088173
 30
0.0
 11
135.1387854337801
 21
37.492479160520759
 31
0.0
  0
LINE
  5
99FF
  8
TITLE
 10
132.02425550999439
 20
34.290664364088173
 30
0.0
 11
135.1387854337801
 21
37.40519428787394
 31
0.0
  0
LINE
  5
9A00
  8
TITLE
 10
124.3744360268483
 20
38.019899569533891
 30
0.0
 11
124.8416992233324
 21
38.487162766017718
 31
0.0
  0
LINE
  5
9A01
  8
TITLE
 10
124.44238739289619
 20
37.91328119028816
 30
0.0
 11
125.01626896862599
 21
38.487162766017718
 31
0.0
  0
LINE
  5
9A02
  8
TITLE
 10
124.500952605626
 20
37.79727665772316
 30
0.0
 11
125.1908387139209
 21
38.487162766017718
 31
0.0
  0
LINE
  5
9A03
  8
TITLE
 10
124.5264229374817
 20
37.735462116931728
 30
0.0
 11
125.2781235865678
 21
38.487162766017718
 31
0.0
  0
LINE
  5
9A04
  8
TITLE
 10
124.4728946951394
 20
37.856503619884343
 30
0.0
 11
125.1035538412731
 21
38.487162766017718
 31
0.0
  0
LINE
  5
9A05
  8
TITLE
 10
124.4095396027073
 20
37.96771827274592
 30
0.0
 11
124.9289840959789
 21
38.487162766017718
 31
0.0
  0
LINE
  5
9A06
  8
TITLE
 10
124.3371407867789
 20
38.069889202111881
 30
0.0
 11
124.7544143506849
 21
38.487162766017718
 31
0.0
  0
LINE
  5
9A07
  8
TITLE
 10
124.2124856345077
 20
38.207088667754761
 30
0.0
 11
124.49255973277469
 21
38.487162766017718
 31
0.0
  0
LINE
  5
9A08
  8
TITLE
 10
124.2561433951967
 20
38.163461555839767
 30
0.0
 11
124.5798446053721
 21
38.487162766017718
 31
0.0
  0
LINE
  5
9A09
  8
TITLE
 10
124.29769997573079
 20
38.11773326371042
 30
0.0
 11
124.66712947803769
 21
38.487162766017718
 31
0.0
  0
LINE
  5
9A0A
  8
TITLE
 10
124.1667265869233
 20
38.248614492810653
 30
0.0
 11
124.4052748601344
 21
38.487162766017889
 31
0.0
  0
LINE
  5
9A0B
  8
TITLE
 10
124.06883018163821
 20
38.32528783283783
 30
0.0
 11
124.2307051148193
 21
38.487162766017889
 31
0.0
  0
LINE
  5
9A0C
  8
TITLE
 10
124.1188514460178
 20
38.28802422457494
 30
0.0
 11
124.3179899874612
 21
38.487162766017718
 31
0.0
  0
LINE
  5
9A0D
  8
TITLE
 10
123.9621458542661
 20
38.393173250769507
 30
0.0
 11
124.05613536951471
 21
38.487162766017718
 31
0.0
  0
LINE
  5
9A0E
  8
TITLE
 10
123.9053333632428
 20
38.423645632393061
 30
0.0
 11
123.9688504968674
 21
38.487162766017718
 31
0.0
  0
LINE
  5
9A0F
  8
TITLE
 10
124.0166164515207
 20
38.360358975367149
 30
0.0
 11
124.1434202421721
 21
38.487162766017889
 31
0.0
  0
LINE
  5
9A10
  8
TITLE
 10
125.66539193621141
 20
34.248332865401949
 30
0.0
 11
126.35625614646879
 21
34.939197075659081
 31
0.0
  0
LINE
  5
9A11
  8
TITLE
 10
125.3741686879837
 20
34.044394489821457
 30
0.0
 11
126.5601945220494
 21
35.230420323887301
 31
0.0
  0
LINE
  5
9A12
  8
TITLE
 10
124.5491310620004
 20
37.67088536880317
 30
0.0
 11
125.3654084592153
 21
38.487162766017491
 31
0.0
  0
LINE
  5
9A13
  8
TITLE
 10
124.56885568401719
 20
37.60332511816614
 30
0.0
 11
125.4526933318749
 21
38.487162766017491
 31
0.0
  0
LINE
  5
9A14
  8
TITLE
 10
124.58531391526731
 20
37.53249847678353
 30
0.0
 11
125.53997820450201
 21
38.487162766017718
 31
0.0
  0
LINE
  5
9A15
  8
TITLE
 10
124.59813882612001
 20
37.4580385149888
 30
0.0
 11
125.6272630771491
 21
38.487162766017718
 31
0.0
  0
LINE
  5
9A16
  8
TITLE
 10
124.60684436579849
 20
37.37945918202081
 30
0.0
 11
125.7145479497957
 21
38.487162766017718
 31
0.0
  0
LINE
  5
9A17
  8
TITLE
 10
124.60896907452469
 20
37.207014145452028
 30
0.0
 11
125.8891176950905
 21
38.487162766017718
 31
0.0
  0
LINE
  5
9A18
  8
TITLE
 10
124.6000397123872
 20
37.110799910667481
 30
0.0
 11
125.9764025677374
 21
38.487162766017718
 31
0.0
  0
LINE
  5
9A19
  8
TITLE
 10
124.581695215696
 20
37.005170541329051
 30
0.0
 11
126.06368744038529
 21
38.487162766017718
 31
0.0
  0
LINE
  5
9A1A
  8
TITLE
 10
124.6107677956054
 20
37.296097739180141
 30
0.0
 11
125.8018328224429
 21
38.487162766017718
 31
0.0
  0
LINE
  5
9A1B
  8
TITLE
 10
124.54974334913
 20
36.885933802115908
 30
0.0
 11
126.1509723130325
 21
38.487162766017491
 31
0.0
  0
LINE
  5
9A1C
  8
TITLE
 10
124.494586916505
 20
36.743492496843828
 30
0.0
 11
126.2382571856788
 21
38.487162766017491
 31
0.0
  0
LINE
  5
9A1D
  8
TITLE
 10
124.3769474790781
 20
36.538568186776729
 30
0.0
 11
126.3255420583062
 21
38.487162766017718
 31
0.0
  0
LINE
  5
9A1E
  8
TITLE
 10
130.92448609507721
 20
38.689841925901881
 30
0.0
 11
132.07987935350229
 21
39.845235184330882
 31
0.0
  0
LINE
  5
9A1F
  8
TITLE
 10
130.71498242029429
 20
34.290664364088173
 30
0.0
 11
131.7724071731173
 21
35.348089116911297
 31
0.0
  0
LINE
  5
9A20
  8
TITLE
 10
130.80226729294151
 20
34.290664364088173
 30
0.0
 11
131.85969204576469
 21
35.348089116911297
 31
0.0
  0
LINE
  5
9A21
  8
TITLE
 10
130.8895521655887
 20
34.290664364088173
 30
0.0
 11
131.94697691841199
 21
35.348089116911297
 31
0.0
  0
LINE
  5
9A22
  8
TITLE
 10
130.16170678209369
 20
34.87209207029332
 30
0.0
 11
130.63770382871189
 21
35.348089116911297
 31
0.0
  0
LINE
  5
9A23
  8
TITLE
 10
130.16170678209369
 20
34.78480719764616
 30
0.0
 11
130.724988701359
 21
35.348089116911297
 31
0.0
  0
LINE
  5
9A24
  8
TITLE
 10
130.16170678209369
 20
34.697522324999341
 30
0.0
 11
130.8122735740061
 21
35.348089116911297
 31
0.0
  0
LINE
  5
9A25
  8
TITLE
 10
130.16170678209369
 20
34.610237452351903
 30
0.0
 11
130.8995584466532
 21
35.348089116911297
 31
0.0
  0
LINE
  5
9A26
  8
TITLE
 10
130.16170678209369
 20
34.522952579704743
 30
0.0
 11
130.98684331930019
 21
35.348089116911297
 31
0.0
  0
LINE
  5
9A27
  8
TITLE
 10
130.16170678209369
 20
34.435667707057462
 30
0.0
 11
131.0741281919473
 21
35.348089116911297
 31
0.0
  0
LINE
  5
9A28
  8
TITLE
 10
130.16170678209369
 20
34.348382834410593
 30
0.0
 11
131.16141306459451
 21
35.348089116911297
 31
0.0
  0
LINE
  5
9A29
  8
TITLE
 10
130.1912731844188
 20
34.290664364088173
 30
0.0
 11
131.2486979372419
 21
35.348089116911297
 31
0.0
  0
LINE
  5
9A2A
  8
TITLE
 10
130.27855805706571
 20
34.290664364088173
 30
0.0
 11
131.335982809889
 21
35.348089116911297
 31
0.0
  0
LINE
  5
9A2B
  8
TITLE
 10
130.36584292970571
 20
34.290664364088173
 30
0.0
 11
131.42326768253611
 21
35.348089116911297
 31
0.0
  0
LINE
  5
9A2C
  8
TITLE
 10
130.45312780235301
 20
34.290664364088173
 30
0.0
 11
131.51055255517619
 21
35.348089116911297
 31
0.0
  0
LINE
  5
9A2D
  8
TITLE
 10
130.54041267500011
 20
34.290664364088173
 30
0.0
 11
131.59783742782321
 21
35.348089116911297
 31
0.0
  0
LINE
  5
9A2E
  8
TITLE
 10
130.6276975476473
 20
34.290664364088173
 30
0.0
 11
131.6851223004702
 21
35.348089116911297
 31
0.0
  0
LINE
  5
9A2F
  8
TITLE
 10
130.97683703823569
 20
34.290664364088173
 30
0.0
 11
132.03426179105929
 21
35.348089116911297
 31
0.0
  0
LINE
  5
9A30
  8
TITLE
 10
130.16170678209369
 20
35.133946688231113
 30
0.0
 11
130.37584921077749
 21
35.348089116911297
 31
0.0
  0
LINE
  5
9A31
  8
TITLE
 10
130.16170678209369
 20
35.046661815584123
 30
0.0
 11
130.46313408342479
 21
35.348089116911297
 31
0.0
  0
LINE
  5
9A32
  8
TITLE
 10
130.16170678209369
 20
34.959376942936842
 30
0.0
 11
130.5504189560645
 21
35.348089116911297
 31
0.0
  0
LINE
  5
9A33
  8
TITLE
 10
130.16170678209369
 20
35.308516433522193
 30
0.0
 11
130.201279465483
 21
35.348089116911297
 31
0.0
  0
LINE
  5
9A34
  8
TITLE
 10
130.16170678209369
 20
35.221231560875083
 30
0.0
 11
130.28856433813041
 21
35.348089116911297
 31
0.0
  0
LINE
  5
9A35
  8
TITLE
 10
130.75522780646969
 20
37.036740802303882
 30
0.0
 11
130.87271801804999
 21
37.154231013884157
 31
0.0
  0
LINE
  5
9A36
  8
TITLE
 10
130.84251267911711
 20
37.036740802303882
 30
0.0
 11
130.87271801804999
 21
37.066946141236997
 31
0.0
  0
LINE
  5
9A37
  8
TITLE
 10
130.49337318852801
 20
37.036740802303882
 30
0.0
 11
130.87271801804999
 21
37.416085631822227
 31
0.0
  0
LINE
  5
9A38
  8
TITLE
 10
130.5806580611754
 20
37.036740802303882
 30
0.0
 11
130.87271801804999
 21
37.328800759175117
 31
0.0
  0
LINE
  5
9A39
  8
TITLE
 10
130.6679429338227
 20
37.036740802303882
 30
0.0
 11
130.87271801804999
 21
37.241515886531147
 31
0.0
  0
LINE
  5
9A3A
  8
TITLE
 10
130.23151857059429
 20
37.036740802303882
 30
0.0
 11
130.87271801804999
 21
37.677940249759899
 31
0.0
  0
LINE
  5
9A3B
  8
TITLE
 10
130.31880344324091
 20
37.036740802303882
 30
0.0
 11
130.87271801804999
 21
37.590655377112739
 31
0.0
  0
LINE
  5
9A3C
  8
TITLE
 10
130.40608831588821
 20
37.036740802303882
 30
0.0
 11
130.87271801804999
 21
37.503370504469281
 31
0.0
  0
LINE
  5
9A3D
  8
TITLE
 10
129.88237908000551
 20
37.036740802303882
 30
0.0
 11
130.87271801804999
 21
38.027079740348597
 31
0.0
  0
LINE
  5
9A3E
  8
TITLE
 10
129.96966395265241
 20
37.036740802303882
 30
0.0
 11
130.87271801804999
 21
37.939794867701501
 31
0.0
  0
LINE
  5
9A3F
  8
TITLE
 10
130.0569488252998
 20
37.036740802303882
 30
0.0
 11
130.87271801804999
 21
37.85250999505417
 31
0.0
  0
LINE
  5
9A40
  8
TITLE
 10
130.1442336979471
 20
37.036740802303882
 30
0.0
 11
130.87271801804999
 21
37.765225122407173
 31
0.0
  0
LINE
  5
9A41
  8
TITLE
 10
129.5928977933288
 20
39.627660312961837
 30
0.0
 11
129.81047266469781
 21
39.845235184330882
 31
0.0
  0
LINE
  5
9A42
  8
TITLE
 10
129.5928977933288
 20
39.8022300582561
 30
0.0
 11
129.63590291940341
 21
39.845235184330882
 31
0.0
  0
LINE
  5
9A43
  8
TITLE
 10
129.5928977933288
 20
39.71494518560911
 30
0.0
 11
129.7231877920506
 21
39.845235184330882
 31
0.0
  0
LINE
  5
9A44
  8
TITLE
 10
129.5928977933288
 20
39.016666204438877
 30
0.0
 11
130.42146677322069
 21
39.845235184330882
 31
0.0
  0
LINE
  5
9A45
  8
TITLE
 10
129.5928977933288
 20
38.929381331791717
 30
0.0
 11
130.50875164586799
 21
39.845235184330882
 31
0.0
  0
LINE
  5
9A46
  8
TITLE
 10
129.5928977933288
 20
38.842096459144379
 30
0.0
 11
130.59603651851489
 21
39.845235184330882
 31
0.0
  0
LINE
  5
9A47
  8
TITLE
 10
129.5928977933288
 20
38.754811586497681
 30
0.0
 11
130.683321391162
 21
39.845235184330882
 31
0.0
  0
LINE
  5
9A48
  8
TITLE
 10
129.5928977933288
 20
38.056532605327448
 30
0.0
 11
131.38160037233209
 21
39.845235184330882
 31
0.0
  0
LINE
  5
9A49
  8
TITLE
 10
129.5928977933288
 20
37.96924773268023
 30
0.0
 11
131.4688852449793
 21
39.845235184330882
 31
0.0
  0
LINE
  5
9A4A
  8
TITLE
 10
129.5928977933288
 20
37.881962860033127
 30
0.0
 11
131.55617011762641
 21
39.845235184330882
 31
0.0
  0
LINE
  5
9A4B
  8
TITLE
 10
129.5928977933288
 20
37.794677987385853
 30
0.0
 11
131.64345499027371
 21
39.845235184330882
 31
0.0
  0
LINE
  5
9A4C
  8
TITLE
 10
129.5928977933288
 20
37.707393114738807
 30
0.0
 11
131.73073986292101
 21
39.845235184330882
 31
0.0
  0
LINE
  5
9A4D
  8
TITLE
 10
129.5928977933288
 20
37.62010824209159
 30
0.0
 11
131.818024735568
 21
39.845235184330882
 31
0.0
  0
LINE
  5
9A4E
  8
TITLE
 10
129.5928977933288
 20
37.532823369444259
 30
0.0
 11
131.90530960820811
 21
39.845235184330882
 31
0.0
  0
LINE
  5
9A4F
  8
TITLE
 10
129.5928977933288
 20
37.445538496800907
 30
0.0
 11
131.9925944808553
 21
39.845235184330882
 31
0.0
  0
LINE
  5
9A50
  8
TITLE
 10
129.5928977933288
 20
38.492956968555859
 30
0.0
 11
130.94517600909651
 21
39.845235184330882
 31
0.0
  0
LINE
  5
9A51
  8
TITLE
 10
129.5928977933288
 20
38.405672095908812
 30
0.0
 11
131.0324608817435
 21
39.845235184330882
 31
0.0
  0
LINE
  5
9A52
  8
TITLE
 10
129.5928977933288
 20
38.318387223265233
 30
0.0
 11
131.11974575439069
 21
39.845235184330882
 31
0.0
  0
LINE
  5
9A53
  8
TITLE
 10
129.5928977933288
 20
38.23110235061808
 30
0.0
 11
131.20703062703771
 21
39.845235184330882
 31
0.0
  0
LINE
  5
9A54
  8
TITLE
 10
129.5928977933288
 20
38.143817477970742
 30
0.0
 11
131.2943154996847
 21
39.845235184330882
 31
0.0
  0
LINE
  5
9A55
  8
TITLE
 10
129.5928977933288
 20
38.667526713850243
 30
0.0
 11
130.77060626380941
 21
39.845235184330882
 31
0.0
  0
LINE
  5
9A56
  8
TITLE
 10
129.5928977933288
 20
38.580241841202962
 30
0.0
 11
130.85789113645649
 21
39.845235184330882
 31
0.0
  0
LINE
  5
9A57
  8
TITLE
 10
129.5928977933288
 20
37.358253624153747
 30
0.0
 11
130.87271801804999
 21
38.638073848871159
 31
0.0
  0
LINE
  5
9A58
  8
TITLE
 10
129.5928977933288
 20
37.270968751506757
 30
0.0
 11
130.87271801804999
 21
38.550788976224283
 31
0.0
  0
LINE
  5
9A59
  8
TITLE
 10
129.62052446206391
 20
37.036740802303882
 30
0.0
 11
130.87271801804999
 21
38.288934358286213
 31
0.0
  0
LINE
  5
9A5A
  8
TITLE
 10
129.70780933471079
 20
37.036740802303882
 30
0.0
 11
130.87271801804999
 21
38.20164948564269
 31
0.0
  0
LINE
  5
9A5B
  8
TITLE
 10
129.79509420735801
 20
37.036740802303882
 30
0.0
 11
130.87271801804999
 21
38.114364612995871
 31
0.0
  0
LINE
  5
9A5C
  8
TITLE
 10
129.5928977933288
 20
37.183683878863292
 30
0.0
 11
130.87271801804999
 21
38.463504103580817
 31
0.0
  0
LINE
  5
9A5D
  8
TITLE
 10
129.5928977933288
 20
37.096399006216132
 30
0.0
 11
130.87271801804999
 21
38.376219230933941
 31
0.0
  0
LINE
  5
9A5E
  8
TITLE
 10
129.5928977933288
 20
39.103951077082463
 30
0.0
 11
130.33418190057341
 21
39.845235184330882
 31
0.0
  0
LINE
  5
9A5F
  8
TITLE
 10
129.5928977933288
 20
39.191235949729787
 30
0.0
 11
130.2468970279262
 21
39.845235184330882
 31
0.0
  0
LINE
  5
9A60
  8
TITLE
 10
129.5928977933288
 20
39.365805695020413
 30
0.0
 11
130.07232728263219
 21
39.845235184330882
 31
0.0
  0
LINE
  5
9A61
  8
TITLE
 10
129.5928977933288
 20
39.278520822373707
 30
0.0
 11
130.15961215527909
 21
39.845235184330882
 31
0.0
  0
LINE
  5
9A62
  8
TITLE
 10
129.5928977933288
 20
39.54037544031474
 30
0.0
 11
129.89775753734489
 21
39.845235184330882
 31
0.0
  0
LINE
  5
9A63
  8
TITLE
 10
129.5928977933288
 20
39.45309056766758
 30
0.0
 11
129.98504240998491
 21
39.845235184330882
 31
0.0
  0
LINE
  5
9A64
  8
TITLE
 10
139.8750000000002
 20
52.5
 30
0.0
 11
139.8750000000002
 21
42.5
 31
0.0
  0
LINE
  5
9A65
  8
TITLE
 10
135.97909548263829
 20
36.674376629097708
 30
0.0
 11
137.40085015379211
 21
38.09613130025145
 31
0.0
  0
LINE
  5
9A66
  8
TITLE
 10
136.0728856406414
 20
36.680881914460663
 30
0.0
 11
137.53160755963879
 21
38.139603833454373
 31
0.0
  0
LINE
  5
9A67
  8
TITLE
 10
136.16835074212051
 20
36.689062143292738
 30
0.0
 11
137.6678888718007
 21
38.188600272965751
 31
0.0
  0
LINE
  5
9A68
  8
TITLE
 10
135.60094273715191
 20
36.994502864780827
 30
0.0
 11
136.49015255532379
 21
37.883712682960208
 31
0.0
  0
LINE
  5
9A69
  8
TITLE
 10
135.60094273715191
 20
36.907217992133837
 30
0.0
 11
136.59399317660251
 21
37.900268431588358
 31
0.0
  0
LINE
  5
9A6A
  8
TITLE
 10
135.60094273715191
 20
36.819933119486791
 30
0.0
 11
136.70020082482401
 21
37.919191207166477
 31
0.0
  0
LINE
  5
9A6B
  8
TITLE
 10
135.60094273715191
 20
36.732648246842928
 30
0.0
 11
136.8089712692263
 21
37.940676778921222
 31
0.0
  0
LINE
  5
9A6C
  8
TITLE
 10
135.61900412636641
 20
36.663424763414127
 30
0.0
 11
136.92053195825591
 21
37.964952595300417
 31
0.0
  0
LINE
  5
9A6D
  8
TITLE
 10
135.70691449470979
 20
36.664050259110297
 30
0.0
 11
137.035149736204
 21
37.992285500604801
 31
0.0
  0
LINE
  5
9A6E
  8
TITLE
 10
135.79618745172871
 20
36.666038343485411
 30
0.0
 11
137.15314117007529
 21
38.022992061829029
 31
0.0
  0
LINE
  5
9A6F
  8
TITLE
 10
135.88688989370809
 20
36.669455912818137
 30
0.0
 11
137.27488665635039
 21
38.057452675456886
 31
0.0
  0
LINE
  5
9A70
  8
TITLE
 10
135.60094273715191
 20
37.169072610075091
 30
0.0
 11
136.28891381967981
 21
37.857043692603781
 31
0.0
  0
LINE
  5
9A71
  8
TITLE
 10
135.60094273715191
 20
37.081787737427867
 30
0.0
 11
136.38850900001589
 21
37.869354000292283
 31
0.0
  0
LINE
  5
9A72
  8
TITLE
 10
135.60094273715191
 20
37.780066718598171
 30
0.0
 11
135.63972242446201
 21
37.818846405915963
 31
0.0
  0
LINE
  5
9A73
  8
TITLE
 10
132.14647431213001
 20
38.689841925901881
 30
0.0
 11
133.30186757055529
 21
39.845235184330882
 31
0.0
  0
LINE
  5
9A74
  8
TITLE
 10
132.23375918477731
 20
38.689841925901881
 30
0.0
 11
133.3891524432027
 21
39.845235184330882
 31
0.0
  0
LINE
  5
9A75
  8
TITLE
 10
132.32104405741731
 20
38.689841925901881
 30
0.0
 11
133.47643731584941
 21
39.845235184330882
 31
0.0
  0
LINE
  5
9A76
  8
TITLE
 10
132.40832893006419
 20
38.689841925901881
 30
0.0
 11
133.5637221884966
 21
39.845235184330882
 31
0.0
  0
LINE
  5
9A77
  8
TITLE
 10
132.49561380271149
 20
38.689841925901881
 30
0.0
 11
133.6510070611368
 21
39.845235184330882
 31
0.0
  0
LINE
  5
9A78
  8
TITLE
 10
132.58289867535851
 20
38.689841925901881
 30
0.0
 11
133.7382919337841
 21
39.845235184330882
 31
0.0
  0
LINE
  5
9A79
  8
TITLE
 10
132.67018354800581
 20
38.689841925901881
 30
0.0
 11
133.825576806431
 21
39.845235184330882
 31
0.0
  0
LINE
  5
9A7A
  8
TITLE
 10
132.7574684206528
 20
38.689841925901881
 30
0.0
 11
133.91286167907799
 21
39.845235184330882
 31
0.0
  0
LINE
  5
9A7B
  8
TITLE
 10
133.8234146472611
 20
38.010090699581497
 30
0.0
 11
135.1387854337801
 21
39.325461486096799
 31
0.0
  0
LINE
  5
9A7C
  8
TITLE
 10
133.8234146472611
 20
37.922805826934223
 30
0.0
 11
135.1387854337801
 21
39.23817661344993
 31
0.0
  0
LINE
  5
9A7D
  8
TITLE
 10
133.8234146472611
 20
37.835520954290587
 30
0.0
 11
135.1387854337801
 21
39.150891740802649
 31
0.0
  0
LINE
  5
9A7E
  8
TITLE
 10
133.8234146472611
 20
37.748236081643427
 30
0.0
 11
135.1387854337801
 21
39.063606868159191
 31
0.0
  0
LINE
  5
9A7F
  8
TITLE
 10
133.8234146472611
 20
38.446515062813717
 30
0.0
 11
135.1387854337801
 21
39.761885849332486
 31
0.0
  0
LINE
  5
9A80
  8
TITLE
 10
133.8234146472611
 20
38.359230190166443
 30
0.0
 11
135.1387854337801
 21
39.674600976685213
 31
0.0
  0
LINE
  5
9A81
  8
TITLE
 10
133.8234146472611
 20
38.27194531751946
 30
0.0
 11
135.1387854337801
 21
39.587316104038223
 31
0.0
  0
LINE
  5
9A82
  8
TITLE
 10
133.8234146472611
 20
38.184660444872179
 30
0.0
 11
135.1387854337801
 21
39.500031231391347
 31
0.0
  0
LINE
  5
9A83
  8
TITLE
 10
133.8234146472611
 20
38.097375572224898
 30
0.0
 11
135.1387854337801
 21
39.412746358744073
 31
0.0
  0
LINE
  5
9A84
  8
TITLE
 10
132.8447532932999
 20
38.689841925901881
 30
0.0
 11
134.00014655172529
 21
39.845235184330882
 31
0.0
  0
LINE
  5
9A85
  8
TITLE
 10
132.93203816594709
 20
38.689841925901881
 30
0.0
 11
134.08743142437251
 21
39.845235184330882
 31
0.0
  0
LINE
  5
9A86
  8
TITLE
 10
133.01932303859439
 20
38.689841925901881
 30
0.0
 11
134.1747162970197
 21
39.845235184330882
 31
0.0
  0
LINE
  5
9A87
  8
TITLE
 10
133.1066079112415
 20
38.689841925901881
 30
0.0
 11
134.262001169667
 21
39.845235184330882
 31
0.0
  0
LINE
  5
9A88
  8
TITLE
 10
133.19389278388149
 20
38.689841925901881
 30
0.0
 11
134.34928604231411
 21
39.845235184330882
 31
0.0
  0
LINE
  5
9A89
  8
TITLE
 10
133.28117765652891
 20
38.689841925901881
 30
0.0
 11
134.43657091496129
 21
39.845235184330882
 31
0.0
  0
LINE
  5
9A8A
  8
TITLE
 10
133.36846252917579
 20
38.689841925901881
 30
0.0
 11
134.52385578760831
 21
39.845235184330882
 31
0.0
  0
LINE
  5
9A8B
  8
TITLE
 10
133.4557474018228
 20
38.689841925901881
 30
0.0
 11
134.61114066024811
 21
39.845235184330882
 31
0.0
  0
LINE
  5
9A8C
  8
TITLE
 10
133.8234146472611
 20
38.533799935460877
 30
0.0
 11
135.13484989613099
 21
39.845235184330882
 31
0.0
  0
LINE
  5
9A8D
  8
TITLE
 10
133.54303227447031
 20
38.689841925901881
 30
0.0
 11
134.6984255328951
 21
39.845235184330882
 31
0.0
  0
LINE
  5
9A8E
  8
TITLE
 10
133.63031714711721
 20
38.689841925901881
 30
0.0
 11
134.78571040554249
 21
39.845235184330882
 31
0.0
  0
LINE
  5
9A8F
  8
TITLE
 10
133.7176020197644
 20
38.689841925901881
 30
0.0
 11
134.8729952781899
 21
39.845235184330882
 31
0.0
  0
LINE
  5
9A90
  8
TITLE
 10
133.80488689241139
 20
38.689841925901881
 30
0.0
 11
134.9602801508367
 21
39.845235184330882
 31
0.0
  0
LINE
  5
9A91
  8
TITLE
 10
133.8234146472611
 20
38.621084808108321
 30
0.0
 11
135.04756502348411
 21
39.845235184330882
 31
0.0
  0
LINE
  5
9A92
  8
TITLE
 10
133.96490850222571
 20
34.747474521331917
 30
0.0
 11
134.68197527653621
 21
35.46454129564291
 31
0.0
  0
LINE
  5
9A93
  8
TITLE
 10
132.11154038264169
 20
34.290664364088173
 30
0.0
 11
135.1387854337801
 21
37.317909415226502
 31
0.0
  0
LINE
  5
9A94
  8
TITLE
 10
132.19882525528169
 20
34.290664364088173
 30
0.0
 11
135.1387854337801
 21
37.230624542582973
 31
0.0
  0
LINE
  5
9A95
  8
TITLE
 10
132.28611012792911
 20
34.290664364088173
 30
0.0
 11
135.1387854337801
 21
37.143339669935813
 31
0.0
  0
LINE
  5
9A96
  8
TITLE
 10
132.37339500057601
 20
34.290664364088173
 30
0.0
 11
135.1387854337801
 21
37.056054797292518
 31
0.0
  0
LINE
  5
9A97
  8
TITLE
 10
132.460679873223
 20
34.290664364088173
 30
0.0
 11
135.1387854337801
 21
36.968769924645187
 31
0.0
  0
LINE
  5
9A98
  8
TITLE
 10
132.54906446653121
 20
34.291764084749332
 30
0.0
 11
135.137685713119
 21
36.880385331336917
 31
0.0
  0
LINE
  5
9A99
  8
TITLE
 10
132.64055128721509
 20
34.295966032789181
 30
0.0
 11
135.1334837650754
 21
36.788898510649801
 31
0.0
  0
LINE
  5
9A9A
  8
TITLE
 10
132.7355420371124
 20
34.303671910036257
 30
0.0
 11
135.1257778878323
 21
36.693907760755728
 31
0.0
  0
LINE
  5
9A9B
  8
TITLE
 10
132.83451018011999
 20
34.31535518039999
 30
0.0
 11
135.11409461746479
 21
36.594939617748203
 31
0.0
  0
LINE
  5
9A9C
  8
TITLE
 10
132.93806686818101
 20
34.331626995810268
 30
0.0
 11
135.09782280205781
 21
36.491382929686843
 31
0.0
  0
LINE
  5
9A9D
  8
TITLE
 10
133.0470246953908
 20
34.353299950380183
 30
0.0
 11
135.0761498474883
 21
36.382425102474137
 31
0.0
  0
LINE
  5
9A9E
  8
TITLE
 10
133.162505626469
 20
34.38149600880746
 30
0.0
 11
135.0479537890574
 21
36.26694417139953
 31
0.0
  0
LINE
  5
9A9F
  8
TITLE
 10
133.28613763006041
 20
34.417843139748193
 30
0.0
 11
135.01160665812
 21
36.14331216780807
 31
0.0
  0
LINE
  5
9AA0
  8
TITLE
 10
133.42045003294999
 20
34.46487066999822
 30
0.0
 11
134.96457912787031
 21
36.008999764918308
 31
0.0
  0
LINE
  5
9AA1
  8
TITLE
 10
133.45254868230839
 20
35.980812154347227
 30
0.0
 11
135.1387854337801
 21
37.667048905815193
 31
0.0
  0
LINE
  5
9AA2
  8
TITLE
 10
133.74295558427499
 20
34.612806476028197
 30
0.0
 11
134.81664332183951
 21
35.686494213593278
 31
0.0
  0
LINE
  5
9AA3
  8
TITLE
 10
133.56978837649461
 20
34.526924140895737
 30
0.0
 11
134.9025256569729
 21
35.859661421373183
 31
0.0
  0
LINE
  5
9AA4
  8
TITLE
 10
133.8234146472611
 20
37.399096591054899
 30
0.0
 11
135.1387854337801
 21
38.714467377573783
 31
0.0
  0
LINE
  5
9AA5
  8
TITLE
 10
133.8234146472611
 20
37.311811718408201
 30
0.0
 11
135.1387854337801
 21
38.627182504926623
 31
0.0
  0
LINE
  5
9AA6
  8
TITLE
 10
133.8234146472611
 20
37.22452684576092
 30
0.0
 11
135.1387854337801
 21
38.539897632279811
 31
0.0
  0
LINE
  5
9AA7
  8
TITLE
 10
133.8217139176264
 20
36.960971498188201
 30
0.0
 11
135.1387854337801
 21
38.278043014338209
 31
0.0
  0
LINE
  5
9AA8
  8
TITLE
 10
133.81484334510981
 20
36.866816053027613
 30
0.0
 11
135.1387854337801
 21
38.190758141694289
 31
0.0
  0
LINE
  5
9AA9
  8
TITLE
 10
133.80161933378389
 20
36.766307169047543
 30
0.0
 11
135.1387854337801
 21
38.103473269047591
 31
0.0
  0
LINE
  5
9AAA
  8
TITLE
 10
133.8234146472611
 20
37.137241973117114
 30
0.0
 11
135.1387854337801
 21
38.45261275963253
 31
0.0
  0
LINE
  5
9AAB
  8
TITLE
 10
133.8234146472611
 20
37.049957100469783
 30
0.0
 11
135.1387854337801
 21
38.365327886985199
 31
0.0
  0
LINE
  5
9AAC
  8
TITLE
 10
133.78033264300001
 20
36.657735605623941
 30
0.0
 11
135.1387854337801
 21
38.01618839640031
 31
0.0
  0
LINE
  5
9AAD
  8
TITLE
 10
133.74817320077941
 20
36.538291290752397
 30
0.0
 11
135.1387854337801
 21
37.928903523756901
 31
0.0
  0
LINE
  5
9AAE
  8
TITLE
 10
133.69985969700789
 20
36.402692914337251
 30
0.0
 11
135.1387854337801
 21
37.841618651109457
 31
0.0
  0
LINE
  5
9AAF
  8
TITLE
 10
133.62269831766599
 20
36.238246662352083
 30
0.0
 11
135.1387854337801
 21
37.754333778462012
 31
0.0
  0
LINE
  5
9AB0
  8
TITLE
 10
135.60094273715191
 20
37.518212100660087
 30
0.0
 11
135.90860738553471
 21
37.825876749046763
 31
0.0
  0
LINE
  5
9AB1
  8
TITLE
 10
135.60094273715191
 20
37.430927228016522
 30
0.0
 11
136.00118090381039
 21
37.831165394675402
 31
0.0
  0
LINE
  5
9AB2
  8
TITLE
 10
135.60094273715191
 20
37.343642355369411
 30
0.0
 11
136.095359554704
 21
37.838059172922272
 31
0.0
  0
LINE
  5
9AB3
  8
TITLE
 10
135.60094273715191
 20
37.256357482722137
 30
0.0
 11
136.1912360352963
 21
37.846650780866639
 31
0.0
  0
LINE
  5
9AB4
  8
TITLE
 10
135.60094273715191
 20
37.692781845951288
 30
0.0
 11
135.72795005783851
 21
37.819789166644803
 31
0.0
  0
LINE
  5
9AB5
  8
TITLE
 10
135.60094273715191
 20
37.60549697330714
 30
0.0
 11
135.81755557183411
 21
37.822109807993399
 31
0.0
  0
LINE
  5
9AB6
  8
TITLE
 10
133.8234146472611
 20
37.486381463702003
 30
0.0
 11
135.1387854337801
 21
38.801752250220773
 31
0.0
  0
LINE
  5
9AB7
  8
TITLE
 10
133.8234146472611
 20
37.660951208996437
 30
0.0
 11
135.1387854337801
 21
38.97632199551186
 31
0.0
  0
LINE
  5
9AB8
  8
TITLE
 10
133.8234146472611
 20
37.573666336349277
 30
0.0
 11
135.1387854337801
 21
38.889037122868046
 31
0.0
  0
LINE
  5
9AB9
  8
TITLE
 10
138.17835846748949
 20
35.905953943966949
 30
0.0
 11
139.4937292540011
 21
37.221324730485719
 31
0.0
  0
LINE
  5
9ABA
  8
TITLE
 10
138.17835846748949
 20
35.818669071319619
 30
0.0
 11
139.4937292540011
 21
37.134039857838388
 31
0.0
  0
LINE
  5
9ABB
  8
TITLE
 10
138.17835846748949
 20
35.731384198672799
 30
0.0
 11
139.4937292540011
 21
37.046754985191342
 31
0.0
  0
LINE
  5
9ABC
  8
TITLE
 10
138.17835846748949
 20
35.644099326025639
 30
0.0
 11
139.4937292540011
 21
36.959470112544238
 31
0.0
  0
LINE
  5
9ABD
  8
TITLE
 10
138.17835846748949
 20
35.556814453381719
 30
0.0
 11
139.4937292540011
 21
36.872185239897249
 31
0.0
  0
LINE
  5
9ABE
  8
TITLE
 10
138.17835846748949
 20
35.469529580734729
 30
0.0
 11
139.4937292540011
 21
36.784900367250152
 31
0.0
  0
LINE
  5
9ABF
  8
TITLE
 10
138.17835846748949
 20
35.38224470809093
 30
0.0
 11
139.4937292540011
 21
36.697615494602807
 31
0.0
  0
LINE
  5
9AC0
  8
TITLE
 10
138.17835846748949
 20
34.771250599561078
 30
0.0
 11
139.4937292540011
 21
36.086621386079798
 31
0.0
  0
LINE
  5
9AC1
  8
TITLE
 10
138.17835846748949
 20
34.683965726917279
 30
0.0
 11
139.4937292540011
 21
35.999336513432702
 31
0.0
  0
LINE
  5
9AC2
  8
TITLE
 10
138.17835846748949
 20
35.294959835443649
 30
0.0
 11
139.4937292540011
 21
36.610330621959008
 31
0.0
  0
LINE
  5
9AC3
  8
TITLE
 10
138.17835846748949
 20
35.207674962796773
 30
0.0
 11
139.4937292540011
 21
36.523045749312068
 31
0.0
  0
LINE
  5
9AC4
  8
TITLE
 10
138.17835846748949
 20
35.120390090149499
 30
0.0
 11
139.4937292540011
 21
36.435760876664922
 31
0.0
  0
LINE
  5
9AC5
  8
TITLE
 10
138.17835846748949
 20
35.033105217502218
 30
0.0
 11
139.4937292540011
 21
36.348476004021222
 31
0.0
  0
LINE
  5
9AC6
  8
TITLE
 10
138.17835846748949
 20
34.945820344855242
 30
0.0
 11
139.4937292540011
 21
36.261191131374119
 31
0.0
  0
LINE
  5
9AC7
  8
TITLE
 10
138.17835846748949
 20
34.858535472208082
 30
0.0
 11
139.4937292540011
 21
36.173906258726852
 31
0.0
  0
LINE
  5
9AC8
  8
TITLE
 10
138.17835846748949
 20
34.596680854270012
 30
0.0
 11
139.4937292540011
 21
35.912051640785648
 31
0.0
  0
LINE
  5
9AC9
  8
TITLE
 10
138.17835846748949
 20
34.509395981623129
 30
0.0
 11
139.4937292540011
 21
35.824766768138431
 31
0.0
  0
LINE
  5
9ACA
  8
TITLE
 10
138.17835846748949
 20
34.422111108979493
 30
0.0
 11
139.4937292540011
 21
35.737481895494909
 31
0.0
  0
LINE
  5
9ACB
  8
TITLE
 10
138.17835846748949
 20
34.334826236332219
 30
0.0
 11
139.4937292540011
 21
35.650197022847749
 31
0.0
  0
LINE
  5
9ACC
  8
TITLE
 10
138.22148146789209
 20
34.290664364088173
 30
0.0
 11
139.4937292540011
 21
35.562912150200482
 31
0.0
  0
LINE
  5
9ACD
  8
TITLE
 10
138.57062095848079
 20
34.290664364088173
 30
0.0
 11
139.4937292540011
 21
35.213772659615529
 31
0.0
  0
LINE
  5
9ACE
  8
TITLE
 10
138.65790583112079
 20
34.290664364088173
 30
0.0
 11
139.4937292540011
 21
35.126487786968539
 31
0.0
  0
LINE
  5
9ACF
  8
TITLE
 10
138.74519070376789
 20
34.290664364088173
 30
0.0
 11
139.4937292540011
 21
35.039202914321272
 31
0.0
  0
LINE
  5
9AD0
  8
TITLE
 10
138.83247557641499
 20
34.290664364088173
 30
0.0
 11
139.4937292540011
 21
34.951918041674112
 31
0.0
  0
LINE
  5
9AD1
  8
TITLE
 10
138.48333608583371
 20
34.290664364088173
 30
0.0
 11
139.4937292540011
 21
35.301057532262803
 31
0.0
  0
LINE
  5
9AD2
  8
TITLE
 10
138.30876634053951
 20
34.290664364088173
 30
0.0
 11
139.4937292540011
 21
35.47562727755713
 31
0.0
  0
LINE
  5
9AD3
  8
TITLE
 10
138.39605121318641
 20
34.290664364088173
 30
0.0
 11
139.4937292540011
 21
35.3883424049098
 31
0.0
  0
LINE
  5
9AD4
  8
TITLE
 10
138.9197604490623
 20
34.290664364088173
 30
0.0
 11
139.4937292540011
 21
34.864633169026831
 31
0.0
  0
LINE
  5
9AD5
  8
TITLE
 10
139.00704532170931
 20
34.290664364088173
 30
0.0
 11
139.4937292540011
 21
34.777348296383309
 31
0.0
  0
LINE
  5
9AD6
  8
TITLE
 10
139.0943301943565
 20
34.290664364088173
 30
0.0
 11
139.4937292540011
 21
34.690063423736319
 31
0.0
  0
LINE
  5
9AD7
  8
TITLE
 10
139.18161506700389
 20
34.290664364088173
 30
0.0
 11
139.4937292540011
 21
34.602778551089159
 31
0.0
  0
LINE
  5
9AD8
  8
TITLE
 10
139.26889993965091
 20
34.290664364088173
 30
0.0
 11
139.4937292540011
 21
34.515493678445807
 31
0.0
  0
LINE
  5
9AD9
  8
TITLE
 10
139.3561848122979
 20
34.290664364088173
 30
0.0
 11
139.4937292540011
 21
34.428208805798818
 31
0.0
  0
LINE
  5
9ADA
  8
TITLE
 10
139.443469684945
 20
34.290664364088173
 30
0.0
 11
139.4937292540011
 21
34.34092393315121
 31
0.0
  0
LINE
  5
9ADB
  8
TITLE
 10
138.17835846748949
 20
36.080523689261099
 30
0.0
 11
139.4937292540011
 21
37.395894475776458
 31
0.0
  0
LINE
  5
9ADC
  8
TITLE
 10
138.17835846748949
 20
35.993238816613768
 30
0.0
 11
139.4937292540011
 21
37.308609603133107
 31
0.0
  0
LINE
  5
9ADD
  8
TITLE
 10
138.17835846748949
 20
36.342378307199169
 30
0.0
 11
139.4937292540011
 21
37.657749093714528
 31
0.0
  0
LINE
  5
9ADE
  8
TITLE
 10
138.17835846748949
 20
36.255093434555192
 30
0.0
 11
139.4937292540011
 21
37.570464221067247
 31
0.0
  0
LINE
  5
9ADF
  8
TITLE
 10
138.17835846748949
 20
36.16780856190838
 30
0.0
 11
139.4937292540011
 21
37.483179348423789
 31
0.0
  0
LINE
  5
9AE0
  8
TITLE
 10
138.17835846748949
 20
36.691517797784059
 30
0.0
 11
139.4937292540011
 21
38.006888584302828
 31
0.0
  0
LINE
  5
9AE1
  8
TITLE
 10
138.17835846748949
 20
36.604232925136792
 30
0.0
 11
139.4937292540011
 21
37.919603711655839
 31
0.0
  0
LINE
  5
9AE2
  8
TITLE
 10
138.17835846748949
 20
36.516948052493262
 30
0.0
 11
139.4937292540011
 21
37.832318839008849
 31
0.0
  0
LINE
  5
9AE3
  8
TITLE
 10
138.17835846748949
 20
36.42966317984633
 30
0.0
 11
139.4937292540011
 21
37.745033966361859
 31
0.0
  0
LINE
  5
9AE4
  8
TITLE
 10
136.26559155389509
 20
36.69901808241287
 30
0.0
 11
137.8106433446178
 21
38.244069873139097
 31
0.0
  0
LINE
  5
9AE5
  8
TITLE
 10
136.36472098975
 20
36.710862645627863
 30
0.0
 11
137.96114514669449
 21
38.30728680256891
 31
0.0
  0
LINE
  5
9AE6
  8
TITLE
 10
137.3705820430992
 20
36.931159845160039
 30
0.0
 11
139.82868408240779
 21
39.389261884468461
 31
0.0
  0
LINE
  5
9AE7
  8
TITLE
 10
137.0076885273063
 20
36.830120947300941
 30
0.0
 11
139.29926065819879
 21
39.121693078193687
 31
0.0
  0
LINE
  5
9AE8
  8
TITLE
 10
137.12484853071879
 20
36.859996078069862
 30
0.0
 11
139.49081270551741
 21
39.225960252872262
 31
0.0
  0
LINE
  5
9AE9
  8
TITLE
 10
137.2456657119821
 20
36.893528386682931
 30
0.0
 11
139.6658927124889
 21
39.313755387196807
 31
0.0
  0
LINE
  5
9AEA
  8
TITLE
 10
137.50014370117441
 20
36.973436630584501
 30
0.0
 11
139.98182835518631
 21
39.455121284592508
 31
0.0
  0
LINE
  5
9AEB
  8
TITLE
 10
137.63503932762711
 20
37.021047384393512
 30
0.0
 11
140.12712112781199
 21
39.51312918457802
 31
0.0
  0
LINE
  5
9AEC
  8
TITLE
 10
137.77615856357451
 20
37.07488174768622
 30
0.0
 11
140.26584947541579
 21
39.564572659535258
 31
0.0
  0
LINE
  5
9AED
  8
TITLE
 10
136.674801505056
 20
36.759088542992458
 30
0.0
 11
138.48354408961691
 21
38.567831127553411
 31
0.0
  0
LINE
  5
9AEE
  8
TITLE
 10
136.46586626772529
 20
36.724723050955788
 30
0.0
 11
138.1211753907109
 21
38.38003217394192
 31
0.0
  0
LINE
  5
9AEF
  8
TITLE
 10
136.56917158942699
 20
36.74074350000712
 30
0.0
 11
138.29336139830929
 21
38.464933308892803
 31
0.0
  0
LINE
  5
9AF0
  8
TITLE
 10
136.78294519211221
 20
36.779947357401397
 30
0.0
 11
138.82879720034299
 21
38.825799365632179
 31
0.0
  0
LINE
  5
9AF1
  8
TITLE
 10
136.89382197118289
 20
36.803539263828903
 30
0.0
 11
139.0838395100343
 21
38.993556802679791
 31
0.0
  0
LINE
  5
9AF2
  8
TITLE
 10
156.25726551436361
 20
38.971862895652457
 30
0.0
 11
157.14069087006919
 21
39.855288251358161
 31
0.0
  0
LINE
  5
9AF3
  8
TITLE
 10
156.25726551436361
 20
38.884578023009112
 30
0.0
 11
157.22797574271641
 21
39.855288251358161
 31
0.0
  0
LINE
  5
9AF4
  8
TITLE
 10
156.25726551436361
 20
38.797293150361838
 30
0.0
 11
157.31526061536371
 21
39.855288251358161
 31
0.0
  0
LINE
  5
9AF5
  8
TITLE
 10
156.25726551436361
 20
38.273583914482458
 30
0.0
 11
157.8389698512392
 21
39.855288251358161
 31
0.0
  0
LINE
  5
9AF6
  8
TITLE
 10
156.25726551436361
 20
38.186299041835468
 30
0.0
 11
157.9262547238865
 21
39.855288251358161
 31
0.0
  0
LINE
  5
9AF7
  8
TITLE
 10
156.25726551436361
 20
38.099014169188187
 30
0.0
 11
158.01353959653369
 21
39.855288251358161
 31
0.0
  0
LINE
  5
9AF8
  8
TITLE
 10
156.25726551436361
 20
38.448153659776608
 30
0.0
 11
157.66440010595221
 21
39.855288251358161
 31
0.0
  0
LINE
  5
9AF9
  8
TITLE
 10
156.25726551436361
 20
38.360868787129448
 30
0.0
 11
157.75168497859221
 21
39.855288251358161
 31
0.0
  0
LINE
  5
9AFA
  8
TITLE
 10
156.25726551436361
 20
38.710008277714962
 30
0.0
 11
157.40254548801079
 21
39.855288251358161
 31
0.0
  0
LINE
  5
9AFB
  8
TITLE
 10
156.25726551436361
 20
38.622723405071163
 30
0.0
 11
157.48983036065789
 21
39.855288251358161
 31
0.0
  0
LINE
  5
9AFC
  8
TITLE
 10
156.25726551436361
 20
38.535438532424173
 30
0.0
 11
157.57711523330511
 21
39.855288251358161
 31
0.0
  0
LINE
  5
9AFD
  8
TITLE
 10
156.25726551436361
 20
37.837159551250302
 30
0.0
 11
157.2526812447023
 21
38.832575281585378
 31
0.0
  0
LINE
  5
9AFE
  8
TITLE
 10
156.25726551436361
 20
37.74987467860678
 30
0.0
 11
157.2526812447023
 21
38.745290408941692
 31
0.0
  0
LINE
  5
9AFF
  8
TITLE
 10
156.25726551436361
 20
38.011729296540921
 30
0.0
 11
157.2526812447023
 21
39.007145026879748
 31
0.0
  0
LINE
  5
9B00
  8
TITLE
 10
156.25726551436361
 20
37.924444423897228
 30
0.0
 11
157.2526812447023
 21
38.919860154232481
 31
0.0
  0
LINE
  5
9B01
  8
TITLE
 10
155.87822847828221
 20
39.029250222799931
 30
0.0
 11
156.70426650684061
 21
39.855288251358161
 31
0.0
  0
LINE
  5
9B02
  8
TITLE
 10
155.96551335092951
 20
39.029250222799931
 30
0.0
 11
156.79155137948089
 21
39.855288251358161
 31
0.0
  0
LINE
  5
9B03
  8
TITLE
 10
156.05279822357679
 20
39.029250222799931
 30
0.0
 11
156.87883625212811
 21
39.855288251358161
 31
0.0
  0
LINE
  5
9B04
  8
TITLE
 10
156.14008309621701
 20
39.029250222799931
 30
0.0
 11
156.96612112477499
 21
39.855288251358161
 31
0.0
  0
LINE
  5
9B05
  8
TITLE
 10
156.22736796886369
 20
39.029250222799931
 30
0.0
 11
157.05340599742189
 21
39.855288251358161
 31
0.0
  0
LINE
  5
9B06
  8
TITLE
 10
155.41660137924521
 20
34.290664364088173
 30
0.0
 11
157.2526812447023
 21
36.126744229544897
 31
0.0
  0
LINE
  5
9B07
  8
TITLE
 10
155.5038862518922
 20
34.290664364088173
 30
0.0
 11
157.2526812447023
 21
36.039459356901723
 31
0.0
  0
LINE
  5
9B08
  8
TITLE
 10
156.25726551436361
 20
35.567752862442148
 30
0.0
 11
157.2526812447023
 21
36.563168592780762
 31
0.0
  0
LINE
  5
9B09
  8
TITLE
 10
156.25726551436361
 20
35.480467989795052
 30
0.0
 11
157.2526812447023
 21
36.475883720133879
 31
0.0
  0
LINE
  5
9B0A
  8
TITLE
 10
156.25726551436361
 20
35.393183117147771
 30
0.0
 11
157.2526812447023
 21
36.388598847486492
 31
0.0
  0
LINE
  5
9B0B
  8
TITLE
 10
156.25726551436361
 20
35.305898244500888
 30
0.0
 11
157.2526812447023
 21
36.301313974839161
 31
0.0
  0
LINE
  5
9B0C
  8
TITLE
 10
156.25726551436361
 20
35.218613371857153
 30
0.0
 11
157.2526812447023
 21
36.214029102192448
 31
0.0
  0
LINE
  5
9B0D
  8
TITLE
 10
156.25726551436361
 20
35.91689235303074
 30
0.0
 11
157.2526812447023
 21
36.912308083366099
 31
0.0
  0
LINE
  5
9B0E
  8
TITLE
 10
156.25726551436361
 20
35.829607480383856
 30
0.0
 11
157.2526812447023
 21
36.825023210718541
 31
0.0
  0
LINE
  5
9B0F
  8
TITLE
 10
156.25726551436361
 20
35.742322607736469
 30
0.0
 11
157.2526812447023
 21
36.737738338075303
 31
0.0
  0
LINE
  5
9B10
  8
TITLE
 10
156.25726551436361
 20
35.655037735089202
 30
0.0
 11
157.2526812447023
 21
36.650453465427859
 31
0.0
  0
LINE
  5
9B11
  8
TITLE
 10
155.5911711245395
 20
34.290664364088173
 30
0.0
 11
157.2526812447023
 21
35.952174484254272
 31
0.0
  0
LINE
  5
9B12
  8
TITLE
 10
155.67845599718669
 20
34.290664364088173
 30
0.0
 11
157.2526812447023
 21
35.864889611607111
 31
0.0
  0
LINE
  5
9B13
  8
TITLE
 10
155.76574086983399
 20
34.290664364088173
 30
0.0
 11
157.2526812447023
 21
35.77760473896376
 31
0.0
  0
LINE
  5
9B14
  8
TITLE
 10
155.85302574248101
 20
34.290664364088173
 30
0.0
 11
157.2526812447023
 21
35.690319866316429
 31
0.0
  0
LINE
  5
9B15
  8
TITLE
 10
155.94031061512089
 20
34.290664364088173
 30
0.0
 11
157.2526812447023
 21
35.603034993669503
 31
0.0
  0
LINE
  5
9B16
  8
TITLE
 10
156.02759548776791
 20
34.290664364088173
 30
0.0
 11
157.2526812447023
 21
35.515750121022172
 31
0.0
  0
LINE
  5
9B17
  8
TITLE
 10
156.1148803604153
 20
34.290664364088173
 30
0.0
 11
157.2526812447023
 21
35.428465248375353
 31
0.0
  0
LINE
  5
9B18
  8
TITLE
 10
156.20216523306269
 20
34.290664364088173
 30
0.0
 11
157.2526812447023
 21
35.341180375727902
 31
0.0
  0
LINE
  5
9B19
  8
TITLE
 10
156.2894501057097
 20
34.290664364088173
 30
0.0
 11
157.2526812447023
 21
35.253895503080741
 31
0.0
  0
LINE
  5
9B1A
  8
TITLE
 10
156.37673497835709
 20
34.290664364088173
 30
0.0
 11
157.2526812447023
 21
35.166610630433411
 31
0.0
  0
LINE
  5
9B1B
  8
TITLE
 10
156.46401985100411
 20
34.290664364088173
 30
0.0
 11
157.31645191436689
 21
35.143096427454793
 31
0.0
  0
LINE
  5
9B1C
  8
TITLE
 10
156.5513047236511
 20
34.290664364088173
 30
0.0
 11
157.40373678701391
 21
35.143096427454793
 31
0.0
  0
LINE
  5
9B1D
  8
TITLE
 10
156.63858959629809
 20
34.290664364088173
 30
0.0
 11
157.4910216596611
 21
35.143096427454793
 31
0.0
  0
LINE
  5
9B1E
  8
TITLE
 10
156.25726551436361
 20
36.702456206847728
 30
0.0
 11
157.2526812447023
 21
37.697871937182917
 31
0.0
  0
LINE
  5
9B1F
  8
TITLE
 10
156.25726551436361
 20
36.615171334200909
 30
0.0
 11
157.2526812447023
 21
37.61058706453975
 31
0.0
  0
LINE
  5
9B20
  8
TITLE
 10
156.25726551436361
 20
36.527886461553862
 30
0.0
 11
157.2526812447023
 21
37.523302191892469
 31
0.0
  0
LINE
  5
9B21
  8
TITLE
 10
156.25726551436361
 20
36.440601588906652
 30
0.0
 11
157.2526812447023
 21
37.436017319245032
 31
0.0
  0
LINE
  5
9B22
  8
TITLE
 10
156.25726551436361
 20
36.353316716259719
 30
0.0
 11
157.2526812447023
 21
37.348732446597751
 31
0.0
  0
LINE
  5
9B23
  8
TITLE
 10
156.25726551436361
 20
36.266031843612041
 30
0.0
 11
157.2526812447023
 21
37.261447573950761
 31
0.0
  0
LINE
  5
9B24
  8
TITLE
 10
156.25726551436361
 20
36.178746970968689
 30
0.0
 11
157.2526812447023
 21
37.174162701303892
 31
0.0
  0
LINE
  5
9B25
  8
TITLE
 10
156.25726551436361
 20
36.091462098321422
 30
0.0
 11
157.2526812447023
 21
37.086877828656732
 31
0.0
  0
LINE
  5
9B26
  8
TITLE
 10
156.25726551436361
 20
36.004177225674368
 30
0.0
 11
157.2526812447023
 21
36.999592956009337
 31
0.0
  0
LINE
  5
9B27
  8
TITLE
 10
156.25726551436361
 20
37.662589805959442
 30
0.0
 11
157.2526812447023
 21
38.65800553629424
 31
0.0
  0
LINE
  5
9B28
  8
TITLE
 10
156.25726551436361
 20
37.575304933312168
 30
0.0
 11
157.2526812447023
 21
38.570720663647819
 31
0.0
  0
LINE
  5
9B29
  8
TITLE
 10
156.25726551436361
 20
37.226165442723868
 30
0.0
 11
157.2526812447023
 21
38.22158117306202
 31
0.0
  0
LINE
  5
9B2A
  8
TITLE
 10
156.25726551436361
 20
37.138880570076481
 30
0.0
 11
157.2526812447023
 21
38.134296300415201
 31
0.0
  0
LINE
  5
9B2B
  8
TITLE
 10
156.25726551436361
 20
37.488020060665178
 30
0.0
 11
157.2526812447023
 21
38.483435791003899
 31
0.0
  0
LINE
  5
9B2C
  8
TITLE
 10
156.25726551436361
 20
37.400735188017912
 30
0.0
 11
157.2526812447023
 21
38.396150918356909
 31
0.0
  0
LINE
  5
9B2D
  8
TITLE
 10
156.25726551436361
 20
37.313450315370737
 30
0.0
 11
157.2526812447023
 21
38.308866045709472
 31
0.0
  0
LINE
  5
9B2E
  8
TITLE
 10
156.25726551436361
 20
36.964310824785677
 30
0.0
 11
157.2526812447023
 21
37.959726555120767
 31
0.0
  0
LINE
  5
9B2F
  8
TITLE
 10
156.25726551436361
 20
36.877025952138808
 30
0.0
 11
157.2526812447023
 21
37.872441682477238
 31
0.0
  0
LINE
  5
9B30
  8
TITLE
 10
156.25726551436361
 20
36.789741079495002
 30
0.0
 11
157.2526812447023
 21
37.785156809830262
 31
0.0
  0
LINE
  5
9B31
  8
TITLE
 10
156.25726551436361
 20
37.051595697433129
 30
0.0
 11
157.2526812447023
 21
38.047011427768041
 31
0.0
  0
LINE
  5
9B32
  8
TITLE
 10
147.64818746413289
 20
34.552458732449338
 30
0.0
 11
149.61920505014231
 21
36.523476318458449
 31
0.0
  0
LINE
  5
9B33
  8
TITLE
 10
147.64818746413289
 20
34.465173859801901
 30
0.0
 11
149.5733267290633
 21
36.390313124733098
 31
0.0
  0
LINE
  5
9B34
  8
TITLE
 10
147.64818746413289
 20
34.37788898715479
 30
0.0
 11
149.52744840798491
 21
36.257149931010652
 31
0.0
  0
LINE
  5
9B35
  8
TITLE
 10
147.64824771371309
 20
34.290664364088173
 30
0.0
 11
149.4815700869064
 21
36.123986737284781
 31
0.0
  0
LINE
  5
9B36
  8
TITLE
 10
147.73553258635309
 20
34.290664364088173
 30
0.0
 11
149.4356917658277
 21
35.990823543562733
 31
0.0
  0
LINE
  5
9B37
  8
TITLE
 10
147.64818746413289
 20
34.814313350390762
 30
0.0
 11
149.75684001337831
 21
36.922965899635933
 31
0.0
  0
LINE
  5
9B38
  8
TITLE
 10
147.64818746413289
 20
34.727028477743488
 30
0.0
 11
149.71096169229941
 21
36.78980270591029
 31
0.0
  0
LINE
  5
9B39
  8
TITLE
 10
147.64818746413289
 20
34.639743605096221
 30
0.0
 11
149.6650833712207
 21
36.656639512184711
 31
0.0
  0
LINE
  5
9B3A
  8
TITLE
 10
147.64818746413289
 20
35.338022586266497
 30
0.0
 11
150.0321099398428
 21
37.721945061983433
 31
0.0
  0
LINE
  5
9B3B
  8
TITLE
 10
147.64818746413289
 20
35.25073771361906
 30
0.0
 11
149.98623161876409
 21
37.588781868257684
 31
0.0
  0
LINE
  5
9B3C
  8
TITLE
 10
147.64818746413289
 20
35.163452840975879
 30
0.0
 11
149.94035329768539
 21
37.455618674532161
 31
0.0
  0
LINE
  5
9B3D
  8
TITLE
 10
147.64818746413289
 20
35.076167968328377
 30
0.0
 11
149.8944749766068
 21
37.322455480806127
 31
0.0
  0
LINE
  5
9B3E
  8
TITLE
 10
147.64818746413289
 20
34.988883095681111
 30
0.0
 11
149.84859665553529
 21
37.189292287084243
 31
0.0
  0
LINE
  5
9B3F
  8
TITLE
 10
147.64818746413289
 20
34.901598223037752
 30
0.0
 11
149.80271833445701
 21
37.056129093358102
 31
0.0
  0
LINE
  5
9B40
  8
TITLE
 10
147.82281745900019
 20
34.290664364088173
 30
0.0
 11
149.38981344474891
 21
35.857660349836813
 31
0.0
  0
LINE
  5
9B41
  8
TITLE
 10
147.91010233164741
 20
34.290664364088173
 30
0.0
 11
149.34393512367029
 21
35.724497156111063
 31
0.0
  0
LINE
  5
9B42
  8
TITLE
 10
148.25924182223591
 20
34.290664364088173
 30
0.0
 11
149.36903508445371
 21
35.400457626305752
 31
0.0
  0
LINE
  5
9B43
  8
TITLE
 10
148.3465266948831
 20
34.290664364088173
 30
0.0
 11
149.4563199570938
 21
35.400457626305752
 31
0.0
  0
LINE
  5
9B44
  8
TITLE
 10
148.43381156753031
 20
34.290664364088173
 30
0.0
 11
149.54360482974101
 21
35.400457626305752
 31
0.0
  0
LINE
  5
9B45
  8
TITLE
 10
147.9973872042944
 20
34.290664364088173
 30
0.0
 11
149.2980568025917
 21
35.591333962385313
 31
0.0
  0
LINE
  5
9B46
  8
TITLE
 10
148.08467207694181
 20
34.290664364088173
 30
0.0
 11
149.25217848151311
 21
35.45817076865967
 31
0.0
  0
LINE
  5
9B47
  8
TITLE
 10
148.17195694958889
 20
34.290664364088173
 30
0.0
 11
149.28175021180681
 21
35.400457626305752
 31
0.0
  0
LINE
  5
9B48
  8
TITLE
 10
148.41462498437889
 20
36.715454215042712
 30
0.0
 11
150.35325818739301
 21
38.654087418056918
 31
0.0
  0
LINE
  5
9B49
  8
TITLE
 10
148.36874666330019
 20
36.582291021316962
 30
0.0
 11
150.30737986631479
 21
38.520924224331573
 31
0.0
  0
LINE
  5
9B4A
  8
TITLE
 10
148.08360621260999
 20
35.860726207394521
 30
0.0
 11
150.0779882609213
 21
37.855108255709638
 31
0.0
  0
LINE
  5
9B4B
  8
TITLE
 10
148.27699002114309
 20
36.31596463386888
 30
0.0
 11
150.21562322415741
 21
38.254597836879839
 31
0.0
  0
LINE
  5
9B4C
  8
TITLE
 10
148.23111170006439
 20
36.182801440146761
 30
0.0
 11
150.16974490307871
 21
38.12143464315762
 31
0.0
  0
LINE
  5
9B4D
  8
TITLE
 10
148.3228683422218
 20
36.449127827591269
 30
0.0
 11
150.26150154523589
 21
38.387761030605191
 31
0.0
  0
LINE
  5
9B4E
  8
TITLE
 10
148.1852333789933
 20
36.049638246420841
 30
0.0
 11
150.12386658200009
 21
37.988271449431977
 31
0.0
  0
LINE
  5
9B4F
  8
TITLE
 10
148.46050330545779
 20
36.848617408768639
 30
0.0
 11
150.39913650847191
 21
38.787250611783122
 31
0.0
  0
LINE
  5
9B50
  8
TITLE
 10
143.6620326247924
 20
38.421942431288358
 30
0.0
 11
145.09537844485541
 21
39.855288251358161
 31
0.0
  0
LINE
  5
9B51
  8
TITLE
 10
143.6620326247924
 20
38.334657558645013
 30
0.0
 11
145.18266331750249
 21
39.855288251358161
 31
0.0
  0
LINE
  5
9B52
  8
TITLE
 10
143.6620326247924
 20
38.247372685997732
 30
0.0
 11
145.26994819014951
 21
39.855288251358161
 31
0.0
  0
LINE
  5
9B53
  8
TITLE
 10
143.6620326247924
 20
38.160087813350742
 30
0.0
 11
145.35723306279669
 21
39.855288251358161
 31
0.0
  0
LINE
  5
9B54
  8
TITLE
 10
143.6620326247924
 20
38.072802940706929
 30
0.0
 11
145.4445179354438
 21
39.855288251358161
 31
0.0
  0
LINE
  5
9B55
  8
TITLE
 10
143.6620326247924
 20
37.985518068059662
 30
0.0
 11
145.53180280809119
 21
39.855288251358161
 31
0.0
  0
LINE
  5
9B56
  8
TITLE
 10
143.6620326247924
 20
37.898233195412793
 30
0.0
 11
145.6190876807384
 21
39.855288251358161
 31
0.0
  0
LINE
  5
9B57
  8
TITLE
 10
143.6620326247924
 20
37.810948322765803
 30
0.0
 11
145.70637255338531
 21
39.855288251358161
 31
0.0
  0
LINE
  5
9B58
  8
TITLE
 10
143.6620326247924
 20
37.723663450118238
 30
0.0
 11
145.79365742603241
 21
39.855288251358161
 31
0.0
  0
LINE
  5
9B59
  8
TITLE
 10
143.37226385357289
 20
38.743167768598539
 30
0.0
 11
144.48438433633231
 21
39.855288251358161
 31
0.0
  0
LINE
  5
9B5A
  8
TITLE
 10
143.45954872621979
 20
38.743167768598539
 30
0.0
 11
144.5716692089795
 21
39.855288251358161
 31
0.0
  0
LINE
  5
9B5B
  8
TITLE
 10
143.54683359886701
 20
38.743167768598539
 30
0.0
 11
144.6589540816268
 21
39.855288251358161
 31
0.0
  0
LINE
  5
9B5C
  8
TITLE
 10
143.634118471514
 20
38.743167768598539
 30
0.0
 11
144.74623895427379
 21
39.855288251358161
 31
0.0
  0
LINE
  5
9B5D
  8
TITLE
 10
143.6620326247924
 20
38.683797049229781
 30
0.0
 11
144.83352382692121
 21
39.855288251358161
 31
0.0
  0
LINE
  5
9B5E
  8
TITLE
 10
143.6620326247924
 20
38.596512176582962
 30
0.0
 11
144.92080869956831
 21
39.855288251358161
 31
0.0
  0
LINE
  5
9B5F
  8
TITLE
 10
143.6620326247924
 20
38.509227303935518
 30
0.0
 11
145.0080935722082
 21
39.855288251358161
 31
0.0
  0
LINE
  5
9B60
  8
TITLE
 10
143.98228306256129
 20
34.290664364088173
 30
0.0
 11
145.11080893898
 21
35.419190240506907
 31
0.0
  0
LINE
  5
9B61
  8
TITLE
 10
144.06956793520129
 20
34.290664364088173
 30
0.0
 11
145.19809381161991
 21
35.419190240506907
 31
0.0
  0
LINE
  5
9B62
  8
TITLE
 10
144.1568528078484
 20
34.290664364088173
 30
0.0
 11
145.28537868426719
 21
35.419190240506907
 31
0.0
  0
LINE
  5
9B63
  8
TITLE
 10
144.2441376804955
 20
34.290664364088173
 30
0.0
 11
145.3726635569148
 21
35.419190240506907
 31
0.0
  0
LINE
  5
9B64
  8
TITLE
 10
144.33142255314289
 20
34.290664364088173
 30
0.0
 11
145.4599484295619
 21
35.419190240506907
 31
0.0
  0
LINE
  5
9B65
  8
TITLE
 10
142.58572510021401
 20
34.290664364088173
 30
0.0
 11
144.90630228770871
 21
36.611241551586318
 31
0.0
  0
LINE
  5
9B66
  8
TITLE
 10
142.67300997286119
 20
34.290664364088173
 30
0.0
 11
144.90630228770871
 21
36.523956678939157
 31
0.0
  0
LINE
  5
9B67
  8
TITLE
 10
142.76029484550821
 20
34.290664364088173
 30
0.0
 11
144.90630228770871
 21
36.436671806292338
 31
0.0
  0
LINE
  5
9B68
  8
TITLE
 10
142.84757971815549
 20
34.290664364088173
 30
0.0
 11
144.90630228770871
 21
36.349386933648823
 31
0.0
  0
LINE
  5
9B69
  8
TITLE
 10
142.93486459080239
 20
34.290664364088173
 30
0.0
 11
144.90630228770871
 21
36.262102061001201
 31
0.0
  0
LINE
  5
9B6A
  8
TITLE
 10
143.02214946344981
 20
34.290664364088173
 30
0.0
 11
144.90630228770871
 21
36.174817188353821
 31
0.0
  0
LINE
  5
9B6B
  8
TITLE
 10
143.10943433609009
 20
34.290664364088173
 30
0.0
 11
144.90630228770871
 21
36.087532315707108
 31
0.0
  0
LINE
  5
9B6C
  8
TITLE
 10
143.19671920873711
 20
34.290664364088173
 30
0.0
 11
144.90630228770871
 21
36.000247443059777
 31
0.0
  0
LINE
  5
9B6D
  8
TITLE
 10
143.2840040813843
 20
34.290664364088173
 30
0.0
 11
144.90630228770871
 21
35.912962570412787
 31
0.0
  0
LINE
  5
9B6E
  8
TITLE
 10
143.37128895403129
 20
34.290664364088173
 30
0.0
 11
144.90630228770871
 21
35.825677697765506
 31
0.0
  0
LINE
  5
9B6F
  8
TITLE
 10
143.6620326247924
 20
35.977965997189933
 30
0.0
 11
144.90630228770871
 21
37.222235660112801
 31
0.0
  0
LINE
  5
9B70
  8
TITLE
 10
143.6620326247924
 20
35.890681124542482
 30
0.0
 11
144.90630228770871
 21
37.134950787465641
 31
0.0
  0
LINE
  5
9B71
  8
TITLE
 10
143.6620326247924
 20
35.803396251895208
 30
0.0
 11
144.90630228770871
 21
37.047665914818538
 31
0.0
  0
LINE
  5
9B72
  8
TITLE
 10
143.6620326247924
 20
35.716111379247756
 30
0.0
 11
144.90630228770871
 21
36.960381042171377
 31
0.0
  0
LINE
  5
9B73
  8
TITLE
 10
143.6620326247924
 20
35.628826506604298
 30
0.0
 11
144.90630228770871
 21
36.873096169524558
 31
0.0
  0
LINE
  5
9B74
  8
TITLE
 10
143.6620326247924
 20
35.541541633957713
 30
0.0
 11
144.90630228770871
 21
36.785811296877121
 31
0.0
  0
LINE
  5
9B75
  8
TITLE
 10
143.6620326247924
 20
35.454256761310262
 30
0.0
 11
144.90630228770871
 21
36.698526424229783
 31
0.0
  0
LINE
  5
9B76
  8
TITLE
 10
143.45857382667859
 20
34.290664364088173
 30
0.0
 11
144.90630228770871
 21
35.73839282511824
 31
0.0
  0
LINE
  5
9B77
  8
TITLE
 10
143.54585869932549
 20
34.290664364088173
 30
0.0
 11
144.90630228770871
 21
35.651107952474767
 31
0.0
  0
LINE
  5
9B78
  8
TITLE
 10
143.63314357197291
 20
34.290664364088173
 30
0.0
 11
144.90630228770871
 21
35.563823079827621
 31
0.0
  0
LINE
  5
9B79
  8
TITLE
 10
143.72042844461981
 20
34.290664364088173
 30
0.0
 11
144.90630228770871
 21
35.476538207184262
 31
0.0
  0
LINE
  5
9B7A
  8
TITLE
 10
143.80771331726689
 20
34.290664364088173
 30
0.0
 11
144.93623919368599
 21
35.419190240506907
 31
0.0
  0
LINE
  5
9B7B
  8
TITLE
 10
143.89499818991399
 20
34.290664364088173
 30
0.0
 11
145.0235240663331
 21
35.419190240506907
 31
0.0
  0
LINE
  5
9B7C
  8
TITLE
 10
143.6620326247924
 20
36.152535742483799
 30
0.0
 11
144.90630228770871
 21
37.396805405404052
 31
0.0
  0
LINE
  5
9B7D
  8
TITLE
 10
143.6620326247924
 20
36.065250869836753
 30
0.0
 11
144.90630228770871
 21
37.309520532756778
 31
0.0
  0
LINE
  5
9B7E
  8
TITLE
 10
143.6620326247924
 20
36.414390360421862
 30
0.0
 11
144.90630228770871
 21
37.658660023341497
 31
0.0
  0
LINE
  5
9B7F
  8
TITLE
 10
143.6620326247924
 20
36.327105487774702
 30
0.0
 11
144.90630228770871
 21
37.571375150694401
 31
0.0
  0
LINE
  5
9B80
  8
TITLE
 10
143.6620326247924
 20
36.239820615130782
 30
0.0
 11
144.90630228770871
 21
37.484090278050871
 31
0.0
  0
LINE
  5
9B81
  8
TITLE
 10
143.6620326247924
 20
37.636378577471191
 30
0.0
 11
145.88094229867249
 21
39.855288251358161
 31
0.0
  0
LINE
  5
9B82
  8
TITLE
 10
143.6620326247924
 20
37.549093704824088
 30
0.0
 11
145.96822717131971
 21
39.855288251358161
 31
0.0
  0
LINE
  5
9B83
  8
TITLE
 10
143.6620326247924
 20
37.461808832177098
 30
0.0
 11
144.90630228770871
 21
38.706078495100137
 31
0.0
  0
LINE
  5
9B84
  8
TITLE
 10
143.6620326247924
 20
37.374523959533583
 30
0.0
 11
144.90630228770871
 21
38.618793622452813
 31
0.0
  0
LINE
  5
9B85
  8
TITLE
 10
143.6620326247924
 20
37.287239086886018
 30
0.0
 11
144.90630228770871
 21
38.53150874980588
 31
0.0
  0
LINE
  5
9B86
  8
TITLE
 10
143.6620326247924
 20
37.199954214242503
 30
0.0
 11
144.90630228770871
 21
38.444223877158841
 31
0.0
  0
LINE
  5
9B87
  8
TITLE
 10
143.6620326247924
 20
37.112669341595222
 30
0.0
 11
144.90630228770871
 21
38.356939004515198
 31
0.0
  0
LINE
  5
9B88
  8
TITLE
 10
143.6620326247924
 20
37.025384468948232
 30
0.0
 11
144.90630228770871
 21
38.269654131867931
 31
0.0
  0
LINE
  5
9B89
  8
TITLE
 10
143.6620326247924
 20
36.938099596301363
 30
0.0
 11
144.90630228770871
 21
38.182369259224693
 31
0.0
  0
LINE
  5
9B8A
  8
TITLE
 10
143.6620326247924
 20
36.850814723653798
 30
0.0
 11
144.90630228770871
 21
38.095084386577241
 31
0.0
  0
LINE
  5
9B8B
  8
TITLE
 10
143.6620326247924
 20
36.763529851006979
 30
0.0
 11
144.90630228770871
 21
38.007799513930252
 31
0.0
  0
LINE
  5
9B8C
  8
TITLE
 10
143.6620326247924
 20
36.676244978359541
 30
0.0
 11
144.90630228770871
 21
37.920514641283091
 31
0.0
  0
LINE
  5
9B8D
  8
TITLE
 10
143.6620326247924
 20
36.588960105712381
 30
0.0
 11
144.90630228770871
 21
37.833229768635817
 31
0.0
  0
LINE
  5
9B8E
  8
TITLE
 10
143.6620326247924
 20
36.501675233069022
 30
0.0
 11
144.90630228770871
 21
37.745944895988828
 31
0.0
  0
LINE
  5
9B8F
  8
TITLE
 10
142.7612697450499
 20
38.743167768598539
 30
0.0
 11
143.8733902278093
 21
39.855288251358161
 31
0.0
  0
LINE
  5
9B90
  8
TITLE
 10
142.8485546176899
 20
38.743167768598539
 30
0.0
 11
143.96067510045671
 21
39.855288251358161
 31
0.0
  0
LINE
  5
9B91
  8
TITLE
 10
142.9358394903372
 20
38.743167768598539
 30
0.0
 11
144.0479599730964
 21
39.855288251358161
 31
0.0
  0
LINE
  5
9B92
  8
TITLE
 10
143.02312436298439
 20
38.743167768598539
 30
0.0
 11
144.13524484574381
 21
39.855288251358161
 31
0.0
  0
LINE
  5
9B93
  8
TITLE
 10
143.11040923563129
 20
38.743167768598539
 30
0.0
 11
144.22252971839089
 21
39.855288251358161
 31
0.0
  0
LINE
  5
9B94
  8
TITLE
 10
143.19769410827851
 20
38.743167768598539
 30
0.0
 11
144.30981459103799
 21
39.855288251358161
 31
0.0
  0
LINE
  5
9B95
  8
TITLE
 10
143.2849789809257
 20
38.743167768598539
 30
0.0
 11
144.39709946368529
 21
39.855288251358161
 31
0.0
  0
LINE
  5
9B96
  8
TITLE
 10
142.32484538181421
 20
38.743167768598539
 30
0.0
 11
143.43696586457389
 21
39.855288251358161
 31
0.0
  0
LINE
  5
9B97
  8
TITLE
 10
142.41213025446149
 20
38.743167768598539
 30
0.0
 11
143.5242507372208
 21
39.855288251358161
 31
0.0
  0
LINE
  5
9B98
  8
TITLE
 10
142.49941512710831
 20
38.743167768598539
 30
0.0
 11
143.6115356098681
 21
39.855288251358161
 31
0.0
  0
LINE
  5
9B99
  8
TITLE
 10
142.5866999997555
 20
38.743167768598539
 30
0.0
 11
143.6988204825152
 21
39.855288251358161
 31
0.0
  0
LINE
  5
9B9A
  8
TITLE
 10
142.6739848724024
 20
38.743167768598539
 30
0.0
 11
143.7861053551625
 21
39.855288251358161
 31
0.0
  0
LINE
  5
9B9B
  8
TITLE
 10
142.23756050916691
 20
38.743167768598539
 30
0.0
 11
143.34968099192679
 21
39.855288251358161
 31
0.0
  0
LINE
  5
9B9C
  8
TITLE
 10
142.15027563651961
 20
38.743167768598539
 30
0.0
 11
143.26239611927949
 21
39.855288251358161
 31
0.0
  0
LINE
  5
9B9D
  8
TITLE
 10
140.3678826130587
 20
38.444617580124941
 30
0.0
 11
141.3601337483824
 21
39.436868715452484
 31
0.0
  0
LINE
  5
9B9E
  8
TITLE
 10
140.49723749477749
 20
38.486687589196841
 30
0.0
 11
141.3601337483824
 21
39.349583842805202
 31
0.0
  0
LINE
  5
9B9F
  8
TITLE
 10
140.6221846566628
 20
38.52434987844191
 30
0.0
 11
141.3601337483824
 21
39.262298970161403
 31
0.0
  0
LINE
  5
9BA0
  8
TITLE
 10
140.7432186677193
 20
38.558099016847173
 30
0.0
 11
141.3601337483824
 21
39.17501409751452
 31
0.0
  0
LINE
  5
9BA1
  8
TITLE
 10
140.86074372522819
 20
38.588339201709459
 30
0.0
 11
141.3601337483824
 21
39.087729224867253
 31
0.0
  0
LINE
  5
9BA2
  8
TITLE
 10
141.30172761601591
 20
38.680183601908709
 30
0.0
 11
141.3601337483824
 21
38.738589734278378
 31
0.0
  0
LINE
  5
9BA3
  8
TITLE
 10
141.19536416856181
 20
38.661105027101478
 30
0.0
 11
141.3601337483824
 21
38.825874606925709
 31
0.0
  0
LINE
  5
9BA4
  8
TITLE
 10
140.9750952848903
 20
38.615405888720318
 30
0.0
 11
141.3601337483824
 21
39.000444352220264
 31
0.0
  0
LINE
  5
9BA5
  8
TITLE
 10
141.08655544654499
 20
38.639581177735408
 30
0.0
 11
141.3601337483824
 21
38.913159479572869
 31
0.0
  0
LINE
  5
9BA6
  8
TITLE
 10
141.8134034113063
 20
39.628283760434897
 30
0.0
 11
142.04040790223351
 21
39.855288251358161
 31
0.0
  0
LINE
  5
9BA7
  8
TITLE
 10
141.8134034113063
 20
39.540998887787453
 30
0.0
 11
142.12769277488081
 21
39.855288251358161
 31
0.0
  0
LINE
  5
9BA8
  8
TITLE
 10
141.8134034113063
 20
39.8028535057257
 30
0.0
 11
141.86583815693919
 21
39.855288251358161
 31
0.0
  0
LINE
  5
9BA9
  8
TITLE
 10
141.8134034113063
 20
39.715568633078249
 30
0.0
 11
141.95312302958621
 21
39.855288251358161
 31
0.0
  0
LINE
  5
9BAA
  8
TITLE
 10
141.8134034113063
 20
39.017289651908129
 30
0.0
 11
142.6514020107565
 21
39.855288251358161
 31
0.0
  0
LINE
  5
9BAB
  8
TITLE
 10
141.8134034113063
 20
38.93000477926126
 30
0.0
 11
142.73868688340389
 21
39.855288251358161
 31
0.0
  0
LINE
  5
9BAC
  8
TITLE
 10
141.8134034113063
 20
38.842719906613809
 30
0.0
 11
142.82597175605071
 21
39.855288251358161
 31
0.0
  0
LINE
  5
9BAD
  8
TITLE
 10
141.8134034113063
 20
38.755435033966698
 30
0.0
 11
142.91325662869809
 21
39.855288251358161
 31
0.0
  0
LINE
  5
9BAE
  8
TITLE
 10
141.8884210185783
 20
38.743167768598539
 30
0.0
 11
143.00054150134491
 21
39.855288251358161
 31
0.0
  0
LINE
  5
9BAF
  8
TITLE
 10
141.9757058912254
 20
38.743167768598539
 30
0.0
 11
143.08782637399219
 21
39.855288251358161
 31
0.0
  0
LINE
  5
9BB0
  8
TITLE
 10
142.06299076387279
 20
38.743167768598539
 30
0.0
 11
143.17511124663221
 21
39.855288251358161
 31
0.0
  0
LINE
  5
9BB1
  8
TITLE
 10
141.8134034113063
 20
39.104574524555233
 30
0.0
 11
142.56411713810911
 21
39.855288251358161
 31
0.0
  0
LINE
  5
9BB2
  8
TITLE
 10
141.8134034113063
 20
39.453714015140797
 30
0.0
 11
142.21497764752081
 21
39.855288251358161
 31
0.0
  0
LINE
  5
9BB3
  8
TITLE
 10
141.8134034113063
 20
39.366429142496827
 30
0.0
 11
142.30226252016769
 21
39.855288251358161
 31
0.0
  0
LINE
  5
9BB4
  8
TITLE
 10
141.8134034113063
 20
39.279144269849951
 30
0.0
 11
142.3895473928151
 21
39.855288251358161
 31
0.0
  0
LINE
  5
9BB5
  8
TITLE
 10
141.8134034113063
 20
39.191859397202677
 30
0.0
 11
142.47683226546229
 21
39.855288251358161
 31
0.0
  0
LINE
  5
9BB6
  8
TITLE
 10
142.32387048227241
 20
34.290664364088173
 30
0.0
 11
143.45239635869149
 21
35.419190240506907
 31
0.0
  0
LINE
  5
9BB7
  8
TITLE
 10
142.4111553549196
 20
34.290664364088173
 30
0.0
 11
143.53968123133831
 21
35.419190240506907
 31
0.0
  0
LINE
  5
9BB8
  8
TITLE
 10
142.49844022756719
 20
34.290664364088173
 30
0.0
 11
143.62696610398581
 21
35.419190240506907
 31
0.0
  0
LINE
  5
9BB9
  8
TITLE
 10
142.23658560962551
 20
34.290664364088173
 30
0.0
 11
143.36511148605109
 21
35.419190240506907
 31
0.0
  0
LINE
  5
9BBA
  8
TITLE
 10
142.14930073698551
 20
34.290664364088173
 30
0.0
 11
143.27782661340419
 21
35.419190240506907
 31
0.0
  0
LINE
  5
9BBB
  8
TITLE
 10
141.3601337483824
 20
34.810770465188739
 30
0.0
 11
141.96855352370409
 21
35.419190240506907
 31
0.0
  0
LINE
  5
9BBC
  8
TITLE
 10
141.3601337483824
 20
34.72348559254533
 30
0.0
 11
142.05583839635119
 21
35.419190240506907
 31
0.0
  0
LINE
  5
9BBD
  8
TITLE
 10
141.3601337483824
 20
34.898055337836013
 30
0.0
 11
141.8812686510569
 21
35.419190240506907
 31
0.0
  0
LINE
  5
9BBE
  8
TITLE
 10
141.3601337483824
 20
35.159909955773969
 30
0.0
 11
141.61941403311531
 21
35.419190240506907
 31
0.0
  0
LINE
  5
9BBF
  8
TITLE
 10
141.3601337483824
 20
35.072625083126923
 30
0.0
 11
141.70669890576261
 21
35.419190240506907
 31
0.0
  0
LINE
  5
9BC0
  8
TITLE
 10
141.3601337483824
 20
34.985340210479819
 30
0.0
 11
141.79398377841
 21
35.419190240506907
 31
0.0
  0
LINE
  5
9BC1
  8
TITLE
 10
141.3601337483824
 20
35.334479701068233
 30
0.0
 11
141.4448442878284
 21
35.419190240506907
 31
0.0
  0
LINE
  5
9BC2
  8
TITLE
 10
141.3601337483824
 20
35.24719482842125
 30
0.0
 11
141.53212916046829
 21
35.419190240506907
 31
0.0
  0
LINE
  5
9BC3
  8
TITLE
 10
141.3601337483824
 20
34.636200719898227
 30
0.0
 11
142.14312326899869
 21
35.419190240506907
 31
0.0
  0
LINE
  5
9BC4
  8
TITLE
 10
141.3601337483824
 20
34.548915847251067
 30
0.0
 11
142.23040814164571
 21
35.419190240506907
 31
0.0
  0
LINE
  5
9BC5
  8
TITLE
 10
141.3601337483824
 20
34.4616309746038
 30
0.0
 11
142.3176930142927
 21
35.419190240506907
 31
0.0
  0
LINE
  5
9BC6
  8
TITLE
 10
141.3601337483824
 20
34.374346101957087
 30
0.0
 11
142.40497788693281
 21
35.419190240506907
 31
0.0
  0
LINE
  5
9BC7
  8
TITLE
 10
141.36373688316121
 20
34.290664364088173
 30
0.0
 11
142.49226275958
 21
35.419190240506907
 31
0.0
  0
LINE
  5
9BC8
  8
TITLE
 10
141.451021755808
 20
34.290664364088173
 30
0.0
 11
142.57954763222691
 21
35.419190240506907
 31
0.0
  0
LINE
  5
9BC9
  8
TITLE
 10
141.53830662845519
 20
34.290664364088173
 30
0.0
 11
142.66683250487409
 21
35.419190240506907
 31
0.0
  0
LINE
  5
9BCA
  8
TITLE
 10
141.62559150110241
 20
34.290664364088173
 30
0.0
 11
142.7541173775212
 21
35.419190240506907
 31
0.0
  0
LINE
  5
9BCB
  8
TITLE
 10
141.71287637374971
 20
34.290664364088173
 30
0.0
 11
142.8414022501683
 21
35.419190240506907
 31
0.0
  0
LINE
  5
9BCC
  8
TITLE
 10
141.80016124639681
 20
34.290664364088173
 30
0.0
 11
142.9286871228154
 21
35.419190240506907
 31
0.0
  0
LINE
  5
9BCD
  8
TITLE
 10
141.88744611904431
 20
34.290664364088173
 30
0.0
 11
143.01597199546271
 21
35.419190240506907
 31
0.0
  0
LINE
  5
9BCE
  8
TITLE
 10
141.97473099169099
 20
34.290664364088173
 30
0.0
 11
143.10325686811001
 21
35.419190240506907
 31
0.0
  0
LINE
  5
9BCF
  8
TITLE
 10
142.06201586433849
 20
34.290664364088173
 30
0.0
 11
143.19054174075731
 21
35.419190240506907
 31
0.0
  0
LINE
  5
9BD0
  8
TITLE
 10
146.25266465090721
 20
38.743167768598539
 30
0.0
 11
146.75493150119479
 21
39.245434618886293
 31
0.0
  0
LINE
  5
9BD1
  8
TITLE
 10
146.3399495235544
 20
38.743167768598539
 30
0.0
 11
146.75493150119479
 21
39.158149746239253
 31
0.0
  0
LINE
  5
9BD2
  8
TITLE
 10
146.42723439619431
 20
38.743167768598539
 30
0.0
 11
146.75493150119479
 21
39.070864873592143
 31
0.0
  0
LINE
  5
9BD3
  8
TITLE
 10
146.68908901413619
 20
38.743167768598539
 30
0.0
 11
146.75493150119479
 21
38.809010255654023
 31
0.0
  0
LINE
  5
9BD4
  8
TITLE
 10
146.51451926884189
 20
38.743167768598539
 30
0.0
 11
146.75493150119479
 21
38.983580000948159
 31
0.0
  0
LINE
  5
9BD5
  8
TITLE
 10
146.60180414148871
 20
38.743167768598539
 30
0.0
 11
146.75493150119479
 21
38.896295128301063
 31
0.0
  0
LINE
  5
9BD6
  8
TITLE
 10
147.64818746413289
 20
35.42530745891321
 30
0.0
 11
147.66171308220029
 21
35.438833076981723
 31
0.0
  0
LINE
  5
9BD7
  8
TITLE
 10
146.2516897513658
 20
34.290664364088173
 30
0.0
 11
147.2082011641188
 21
35.247175776841353
 31
0.0
  0
LINE
  5
9BD8
  8
TITLE
 10
146.3389746240131
 20
34.290664364088173
 30
0.0
 11
147.2082011641188
 21
35.159890904194071
 31
0.0
  0
LINE
  5
9BD9
  8
TITLE
 10
146.42625949666001
 20
34.290664364088173
 30
0.0
 11
147.2082011641188
 21
35.072606031546798
 31
0.0
  0
LINE
  5
9BDA
  8
TITLE
 10
146.51354436930711
 20
34.290664364088173
 30
0.0
 11
147.2082011641188
 21
34.985321158899978
 31
0.0
  0
LINE
  5
9BDB
  8
TITLE
 10
146.60082924195439
 20
34.290664364088173
 30
0.0
 11
147.2082011641188
 21
34.898036286252527
 31
0.0
  0
LINE
  5
9BDC
  8
TITLE
 10
146.68811411460189
 20
34.290664364088173
 30
0.0
 11
147.2082011641188
 21
34.810751413605203
 31
0.0
  0
LINE
  5
9BDD
  8
TITLE
 10
146.7753989872418
 20
34.290664364088173
 30
0.0
 11
147.2082011641188
 21
34.72346654095805
 31
0.0
  0
LINE
  5
9BDE
  8
TITLE
 10
146.86268385988859
 20
34.290664364088173
 30
0.0
 11
147.2082011641188
 21
34.63618166831094
 31
0.0
  0
LINE
  5
9BDF
  8
TITLE
 10
146.94996873253589
 20
34.290664364088173
 30
0.0
 11
147.2082011641188
 21
34.548896795667702
 31
0.0
  0
LINE
  5
9BE0
  8
TITLE
 10
147.03725360518311
 20
34.290664364088173
 30
0.0
 11
147.2082011641188
 21
34.461611923020257
 31
0.0
  0
LINE
  5
9BE1
  8
TITLE
 10
147.12453847782999
 20
34.290664364088173
 30
0.0
 11
147.2082011641188
 21
34.374327050373147
 31
0.0
  0
LINE
  5
9BE2
  8
TITLE
 10
144.94339156120719
 20
38.743167768598539
 30
0.0
 11
146.0555120439669
 21
39.855288251358161
 31
0.0
  0
LINE
  5
9BE3
  8
TITLE
 10
145.03067643385421
 20
38.743167768598539
 30
0.0
 11
146.14279691661409
 21
39.855288251358161
 31
0.0
  0
LINE
  5
9BE4
  8
TITLE
 10
145.1179613065014
 20
38.743167768598539
 30
0.0
 11
146.23008178926119
 21
39.855288251358161
 31
0.0
  0
LINE
  5
9BE5
  8
TITLE
 10
144.41870742578999
 20
34.290664364088173
 30
0.0
 11
145.5472333022087
 21
35.419190240506907
 31
0.0
  0
LINE
  5
9BE6
  8
TITLE
 10
144.50599229843709
 20
34.290664364088173
 30
0.0
 11
145.63451817485591
 21
35.419190240506907
 31
0.0
  0
LINE
  5
9BE7
  8
TITLE
 10
144.5932771710842
 20
34.290664364088173
 30
0.0
 11
145.72180304750299
 21
35.419190240506907
 31
0.0
  0
LINE
  5
9BE8
  8
TITLE
 10
144.6805620437317
 20
34.290664364088173
 30
0.0
 11
145.80908792015029
 21
35.419190240506907
 31
0.0
  0
LINE
  5
9BE9
  8
TITLE
 10
144.7678469163786
 20
34.290664364088173
 30
0.0
 11
145.89637279279731
 21
35.419190240506907
 31
0.0
  0
LINE
  5
9BEA
  8
TITLE
 10
144.85513178902579
 20
34.290664364088173
 30
0.0
 11
145.9836576654445
 21
35.419190240506907
 31
0.0
  0
LINE
  5
9BEB
  8
TITLE
 10
144.94241666166539
 20
34.290664364088173
 30
0.0
 11
146.07094253808449
 21
35.419190240506907
 31
0.0
  0
LINE
  5
9BEC
  8
TITLE
 10
145.02970153431269
 20
34.290664364088173
 30
0.0
 11
146.15822741073171
 21
35.419190240506907
 31
0.0
  0
LINE
  5
9BED
  8
TITLE
 10
145.55438566973021
 20
38.743167768598539
 30
0.0
 11
146.66650615249679
 21
39.855288251358161
 31
0.0
  0
LINE
  5
9BEE
  8
TITLE
 10
145.641670542377
 20
38.743167768598539
 30
0.0
 11
146.7537910251443
 21
39.855288251358161
 31
0.0
  0
LINE
  5
9BEF
  8
TITLE
 10
145.72895541502419
 20
38.743167768598539
 30
0.0
 11
146.75493150119479
 21
39.769143854765787
 31
0.0
  0
LINE
  5
9BF0
  8
TITLE
 10
145.81624028767129
 20
38.743167768598539
 30
0.0
 11
146.75493150119479
 21
39.68185898212181
 31
0.0
  0
LINE
  5
9BF1
  8
TITLE
 10
145.90352516031879
 20
38.743167768598539
 30
0.0
 11
146.75493150119479
 21
39.59457410947465
 31
0.0
  0
LINE
  5
9BF2
  8
TITLE
 10
145.9908100329655
 20
38.743167768598539
 30
0.0
 11
146.75493150119479
 21
39.507289236827553
 31
0.0
  0
LINE
  5
9BF3
  8
TITLE
 10
146.07809490561311
 20
38.743167768598539
 30
0.0
 11
146.75493150119479
 21
39.420004364180222
 31
0.0
  0
LINE
  5
9BF4
  8
TITLE
 10
146.1653797782603
 20
38.743167768598539
 30
0.0
 11
146.75493150119479
 21
39.332719491533339
 31
0.0
  0
LINE
  5
9BF5
  8
TITLE
 10
145.4671007970901
 20
38.743167768598539
 30
0.0
 11
146.57922127984989
 21
39.855288251358161
 31
0.0
  0
LINE
  5
9BF6
  8
TITLE
 10
145.2052461791487
 20
38.743167768598539
 30
0.0
 11
146.3173666619083
 21
39.855288251358161
 31
0.0
  0
LINE
  5
9BF7
  8
TITLE
 10
145.29253105179609
 20
38.743167768598539
 30
0.0
 11
146.4046515345554
 21
39.855288251358161
 31
0.0
  0
LINE
  5
9BF8
  8
TITLE
 10
145.37981592444331
 20
38.743167768598539
 30
0.0
 11
146.49193640720239
 21
39.855288251358161
 31
0.0
  0
LINE
  5
9BF9
  8
TITLE
 10
145.5534107701956
 20
34.290664364088173
 30
0.0
 11
146.6819366466145
 21
35.419190240506907
 31
0.0
  0
LINE
  5
9BFA
  8
TITLE
 10
145.6406956428429
 20
34.290664364088173
 30
0.0
 11
146.76922151926169
 21
35.419190240506907
 31
0.0
  0
LINE
  5
9BFB
  8
TITLE
 10
145.72798051549009
 20
34.290664364088173
 30
0.0
 11
146.85650639190911
 21
35.419190240506907
 31
0.0
  0
LINE
  5
9BFC
  8
TITLE
 10
145.81526538813719
 20
34.290664364088173
 30
0.0
 11
146.94379126455601
 21
35.419190240506907
 31
0.0
  0
LINE
  5
9BFD
  8
TITLE
 10
145.90255026077699
 20
34.290664364088173
 30
0.0
 11
147.0310761371959
 21
35.419190240506907
 31
0.0
  0
LINE
  5
9BFE
  8
TITLE
 10
145.98983513342421
 20
34.290664364088173
 30
0.0
 11
147.118361009843
 21
35.419190240506907
 31
0.0
  0
LINE
  5
9BFF
  8
TITLE
 10
146.07712000607151
 20
34.290664364088173
 30
0.0
 11
147.20564588249019
 21
35.419190240506907
 31
0.0
  0
LINE
  5
9C00
  8
TITLE
 10
146.1644048787185
 20
34.290664364088173
 30
0.0
 11
147.2082011641188
 21
35.334460649484868
 31
0.0
  0
LINE
  5
9C01
  8
TITLE
 10
145.11698640696
 20
34.290664364088173
 30
0.0
 11
146.2455122833789
 21
35.419190240506907
 31
0.0
  0
LINE
  5
9C02
  8
TITLE
 10
145.2042712796071
 20
34.290664364088173
 30
0.0
 11
146.33279715602589
 21
35.419190240506907
 31
0.0
  0
LINE
  5
9C03
  8
TITLE
 10
145.29155615225449
 20
34.290664364088173
 30
0.0
 11
146.42008202867299
 21
35.419190240506907
 31
0.0
  0
LINE
  5
9C04
  8
TITLE
 10
145.37884102490131
 20
34.290664364088173
 30
0.0
 11
146.5073669013203
 21
35.419190240506907
 31
0.0
  0
LINE
  5
9C05
  8
TITLE
 10
145.46612589754881
 20
34.290664364088173
 30
0.0
 11
146.59465177396751
 21
35.419190240506907
 31
0.0
  0
LINE
  5
9C07
  8
TITLE
 10
150.9650728742763
 20
34.290664364088173
 30
0.0
 11
153.04983958939749
 21
36.375431079212781
 31
0.0
  0
LINE
  5
9C08
  8
TITLE
 10
151.05235774692309
 20
34.290664364088173
 30
0.0
 11
153.06602033288371
 21
36.3043269500522
 31
0.0
  0
LINE
  5
9C09
  8
TITLE
 10
151.1396426195704
 20
34.290664364088173
 30
0.0
 11
153.08220107637021
 21
36.23322282089174
 31
0.0
  0
LINE
  5
9C0A
  8
TITLE
 10
151.22692749221761
 20
34.290664364088173
 30
0.0
 11
153.0983818198566
 21
36.162118691730768
 31
0.0
  0
LINE
  5
9C0B
  8
TITLE
 10
151.31421236486489
 20
34.290664364088173
 30
0.0
 11
153.1145625633431
 21
36.091014562569633
 31
0.0
  0
LINE
  5
9C0C
  8
TITLE
 10
151.40149723750511
 20
34.290664364088173
 30
0.0
 11
153.13074330682929
 21
36.01991043340945
 31
0.0
  0
LINE
  5
9C0D
  8
TITLE
 10
151.9984492768246
 20
35.585895384574769
 30
0.0
 11
153.00129735894541
 21
36.588743466695178
 31
0.0
  0
LINE
  5
9C0E
  8
TITLE
 10
152.0146300203038
 20
35.514791255413741
 30
0.0
 11
153.017478102425
 21
36.517639337534263
 31
0.0
  0
LINE
  5
9C0F
  8
TITLE
 10
152.03081076379041
 20
35.443687126252833
 30
0.0
 11
153.03365884591111
 21
36.44653520837403
 31
0.0
  0
LINE
  5
9C10
  8
TITLE
 10
151.91754555939309
 20
35.941416030378207
 30
0.0
 11
152.92039364151361
 21
36.944264112498963
 31
0.0
  0
LINE
  5
9C11
  8
TITLE
 10
151.93372630287919
 20
35.870311901217519
 30
0.0
 11
152.93657438500011
 21
36.873159983338148
 31
0.0
  0
LINE
  5
9C12
  8
TITLE
 10
151.94990704636569
 20
35.799207772057002
 30
0.0
 11
152.9527551284867
 21
36.802055854177468
 31
0.0
  0
LINE
  5
9C13
  8
TITLE
 10
151.96608778985191
 20
35.728103642896201
 30
0.0
 11
152.968935871973
 21
36.730951725016951
 31
0.0
  0
LINE
  5
9C14
  8
TITLE
 10
151.98226853333841
 20
35.656999513735229
 30
0.0
 11
152.98511661545919
 21
36.659847595856149
 31
0.0
  0
LINE
  5
9C15
  8
TITLE
 10
151.48878211015199
 20
34.290664364088173
 30
0.0
 11
153.14692405031579
 21
35.948806304244727
 31
0.0
  0
LINE
  5
9C16
  8
TITLE
 10
151.5760669827992
 20
34.290664364088173
 30
0.0
 11
153.16310479379499
 21
35.877702175083868
 31
0.0
  0
LINE
  5
9C17
  8
TITLE
 10
151.66335185544619
 20
34.290664364088173
 30
0.0
 11
153.1792855372814
 21
35.806598045923238
 31
0.0
  0
LINE
  5
9C18
  8
TITLE
 10
151.7506367280933
 20
34.290664364088173
 30
0.0
 11
153.1954662807679
 21
35.735493916762273
 31
0.0
  0
LINE
  5
9C19
  8
TITLE
 10
151.83792160074071
 20
34.290664364088173
 30
0.0
 11
153.21164702425421
 21
35.664389787601863
 31
0.0
  0
LINE
  5
9C1A
  8
TITLE
 10
151.92520647338779
 20
34.290664364088173
 30
0.0
 11
153.22782776774071
 21
35.593285658440891
 31
0.0
  0
LINE
  5
9C1B
  8
TITLE
 10
152.01249134603489
 20
34.290664364088173
 30
0.0
 11
153.24400851122721
 21
35.52218152928026
 31
0.0
  0
LINE
  5
9C1C
  8
TITLE
 10
152.09977621868219
 20
34.290664364088173
 30
0.0
 11
153.26018925471311
 21
35.451077400119402
 31
0.0
  0
LINE
  5
9C1D
  8
TITLE
 10
152.18706109132921
 20
34.290664364088173
 30
0.0
 11
153.2763699981999
 21
35.379973270958942
 31
0.0
  0
LINE
  5
9C1E
  8
TITLE
 10
152.27434596396921
 20
34.290664364088173
 30
0.0
 11
153.29255074167889
 21
35.3088691417978
 31
0.0
  0
LINE
  5
9C1F
  8
TITLE
 10
152.3616308366162
 20
34.290664364088173
 30
0.0
 11
153.30873148516531
 21
35.237765012637283
 31
0.0
  0
LINE
  5
9C20
  8
TITLE
 10
152.4489157092635
 20
34.290664364088173
 30
0.0
 11
153.32491222865201
 21
35.166660883476482
 31
0.0
  0
LINE
  5
9C21
  8
TITLE
 10
152.53620058191069
 20
34.290664364088173
 30
0.0
 11
153.34109297213851
 21
35.09555675431551
 31
0.0
  0
LINE
  5
9C22
  8
TITLE
 10
151.72337663756349
 20
36.794665580311289
 30
0.0
 11
152.64541922737789
 21
37.716708170125628
 31
0.0
  0
LINE
  5
9C23
  8
TITLE
 10
151.73955738104959
 20
36.723561451150431
 30
0.0
 11
152.73270410002499
 21
37.716708170125628
 31
0.0
  0
LINE
  5
9C24
  8
TITLE
 10
151.7557381245359
 20
36.652457321989523
 30
0.0
 11
152.7585862066571
 21
37.655305404110443
 31
0.0
  0
LINE
  5
9C25
  8
TITLE
 10
151.77191886802299
 20
36.581353192829063
 30
0.0
 11
152.7747669501432
 21
37.584201274949471
 31
0.0
  0
LINE
  5
9C26
  8
TITLE
 10
151.78809961150881
 20
36.510249063667906
 30
0.0
 11
152.7909476936297
 21
37.513097145788841
 31
0.0
  0
LINE
  5
9C27
  8
TITLE
 10
151.80428035499531
 20
36.439144934507063
 30
0.0
 11
152.80712843711601
 21
37.441993016627862
 31
0.0
  0
LINE
  5
9C28
  8
TITLE
 10
151.8204610984817
 20
36.36804080534688
 30
0.0
 11
152.82330918060239
 21
37.370888887467288
 31
0.0
  0
LINE
  5
9C29
  8
TITLE
 10
151.836641841968
 20
36.296936676185908
 30
0.0
 11
152.83948992408881
 21
37.299784758306487
 31
0.0
  0
LINE
  5
9C2A
  8
TITLE
 10
151.85282258545439
 20
36.225832547024943
 30
0.0
 11
152.855670667575
 21
37.228680629145863
 31
0.0
  0
LINE
  5
9C2B
  8
TITLE
 10
151.86900332893379
 20
36.154728417864128
 30
0.0
 11
152.87185141105419
 21
37.157576499984891
 31
0.0
  0
LINE
  5
9C2C
  8
TITLE
 10
151.8851840724202
 20
36.083624288703447
 30
0.0
 11
152.8880321545407
 21
37.08647237082085
 31
0.0
  0
LINE
  5
9C2D
  8
TITLE
 10
151.9013648159065
 20
36.012520159542653
 30
0.0
 11
152.90421289802711
 21
37.015368241659928
 31
0.0
  0
LINE
  5
9C2E
  8
TITLE
 10
149.1945564427088
 20
38.979228508363349
 30
0.0
 11
150.07061618570719
 21
39.855288251358161
 31
0.0
  0
LINE
  5
9C2F
  8
TITLE
 10
149.14867812163001
 20
38.846065314641351
 30
0.0
 11
150.1579010583543
 21
39.855288251358161
 31
0.0
  0
LINE
  5
9C30
  8
TITLE
 10
149.1027998005514
 20
38.712902120915707
 30
0.0
 11
150.2451859310014
 21
39.855288251358161
 31
0.0
  0
LINE
  5
9C31
  8
TITLE
 10
149.05692147948031
 20
38.57973892718951
 30
0.0
 11
150.3324708036487
 21
39.855288251358161
 31
0.0
  0
LINE
  5
9C32
  8
TITLE
 10
149.33219140594471
 20
39.378718089537188
 30
0.0
 11
149.8087615677656
 21
39.855288251358161
 31
0.0
  0
LINE
  5
9C33
  8
TITLE
 10
149.2863130848659
 20
39.245554895811267
 30
0.0
 11
149.89604644041299
 21
39.855288251358161
 31
0.0
  0
LINE
  5
9C34
  8
TITLE
 10
149.24043476378739
 20
39.112391702089099
 30
0.0
 11
149.98333131306009
 21
39.855288251358161
 31
0.0
  0
LINE
  5
9C35
  8
TITLE
 10
149.42394804810209
 20
39.645044476988751
 30
0.0
 11
149.63419182247151
 21
39.855288251358161
 31
0.0
  0
LINE
  5
9C36
  8
TITLE
 10
149.3780697270233
 20
39.511881283263222
 30
0.0
 11
149.72147669511861
 21
39.855288251358161
 31
0.0
  0
LINE
  5
9C37
  8
TITLE
 10
149.46982636918079
 20
39.778207670714487
 30
0.0
 11
149.54690694982429
 21
39.855288251358161
 31
0.0
  0
LINE
  5
9C38
  8
TITLE
 10
148.8734081951655
 20
38.047086152290149
 30
0.0
 11
150.6816102942301
 21
39.855288251358161
 31
0.0
  0
LINE
  5
9C39
  8
TITLE
 10
148.82752987408679
 20
37.91392295856776
 30
0.0
 11
150.76616307709401
 21
39.85255616157832
 31
0.0
  0
LINE
  5
9C3A
  8
TITLE
 10
148.7816515530082
 20
37.780759764842003
 30
0.0
 11
150.72028475602229
 21
39.719392967852627
 31
0.0
  0
LINE
  5
9C3B
  8
TITLE
 10
149.01104315840149
 20
38.44657573346376
 30
0.0
 11
150.4197556762887
 21
39.855288251358161
 31
0.0
  0
LINE
  5
9C3C
  8
TITLE
 10
148.9651648373229
 20
38.313412539738238
 30
0.0
 11
150.50704054893589
 21
39.855288251358161
 31
0.0
  0
LINE
  5
9C3D
  8
TITLE
 10
148.9192865162442
 20
38.180249346015948
 30
0.0
 11
150.59432542158299
 21
39.855288251358161
 31
0.0
  0
LINE
  5
9C3E
  8
TITLE
 10
150.3540787657534
 20
34.290664364088173
 30
0.0
 11
151.4638720279639
 21
35.400457626305752
 31
0.0
  0
LINE
  5
9C3F
  8
TITLE
 10
150.44136363839331
 20
34.290664364088173
 30
0.0
 11
151.5511569006112
 21
35.400457626305752
 31
0.0
  0
LINE
  5
9C40
  8
TITLE
 10
150.52864851104039
 20
34.290664364088173
 30
0.0
 11
151.63844177325799
 21
35.400457626305752
 31
0.0
  0
LINE
  5
9C41
  8
TITLE
 10
150.6159333836876
 20
34.290664364088173
 30
0.0
 11
151.7257266459055
 21
35.400457626305752
 31
0.0
  0
LINE
  5
9C42
  8
TITLE
 10
150.70321825633479
 20
34.290664364088173
 30
0.0
 11
151.81301151855271
 21
35.400457626305752
 31
0.0
  0
LINE
  5
9C43
  8
TITLE
 10
150.79050312898181
 20
34.290664364088173
 30
0.0
 11
151.90029639119979
 21
35.400457626305752
 31
0.0
  0
LINE
  5
9C44
  8
TITLE
 10
150.8777880016292
 20
34.290664364088173
 30
0.0
 11
151.98758126384701
 21
35.400457626305752
 31
0.0
  0
LINE
  5
9C45
  8
TITLE
 10
151.67483440711129
 20
37.007977967793408
 30
0.0
 11
152.38356460944371
 21
37.716708170125628
 31
0.0
  0
LINE
  5
9C46
  8
TITLE
 10
151.69101515059791
 20
36.936873838632494
 30
0.0
 11
152.47084948208339
 21
37.716708170125628
 31
0.0
  0
LINE
  5
9C47
  8
TITLE
 10
151.7071958940839
 20
36.865769709471813
 30
0.0
 11
152.55813435473061
 21
37.716708170125628
 31
0.0
  0
LINE
  5
9C48
  8
TITLE
 10
151.62629217665199
 20
37.221290355275869
 30
0.0
 11
152.12170999150209
 21
37.716708170125628
 31
0.0
  0
LINE
  5
9C49
  8
TITLE
 10
151.6424729201384
 20
37.150186226114947
 30
0.0
 11
152.20899486414939
 21
37.716708170125628
 31
0.0
  0
LINE
  5
9C4A
  8
TITLE
 10
151.65865366362499
 20
37.079082096953812
 30
0.0
 11
152.29627973679621
 21
37.716708170125628
 31
0.0
  0
LINE
  5
9C4B
  8
TITLE
 10
151.56156920271391
 20
37.505706871918683
 30
0.0
 11
151.77257050091339
 21
37.716708170125628
 31
0.0
  0
LINE
  5
9C4C
  8
TITLE
 10
151.57774994619311
 20
37.434602742758329
 30
0.0
 11
151.85985537356069
 21
37.716708170125628
 31
0.0
  0
LINE
  5
9C4D
  8
TITLE
 10
151.5939306896795
 20
37.363498613597251
 30
0.0
 11
151.94714024620779
 21
37.716708170125628
 31
0.0
  0
LINE
  5
9C4E
  8
TITLE
 10
151.61011143316591
 20
37.29239448443645
 30
0.0
 11
152.03442511885481
 21
37.716708170125628
 31
0.0
  0
LINE
  5
9C4F
  8
TITLE
 10
151.52920771574119
 20
37.647915130240619
 30
0.0
 11
151.5980007556191
 21
37.716708170125628
 31
0.0
  0
LINE
  5
9C50
  8
TITLE
 10
151.5453884592273
 20
37.576811001079363
 30
0.0
 11
151.68528562826631
 21
37.716708170125628
 31
0.0
  0
LINE
  5
9C51
  8
TITLE
 10
148.5210964401775
 20
34.290664364088173
 30
0.0
 11
149.6308897023884
 21
35.400457626305752
 31
0.0
  0
LINE
  5
9C52
  8
TITLE
 10
148.6083813128175
 20
34.290664364088173
 30
0.0
 11
149.71817457503531
 21
35.400457626305752
 31
0.0
  0
LINE
  5
9C53
  8
TITLE
 10
148.69566618546489
 20
34.290664364088173
 30
0.0
 11
149.80545944768249
 21
35.400457626305752
 31
0.0
  0
LINE
  5
9C54
  8
TITLE
 10
148.78295105811179
 20
34.290664364088173
 30
0.0
 11
149.89274432032951
 21
35.400457626305752
 31
0.0
  0
LINE
  5
9C55
  8
TITLE
 10
148.87023593075889
 20
34.290664364088173
 30
0.0
 11
149.9800291929769
 21
35.400457626305752
 31
0.0
  0
LINE
  5
9C56
  8
TITLE
 10
148.95752080340591
 20
34.290664364088173
 30
0.0
 11
150.0673140656238
 21
35.400457626305752
 31
0.0
  0
LINE
  5
9C57
  8
TITLE
 10
149.04480567605339
 20
34.290664364088173
 30
0.0
 11
150.15459893827091
 21
35.400457626305752
 31
0.0
  0
LINE
  5
9C58
  8
TITLE
 10
149.13209054870029
 20
34.290664364088173
 30
0.0
 11
150.24188381091849
 21
35.400457626305752
 31
0.0
  0
LINE
  5
9C59
  8
TITLE
 10
149.21937542134791
 20
34.290664364088173
 30
0.0
 11
150.32916868355809
 21
35.400457626305752
 31
0.0
  0
LINE
  5
9C5A
  8
TITLE
 10
149.3066602939947
 20
34.290664364088173
 30
0.0
 11
150.4164535562054
 21
35.400457626305752
 31
0.0
  0
LINE
  5
9C5B
  8
TITLE
 10
150.17950902045931
 20
34.290664364088173
 30
0.0
 11
151.2893022826695
 21
35.400457626305752
 31
0.0
  0
LINE
  5
9C5C
  8
TITLE
 10
150.26679389310601
 20
34.290664364088173
 30
0.0
 11
151.3765871553168
 21
35.400457626305752
 31
0.0
  0
LINE
  5
9C5D
  8
TITLE
 10
149.3939451666418
 20
34.290664364088173
 30
0.0
 11
150.50373842885239
 21
35.400457626305752
 31
0.0
  0
LINE
  5
9C5E
  8
TITLE
 10
149.48123003928899
 20
34.290664364088173
 30
0.0
 11
150.59102330149989
 21
35.400457626305752
 31
0.0
  0
LINE
  5
9C5F
  8
TITLE
 10
149.56851491192921
 20
34.290664364088173
 30
0.0
 11
150.67830817414671
 21
35.400457626305752
 31
0.0
  0
LINE
  5
9C60
  8
TITLE
 10
149.65579978457609
 20
34.290664364088173
 30
0.0
 11
150.76559304679381
 21
35.400457626305752
 31
0.0
  0
LINE
  5
9C61
  8
TITLE
 10
149.74308465722299
 20
34.290664364088173
 30
0.0
 11
150.85287791944131
 21
35.400457626305752
 31
0.0
  0
LINE
  5
9C62
  8
TITLE
 10
149.83036952987041
 20
34.290664364088173
 30
0.0
 11
150.94016279208819
 21
35.400457626305752
 31
0.0
  0
LINE
  5
9C63
  8
TITLE
 10
149.91765440251751
 20
34.290664364088173
 30
0.0
 11
151.02744766473529
 21
35.400457626305752
 31
0.0
  0
LINE
  5
9C64
  8
TITLE
 10
150.00493927516479
 20
34.290664364088173
 30
0.0
 11
151.11473253738291
 21
35.400457626305752
 31
0.0
  0
LINE
  5
9C65
  8
TITLE
 10
150.09222414781181
 20
34.290664364088173
 30
0.0
 11
151.20201741002239
 21
35.400457626305752
 31
0.0
  0
LINE
  5
9C66
  8
TITLE
 10
148.73577323192939
 20
37.64759657111648
 30
0.0
 11
150.67440643494371
 21
39.586229774130231
 31
0.0
  0
LINE
  5
9C67
  8
TITLE
 10
148.6898949108508
 20
37.514433377390112
 30
0.0
 11
150.62852811386529
 21
39.453066580404709
 31
0.0
  0
LINE
  5
9C68
  8
TITLE
 10
148.64401658977189
 20
37.381270183664931
 30
0.0
 11
150.5826497927863
 21
39.319903386678789
 31
0.0
  0
LINE
  5
9C69
  8
TITLE
 10
148.5981382686939
 20
37.248106989942642
 30
0.0
 11
150.53677147170771
 21
39.186740192953039
 31
0.0
  0
LINE
  5
9C6A
  8
TITLE
 10
148.5522599476148
 20
37.114943796220018
 30
0.0
 11
150.49089315062929
 21
39.053576999227118
 31
0.0
  0
LINE
  5
9C6B
  8
TITLE
 10
148.50638162653649
 20
36.981780602494439
 30
0.0
 11
150.4450148295503
 21
38.920413805505291
 31
0.0
  0
LINE
  5
9C6C
  8
TITLE
 10
154.48167051593509
 20
39.029250222799931
 30
0.0
 11
155.30770854449349
 21
39.855288251358161
 31
0.0
  0
LINE
  5
9C6D
  8
TITLE
 10
154.5689553885822
 20
39.029250222799931
 30
0.0
 11
155.39499341714071
 21
39.855288251358161
 31
0.0
  0
LINE
  5
9C6E
  8
TITLE
 10
154.65624026122919
 20
39.029250222799931
 30
0.0
 11
155.48227828978781
 21
39.855288251358161
 31
0.0
  0
LINE
  5
9C6F
  8
TITLE
 10
154.7435251338764
 20
39.029250222799931
 30
0.0
 11
155.5695631624348
 21
39.855288251358161
 31
0.0
  0
LINE
  5
9C70
  8
TITLE
 10
154.83081000652371
 20
39.029250222799931
 30
0.0
 11
155.65684803508231
 21
39.855288251358161
 31
0.0
  0
LINE
  5
9C71
  8
TITLE
 10
154.9180948791707
 20
39.029250222799931
 30
0.0
 11
155.74413290772901
 21
39.855288251358161
 31
0.0
  0
LINE
  5
9C72
  8
TITLE
 10
155.00537975181791
 20
39.029250222799931
 30
0.0
 11
155.8314177803762
 21
39.855288251358161
 31
0.0
  0
LINE
  5
9C73
  8
TITLE
 10
155.0926646244651
 20
39.029250222799931
 30
0.0
 11
155.9187026530162
 21
39.855288251358161
 31
0.0
  0
LINE
  5
9C74
  8
TITLE
 10
155.1799494971051
 20
39.029250222799931
 30
0.0
 11
156.0059875256635
 21
39.855288251358161
 31
0.0
  0
LINE
  5
9C75
  8
TITLE
 10
155.26723436975229
 20
39.029250222799931
 30
0.0
 11
156.09327239831089
 21
39.855288251358161
 31
0.0
  0
LINE
  5
9C76
  8
TITLE
 10
155.35451924239939
 20
39.029250222799931
 30
0.0
 11
156.18055727095779
 21
39.855288251358161
 31
0.0
  0
LINE
  5
9C77
  8
TITLE
 10
155.44180411504669
 20
39.029250222799931
 30
0.0
 11
156.26784214360509
 21
39.855288251358161
 31
0.0
  0
LINE
  5
9C78
  8
TITLE
 10
155.52908898769371
 20
39.029250222799931
 30
0.0
 11
156.355127016252
 21
39.855288251358161
 31
0.0
  0
LINE
  5
9C79
  8
TITLE
 10
155.6163738603411
 20
39.029250222799931
 30
0.0
 11
156.44241188889939
 21
39.855288251358161
 31
0.0
  0
LINE
  5
9C7A
  8
TITLE
 10
155.70365873298809
 20
39.029250222799931
 30
0.0
 11
156.5296967615464
 21
39.855288251358161
 31
0.0
  0
LINE
  5
9C7B
  8
TITLE
 10
155.79094360563531
 20
39.029250222799931
 30
0.0
 11
156.61698163419371
 21
39.855288251358161
 31
0.0
  0
LINE
  5
9C7C
  8
TITLE
 10
154.45646778013369
 20
34.290664364088173
 30
0.0
 11
155.30889984349659
 21
35.143096427454793
 31
0.0
  0
LINE
  5
9C7D
  8
TITLE
 10
154.543752652781
 20
34.290664364088173
 30
0.0
 11
155.39618471614369
 21
35.143096427454793
 31
0.0
  0
LINE
  5
9C7E
  8
TITLE
 10
154.6310375254283
 20
34.290664364088173
 30
0.0
 11
155.48346958879111
 21
35.143096427454793
 31
0.0
  0
LINE
  5
9C7F
  8
TITLE
 10
154.71832239807529
 20
34.290664364088173
 30
0.0
 11
155.57075446143821
 21
35.143096427454793
 31
0.0
  0
LINE
  5
9C80
  8
TITLE
 10
154.80560727072219
 20
34.290664364088173
 30
0.0
 11
155.65803933408489
 21
35.143096427454793
 31
0.0
  0
LINE
  5
9C81
  8
TITLE
 10
154.89289214336941
 20
34.290664364088173
 30
0.0
 11
155.74532420673219
 21
35.143096427454793
 31
0.0
  0
LINE
  5
9C82
  8
TITLE
 10
154.98017701600921
 20
34.290664364088173
 30
0.0
 11
155.83260907937989
 21
35.143096427454793
 31
0.0
  0
LINE
  5
9C83
  8
TITLE
 10
155.0674618886566
 20
34.290664364088173
 30
0.0
 11
155.91989395202671
 21
35.143096427454793
 31
0.0
  0
LINE
  5
9C84
  8
TITLE
 10
155.1547467613039
 20
34.290664364088173
 30
0.0
 11
156.0071788246739
 21
35.143096427454793
 31
0.0
  0
LINE
  5
9C85
  8
TITLE
 10
155.24203163395109
 20
34.290664364088173
 30
0.0
 11
156.0944636973212
 21
35.143096427454793
 31
0.0
  0
LINE
  5
9C86
  8
TITLE
 10
155.32931650659799
 20
34.290664364088173
 30
0.0
 11
156.181748569961
 21
35.143096427454793
 31
0.0
  0
LINE
  5
9C87
  8
TITLE
 10
154.20383223845761
 20
39.624260671786772
 30
0.0
 11
154.43485981802891
 21
39.855288251358161
 31
0.0
  0
LINE
  5
9C88
  8
TITLE
 10
154.20383223845761
 20
39.798830417077632
 30
0.0
 11
154.2602900727347
 21
39.855288251358161
 31
0.0
  0
LINE
  5
9C89
  8
TITLE
 10
154.20383223845761
 20
39.711545544430749
 30
0.0
 11
154.34757494538189
 21
39.855288251358161
 31
0.0
  0
LINE
  5
9C8A
  8
TITLE
 10
154.02607942946889
 20
34.820409612534426
 30
0.0
 11
154.34876624438499
 21
35.143096427454793
 31
0.0
  0
LINE
  5
9C8B
  8
TITLE
 10
154.02607942946889
 20
34.733124739887451
 30
0.0
 11
154.43605111703201
 21
35.143096427454793
 31
0.0
  0
LINE
  5
9C8C
  8
TITLE
 10
154.02607942946889
 20
34.907694485181771
 30
0.0
 11
154.26148137173789
 21
35.143096427454793
 31
0.0
  0
LINE
  5
9C8D
  8
TITLE
 10
152.62348545455799
 20
34.290664364088173
 30
0.0
 11
153.3572737156245
 21
35.024452625154879
 31
0.0
  0
LINE
  5
9C8E
  8
TITLE
 10
152.7107703272051
 20
34.290664364088173
 30
0.0
 11
153.37345445911129
 21
34.953348495994078
 31
0.0
  0
LINE
  5
9C8F
  8
TITLE
 10
152.7980551998522
 20
34.290664364088173
 30
0.0
 11
153.3896352025973
 21
34.88224436683339
 31
0.0
  0
LINE
  5
9C90
  8
TITLE
 10
152.88534007249919
 20
34.290664364088173
 30
0.0
 11
153.40581594608369
 21
34.811140237672817
 31
0.0
  0
LINE
  5
9C91
  8
TITLE
 10
152.97262494514641
 20
34.290664364088173
 30
0.0
 11
153.42199668956999
 21
34.740036108511902
 31
0.0
  0
LINE
  5
9C92
  8
TITLE
 10
153.05990981779371
 20
34.290664364088173
 30
0.0
 11
153.43817743304979
 21
34.66893197935093
 31
0.0
  0
LINE
  5
9C93
  8
TITLE
 10
153.14719469043371
 20
34.290664364088173
 30
0.0
 11
153.45435817653581
 21
34.597827850190129
 31
0.0
  0
LINE
  5
9C94
  8
TITLE
 10
153.23447956308101
 20
34.290664364088173
 30
0.0
 11
153.47053892002239
 21
34.526723721029441
 31
0.0
  0
LINE
  5
9C95
  8
TITLE
 10
153.32176443572791
 20
34.290664364088173
 30
0.0
 11
153.48671966350861
 21
34.455619591868931
 31
0.0
  0
LINE
  5
9C96
  8
TITLE
 10
153.4090493083749
 20
34.290664364088173
 30
0.0
 11
153.5029004069948
 21
34.384515462708073
 31
0.0
  0
LINE
  5
9C97
  8
TITLE
 10
153.49633418102221
 20
34.290664364088173
 30
0.0
 11
153.5190811504811
 21
34.313411333547151
 31
0.0
  0
LINE
  5
9C98
  8
TITLE
 10
154.02607942946889
 20
35.082264230472852
 30
0.0
 11
154.08691162645101
 21
35.143096427454793
 31
0.0
  0
LINE
  5
9C99
  8
TITLE
 10
154.02607942946889
 20
34.994979357828932
 30
0.0
 11
154.174196499098
 21
35.143096427454793
 31
0.0
  0
LINE
  5
9C9A
  8
TITLE
 10
154.10732828954491
 20
34.290664364088173
 30
0.0
 11
154.95976035291531
 21
35.143096427454793
 31
0.0
  0
LINE
  5
9C9B
  8
TITLE
 10
154.19461316219221
 20
34.290664364088173
 30
0.0
 11
155.04704522556219
 21
35.143096427454793
 31
0.0
  0
LINE
  5
9C9C
  8
TITLE
 10
154.2818980348392
 20
34.290664364088173
 30
0.0
 11
155.1343300982094
 21
35.143096427454793
 31
0.0
  0
LINE
  5
9C9D
  8
TITLE
 10
154.36918290748659
 20
34.290664364088173
 30
0.0
 11
155.22161497084949
 21
35.143096427454793
 31
0.0
  0
LINE
  5
9C9E
  8
TITLE
 10
154.02607942946889
 20
34.296700376655281
 30
0.0
 11
154.87247548026809
 21
35.143096427454793
 31
0.0
  0
LINE
  5
9C9F
  8
TITLE
 10
154.02607942946889
 20
34.64583986724017
 30
0.0
 11
154.52333598967951
 21
35.143096427454793
 31
0.0
  0
LINE
  5
9CA0
  8
TITLE
 10
154.02607942946889
 20
34.558554994593067
 30
0.0
 11
154.61062086232641
 21
35.143096427454793
 31
0.0
  0
LINE
  5
9CA1
  8
TITLE
 10
154.02607942946889
 20
34.471270121945913
 30
0.0
 11
154.69790573497369
 21
35.143096427454793
 31
0.0
  0
LINE
  5
9CA2
  8
TITLE
 10
154.02607942946889
 20
34.383985249299201
 30
0.0
 11
154.7851906076209
 21
35.143096427454793
 31
0.0
  0
LINE
  5
9CA3
  8
TITLE
 10
154.20383223845761
 20
39.187836308551077
 30
0.0
 11
154.871284181265
 21
39.855288251358161
 31
0.0
  0
LINE
  5
9CA4
  8
TITLE
 10
154.20383223845761
 20
39.10055143590381
 30
0.0
 11
154.9585690539048
 21
39.855288251358161
 31
0.0
  0
LINE
  5
9CA5
  8
TITLE
 10
154.2198158980006
 20
39.029250222799931
 30
0.0
 11
155.04585392655201
 21
39.855288251358161
 31
0.0
  0
LINE
  5
9CA6
  8
TITLE
 10
154.30710077064089
 20
39.029250222799931
 30
0.0
 11
155.13313879919889
 21
39.855288251358161
 31
0.0
  0
LINE
  5
9CA7
  8
TITLE
 10
154.39438564328799
 20
39.029250222799931
 30
0.0
 11
155.22042367184631
 21
39.855288251358161
 31
0.0
  0
LINE
  5
9CA8
  8
TITLE
 10
154.20383223845761
 20
39.536975799139903
 30
0.0
 11
154.52214469067599
 21
39.855288251358161
 31
0.0
  0
LINE
  5
9CA9
  8
TITLE
 10
154.20383223845761
 20
39.449690926492508
 30
0.0
 11
154.6094295633232
 21
39.855288251358161
 31
0.0
  0
LINE
  5
9CAA
  8
TITLE
 10
154.20383223845761
 20
39.362406053845397
 30
0.0
 11
154.69671443597039
 21
39.855288251358161
 31
0.0
  0
LINE
  5
9CAB
  8
TITLE
 10
154.20383223845761
 20
39.275121181198251
 30
0.0
 11
154.78399930861781
 21
39.855288251358161
 31
0.0
  0
LINE
  5
9CAC
  8
TITLE
 10
164.60189006294709
 20
38.76256992488328
 30
0.0
 11
165.25403524673189
 21
39.414715108664673
 31
0.0
  0
LINE
  5
9CAD
  8
TITLE
 10
164.6891749355942
 20
38.76256992488328
 30
0.0
 11
165.34132011937919
 21
39.414715108664673
 31
0.0
  0
LINE
  5
9CAE
  8
TITLE
 10
164.77645980824121
 20
38.76256992488328
 30
0.0
 11
165.42860499201919
 21
39.414715108664673
 31
0.0
  0
LINE
  5
9CAF
  8
TITLE
 10
164.86374468088829
 20
38.76256992488328
 30
0.0
 11
165.51588986466621
 21
39.414715108664673
 31
0.0
  0
LINE
  5
9CB0
  8
TITLE
 10
163.3487747902461
 20
37.771309270119673
 30
0.0
 11
164.99218062879069
 21
39.414715108664673
 31
0.0
  0
LINE
  5
9CB1
  8
TITLE
 10
163.43605966289289
 20
37.771309270119673
 30
0.0
 11
165.0794655014376
 21
39.414715108664673
 31
0.0
  0
LINE
  5
9CB2
  8
TITLE
 10
163.5233445355403
 20
37.771309270119673
 30
0.0
 11
165.1667503740849
 21
39.414715108664673
 31
0.0
  0
LINE
  5
9CB3
  8
TITLE
 10
163.6921557580589
 20
38.463829728521262
 30
0.0
 11
165.08361428089609
 21
39.855288251358161
 31
0.0
  0
LINE
  5
9CB4
  8
TITLE
 10
163.6702995639173
 20
38.354688661725277
 30
0.0
 11
165.16383407136129
 21
39.848223169176663
 31
0.0
  0
LINE
  5
9CB5
  8
TITLE
 10
163.7358681463559
 20
38.682111862105842
 30
0.0
 11
164.9090445356089
 21
39.855288251358161
 31
0.0
  0
LINE
  5
9CB6
  8
TITLE
 10
163.71401195220699
 20
38.572970795313161
 30
0.0
 11
164.9963294082487
 21
39.855288251358161
 31
0.0
  0
LINE
  5
9CB7
  8
TITLE
 10
164.39619326200449
 20
37.771309270119673
 30
0.0
 11
164.97008104831579
 21
38.345197056431289
 31
0.0
  0
LINE
  5
9CB8
  8
TITLE
 10
164.48347813464471
 20
37.771309270119673
 30
0.0
 11
165.05736592095579
 21
38.345197056431289
 31
0.0
  0
LINE
  5
9CB9
  8
TITLE
 10
164.57076300729179
 20
37.771309270119673
 30
0.0
 11
165.14465079360301
 21
38.345197056431289
 31
0.0
  0
LINE
  5
9CBA
  8
TITLE
 10
164.65804787993869
 20
37.771309270119673
 30
0.0
 11
165.23193566625019
 21
38.345197056431289
 31
0.0
  0
LINE
  5
9CBB
  8
TITLE
 10
164.74533275258591
 20
37.771309270119673
 30
0.0
 11
165.31922053889721
 21
38.345197056431289
 31
0.0
  0
LINE
  5
9CBC
  8
TITLE
 10
164.8326176252329
 20
37.771309270119673
 30
0.0
 11
165.4065054115442
 21
38.345197056431289
 31
0.0
  0
LINE
  5
9CBD
  8
TITLE
 10
164.42122402334081
 20
35.788787960585807
 30
0.0
 11
164.91685428926311
 21
36.284418226511491
 31
0.0
  0
LINE
  5
9CBE
  8
TITLE
 10
164.50850889598809
 20
35.788787960585807
 30
0.0
 11
165.00413916190979
 21
36.284418226511491
 31
0.0
  0
LINE
  5
9CBF
  8
TITLE
 10
164.5957937686351
 20
35.788787960585807
 30
0.0
 11
165.09142403455709
 21
36.284418226511491
 31
0.0
  0
LINE
  5
9CC0
  8
TITLE
 10
164.68307864128221
 20
35.788787960585807
 30
0.0
 11
165.1787089072044
 21
36.284418226511491
 31
0.0
  0
LINE
  5
9CC1
  8
TITLE
 10
164.77036351392951
 20
35.788787960585807
 30
0.0
 11
165.26599377985119
 21
36.284418226511491
 31
0.0
  0
LINE
  5
9CC2
  8
TITLE
 10
164.85764838656911
 20
35.788787960585807
 30
0.0
 11
165.35327865249889
 21
36.284418226511491
 31
0.0
  0
LINE
  5
9CC3
  8
TITLE
 10
164.41159364817031
 20
34.557169368366317
 30
0.0
 11
164.94221468948999
 21
35.087790409689212
 31
0.0
  0
LINE
  5
9CC4
  8
TITLE
 10
164.47055972195579
 20
34.528850569507938
 30
0.0
 11
165.0030037934462
 21
35.06129464099422
 31
0.0
  0
LINE
  5
9CC5
  8
TITLE
 10
164.5307945472311
 20
34.501800522135909
 30
0.0
 11
165.06680093899081
 21
35.037806913895793
 31
0.0
  0
LINE
  5
9CC6
  8
TITLE
 10
164.59233599182889
 20
34.47605709408311
 30
0.0
 11
165.13386369519779
 21
35.017584797455243
 31
0.0
  0
LINE
  5
9CC7
  8
TITLE
 10
164.65522661596921
 20
34.45166284558394
 30
0.0
 11
165.20452990256541
 21
35.000966132176302
 31
0.0
  0
LINE
  5
9CC8
  8
TITLE
 10
164.71951427805271
 20
34.428665635016159
 30
0.0
 11
165.27925029850019
 21
34.988401655463861
 31
0.0
  0
LINE
  5
9CC9
  8
TITLE
 10
164.78525286217371
 20
34.407119346489822
 30
0.0
 11
165.35864204203071
 21
34.980508526347137
 31
0.0
  0
LINE
  5
9CCA
  8
TITLE
 10
164.85250315731329
 20
34.387084768982447
 30
0.0
 11
165.4435820726037
 21
34.978163684272772
 31
0.0
  0
LINE
  5
9CCB
  8
TITLE
 10
164.42626532081019
 20
36.753962857166933
 30
0.0
 11
164.94798146783421
 21
37.27567900419411
 31
0.0
  0
LINE
  5
9CCC
  8
TITLE
 10
164.51355019345729
 20
36.753962857166933
 30
0.0
 11
165.0352663404812
 21
37.27567900419411
 31
0.0
  0
LINE
  5
9CCD
  8
TITLE
 10
164.60083506610479
 20
36.753962857166933
 30
0.0
 11
165.1225512131285
 21
37.27567900419411
 31
0.0
  0
LINE
  5
9CCE
  8
TITLE
 10
164.68811993875201
 20
36.753962857166933
 30
0.0
 11
165.20983608577529
 21
37.27567900419411
 31
0.0
  0
LINE
  5
9CCF
  8
TITLE
 10
164.77540481139911
 20
36.753962857166933
 30
0.0
 11
165.29712095842279
 21
37.27567900419411
 31
0.0
  0
LINE
  5
9CD0
  8
TITLE
 10
164.862689684039
 20
36.753962857166933
 30
0.0
 11
165.3844058310697
 21
37.27567900419411
 31
0.0
  0
LINE
  5
9CD1
  8
TITLE
 10
162.15685863199869
 20
36.753962857166933
 30
0.0
 11
165.0860593351627
 21
39.68316356032728
 31
0.0
  0
LINE
  5
9CD2
  8
TITLE
 10
162.24414350464599
 20
36.753962857166933
 30
0.0
 11
165.0082845989572
 21
39.518103951478452
 31
0.0
  0
LINE
  5
9CD3
  8
TITLE
 10
160.15036155797819
 20
38.76256992488328
 30
0.0
 11
161.2381270483877
 21
39.850335415292882
 31
0.0
  0
LINE
  5
9CD4
  8
TITLE
 10
160.23764643062509
 20
38.76256992488328
 30
0.0
 11
161.26608255832099
 21
39.79100605257554
 31
0.0
  0
LINE
  5
9CD5
  8
TITLE
 10
160.32493130327231
 20
38.76256992488328
 30
0.0
 11
161.29403806824729
 21
39.731676689861779
 31
0.0
  0
LINE
  5
9CD6
  8
TITLE
 10
160.4122161759195
 20
38.76256992488328
 30
0.0
 11
161.3219935781807
 21
39.67234732714445
 31
0.0
  0
LINE
  5
9CD7
  8
TITLE
 10
160.49950104856671
 20
38.76256992488328
 30
0.0
 11
161.34994908810719
 21
39.613017964427002
 31
0.0
  0
LINE
  5
9CD8
  8
TITLE
 10
160.5867859212064
 20
38.76256992488328
 30
0.0
 11
161.37790459804069
 21
39.553688601713418
 31
0.0
  0
LINE
  5
9CD9
  8
TITLE
 10
160.6740707938539
 20
38.76256992488328
 30
0.0
 11
161.40586010797389
 21
39.494359239000062
 31
0.0
  0
LINE
  5
9CDA
  8
TITLE
 10
160.76135566650109
 20
38.76256992488328
 30
0.0
 11
161.43381561790031
 21
39.435029876278918
 31
0.0
  0
LINE
  5
9CDB
  8
TITLE
 10
160.73022861085269
 20
37.771309270119673
 30
0.0
 11
162.486006723803
 21
39.52708738306962
 31
0.0
  0
LINE
  5
9CDC
  8
TITLE
 10
160.293804247617
 20
37.771309270119673
 30
0.0
 11
160.86769203392871
 21
38.345197056431289
 31
0.0
  0
LINE
  5
9CDD
  8
TITLE
 10
160.38108912026411
 20
37.771309270119673
 30
0.0
 11
160.9549769065755
 21
38.345197056431289
 31
0.0
  0
LINE
  5
9CDE
  8
TITLE
 10
160.4683739929113
 20
37.771309270119673
 30
0.0
 11
161.04226177922291
 21
38.345197056431289
 31
0.0
  0
LINE
  5
9CDF
  8
TITLE
 10
160.55565886555851
 20
37.771309270119673
 30
0.0
 11
161.12954665186999
 21
38.345197056431289
 31
0.0
  0
LINE
  5
9CE0
  8
TITLE
 10
160.6429437382057
 20
37.771309270119673
 30
0.0
 11
161.21683152451689
 21
38.345197056431289
 31
0.0
  0
LINE
  5
9CE1
  8
TITLE
 10
160.61614987812919
 20
39.664782608266712
 30
0.0
 11
160.8066555212213
 21
39.855288251358161
 31
0.0
  0
LINE
  5
9CE2
  8
TITLE
 10
160.64410538805549
 20
39.605453245545853
 30
0.0
 11
160.89394039386821
 21
39.855288251358161
 31
0.0
  0
LINE
  5
9CE3
  8
TITLE
 10
160.67206089798901
 20
39.546123882831921
 30
0.0
 11
160.98122526651531
 21
39.855288251358161
 31
0.0
  0
LINE
  5
9CE4
  8
TITLE
 10
160.70001640791531
 20
39.48679452011806
 30
0.0
 11
161.06851013916241
 21
39.855288251358161
 31
0.0
  0
LINE
  5
9CE5
  8
TITLE
 10
160.72797191784889
 20
39.427465157397137
 30
0.0
 11
161.1557950118098
 21
39.855288251358161
 31
0.0
  0
LINE
  5
9CE6
  8
TITLE
 10
160.129984345053
 20
34.290664206992858
 30
0.0
 11
162.1237383645753
 21
36.284418226511491
 31
0.0
  0
LINE
  5
9CE7
  8
TITLE
 10
160.2178847076259
 20
34.291279696910813
 30
0.0
 11
162.21102323722249
 21
36.284418226511491
 31
0.0
  0
LINE
  5
9CE8
  8
TITLE
 10
160.30949041180219
 20
34.295600528440161
 30
0.0
 11
162.29830810986971
 21
36.284418226511491
 31
0.0
  0
LINE
  5
9CE9
  8
TITLE
 10
160.404766241304
 20
34.303591485298568
 30
0.0
 11
162.38559298251701
 21
36.284418226511491
 31
0.0
  0
LINE
  5
9CEA
  8
TITLE
 10
160.31883500895319
 20
35.788787960585807
 30
0.0
 11
160.81446527488239
 21
36.284418226511491
 31
0.0
  0
LINE
  5
9CEB
  8
TITLE
 10
160.40611988160049
 20
35.788787960585807
 30
0.0
 11
160.9017501475297
 21
36.284418226511491
 31
0.0
  0
LINE
  5
9CEC
  8
TITLE
 10
160.49340475424771
 20
35.788787960585807
 30
0.0
 11
160.98903502016969
 21
36.284418226511491
 31
0.0
  0
LINE
  5
9CED
  8
TITLE
 10
160.58068962689489
 20
35.788787960585807
 30
0.0
 11
161.07631989281711
 21
36.284418226511491
 31
0.0
  0
LINE
  5
9CEE
  8
TITLE
 10
160.6679744995418
 20
35.788787960585807
 30
0.0
 11
161.16360476546399
 21
36.284418226511491
 31
0.0
  0
LINE
  5
9CEF
  8
TITLE
 10
160.7552593721891
 20
35.788787960585807
 30
0.0
 11
161.2508896381112
 21
36.284418226511491
 31
0.0
  0
LINE
  5
9CF0
  8
TITLE
 10
160.04269959145611
 20
34.290664326043043
 30
0.0
 11
160.9916490559321
 21
35.239613790511392
 31
0.0
  0
LINE
  5
9CF1
  8
TITLE
 10
160.32387630642299
 20
36.753962857166933
 30
0.0
 11
160.84559245345369
 21
37.27567900419411
 31
0.0
  0
LINE
  5
9CF2
  8
TITLE
 10
160.41116117906989
 20
36.753962857166933
 30
0.0
 11
160.93287732610091
 21
37.27567900419411
 31
0.0
  0
LINE
  5
9CF3
  8
TITLE
 10
160.4984460517172
 20
36.753962857166933
 30
0.0
 11
161.02016219874091
 21
37.27567900419411
 31
0.0
  0
LINE
  5
9CF4
  8
TITLE
 10
160.5857309243641
 20
36.753962857166933
 30
0.0
 11
161.1074470713877
 21
37.27567900419411
 31
0.0
  0
LINE
  5
9CF5
  8
TITLE
 10
160.6730157970114
 20
36.753962857166933
 30
0.0
 11
161.19473194403531
 21
37.27567900419411
 31
0.0
  0
LINE
  5
9CF6
  8
TITLE
 10
160.76030066965839
 20
36.753962857166933
 30
0.0
 11
161.2820168166823
 21
37.27567900419411
 31
0.0
  0
LINE
  5
9CF7
  8
TITLE
 10
160.50423453726211
 20
34.315774908609633
 30
0.0
 11
163.46413863284681
 21
37.27567900419411
 31
0.0
  0
LINE
  5
9CF8
  8
TITLE
 10
160.60857848272491
 20
34.33283398142845
 30
0.0
 11
163.5514235054938
 21
37.27567900419411
 31
0.0
  0
LINE
  5
9CF9
  8
TITLE
 10
160.71872162912729
 20
34.35569225518384
 30
0.0
 11
163.6387083781411
 21
37.27567900419411
 31
0.0
  0
LINE
  5
9CFA
  8
TITLE
 10
160.01480379454691
 20
38.976151652037402
 30
0.0
 11
160.45336725117471
 21
39.414715108664673
 31
0.0
  0
LINE
  5
9CFB
  8
TITLE
 10
160.01480379454691
 20
38.888866779390071
 30
0.0
 11
160.5406521238213
 21
39.414715108664673
 31
0.0
  0
LINE
  5
9CFC
  8
TITLE
 10
160.01480379454691
 20
38.80158190674269
 30
0.0
 11
160.62793699646889
 21
39.414715108664673
 31
0.0
  0
LINE
  5
9CFD
  8
TITLE
 10
160.06307668533091
 20
38.76256992488328
 30
0.0
 11
160.71522186911591
 21
39.414715108664673
 31
0.0
  0
LINE
  5
9CFE
  8
TITLE
 10
160.19255660353599
 20
38.019201116620422
 30
0.0
 11
160.51855254333981
 21
38.345197056431289
 31
0.0
  0
LINE
  5
9CFF
  8
TITLE
 10
160.19255660353599
 20
37.931916243973149
 30
0.0
 11
160.605837415987
 21
38.345197056431289
 31
0.0
  0
LINE
  5
9D00
  8
TITLE
 10
160.19255660353599
 20
37.84463137132628
 30
0.0
 11
160.69312228863421
 21
38.345197056431289
 31
0.0
  0
LINE
  5
9D01
  8
TITLE
 10
160.2065193749697
 20
37.771309270119673
 30
0.0
 11
160.7804071612812
 21
38.345197056431289
 31
0.0
  0
LINE
  5
9D02
  8
TITLE
 10
160.19255660353599
 20
38.106485989267533
 30
0.0
 11
160.43126767069251
 21
38.345197056431289
 31
0.0
  0
LINE
  5
9D03
  8
TITLE
 10
160.19255660353599
 20
38.281055734561839
 30
0.0
 11
160.25669792540549
 21
38.345197056431289
 31
0.0
  0
LINE
  5
9D04
  8
TITLE
 10
160.19255660353599
 20
38.193770861914508
 30
0.0
 11
160.34398279805271
 21
38.345197056431289
 31
0.0
  0
LINE
  5
9D05
  8
TITLE
 10
158.5840595303228
 20
39.029250222799931
 30
0.0
 11
159.30611452061521
 21
39.751305213092451
 31
0.0
  0
LINE
  5
9D06
  8
TITLE
 10
158.67134440296991
 20
39.029250222799931
 30
0.0
 11
159.30611452061521
 21
39.66402034044512
 31
0.0
  0
LINE
  5
9D07
  8
TITLE
 10
158.7586292756171
 20
39.029250222799931
 30
0.0
 11
159.30611452061521
 21
39.576735467801662
 31
0.0
  0
LINE
  5
9D08
  8
TITLE
 10
158.8459141482567
 20
39.029250222799931
 30
0.0
 11
159.30611452061521
 21
39.489450595154267
 31
0.0
  0
LINE
  5
9D09
  8
TITLE
 10
158.933199020904
 20
39.029250222799931
 30
0.0
 11
159.30611452061521
 21
39.40216572250705
 31
0.0
  0
LINE
  5
9D0A
  8
TITLE
 10
159.02048389355119
 20
39.029250222799931
 30
0.0
 11
159.30611452061521
 21
39.314880849863698
 31
0.0
  0
LINE
  5
9D0B
  8
TITLE
 10
159.10776876619829
 20
39.029250222799931
 30
0.0
 11
159.30611452061521
 21
39.227595977216879
 31
0.0
  0
LINE
  5
9D0C
  8
TITLE
 10
160.01480379454691
 20
39.063436524684221
 30
0.0
 11
160.3660823785271
 21
39.414715108664673
 31
0.0
  0
LINE
  5
9D0D
  8
TITLE
 10
159.19505363884551
 20
39.029250222799931
 30
0.0
 11
159.30611452061521
 21
39.140311104569598
 31
0.0
  0
LINE
  5
9D0E
  8
TITLE
 10
159.28233851149281
 20
39.029250222799931
 30
0.0
 11
159.30611452061521
 21
39.053026231922729
 31
0.0
  0
LINE
  5
9D0F
  8
TITLE
 10
160.01480379454691
 20
39.412576015269451
 30
0.0
 11
160.01694288793871
 21
39.414715108664673
 31
0.0
  0
LINE
  5
9D10
  8
TITLE
 10
160.01480379454691
 20
39.325291142622177
 30
0.0
 11
160.1042277605859
 21
39.414715108664673
 31
0.0
  0
LINE
  5
9D11
  8
TITLE
 10
160.01480379454691
 20
39.238006269974903
 30
0.0
 11
160.19151263323289
 21
39.414715108664673
 31
0.0
  0
LINE
  5
9D12
  8
TITLE
 10
160.01480379454691
 20
39.150721397331552
 30
0.0
 11
160.27879750588011
 21
39.414715108664673
 31
0.0
  0
LINE
  5
9D13
  8
TITLE
 10
160.53228334833599
 20
39.842770696411208
 30
0.0
 11
160.54480090327979
 21
39.855288251358161
 31
0.0
  0
LINE
  5
9D14
  8
TITLE
 10
160.56023885826951
 20
39.783441333693823
 30
0.0
 11
160.6320857759269
 21
39.855288251358161
 31
0.0
  0
LINE
  5
9D15
  8
TITLE
 10
160.58819436819559
 20
39.724111970980182
 30
0.0
 11
160.71937064857391
 21
39.855288251358161
 31
0.0
  0
LINE
  5
9D16
  8
TITLE
 10
157.27478644062271
 20
39.029250222799931
 30
0.0
 11
158.10082446918079
 21
39.855288251358161
 31
0.0
  0
LINE
  5
9D17
  8
TITLE
 10
157.36207131326969
 20
39.029250222799931
 30
0.0
 11
158.18810934182821
 21
39.855288251358161
 31
0.0
  0
LINE
  5
9D18
  8
TITLE
 10
157.44935618591671
 20
39.029250222799931
 30
0.0
 11
158.2753942144752
 21
39.855288251358161
 31
0.0
  0
LINE
  5
9D19
  8
TITLE
 10
157.5366410585639
 20
39.029250222799931
 30
0.0
 11
158.36267908712219
 21
39.855288251358161
 31
0.0
  0
LINE
  5
9D1A
  8
TITLE
 10
157.62392593121109
 20
39.029250222799931
 30
0.0
 11
158.44996395976949
 21
39.855288251358161
 31
0.0
  0
LINE
  5
9D1B
  8
TITLE
 10
157.71121080385819
 20
39.029250222799931
 30
0.0
 11
158.53724883241691
 21
39.855288251358161
 31
0.0
  0
LINE
  5
9D1C
  8
TITLE
 10
158.4094897850284
 20
39.029250222799931
 30
0.0
 11
159.23552781358691
 21
39.855288251358161
 31
0.0
  0
LINE
  5
9D1D
  8
TITLE
 10
158.4967746576755
 20
39.029250222799931
 30
0.0
 11
159.30611452061521
 21
39.838590085739717
 31
0.0
  0
LINE
  5
9D1E
  8
TITLE
 10
157.79849567650521
 20
39.029250222799931
 30
0.0
 11
158.62453370505671
 21
39.855288251358161
 31
0.0
  0
LINE
  5
9D1F
  8
TITLE
 10
157.88578054914569
 20
39.029250222799931
 30
0.0
 11
158.7118185777037
 21
39.855288251358161
 31
0.0
  0
LINE
  5
9D20
  8
TITLE
 10
157.97306542179211
 20
39.029250222799931
 30
0.0
 11
158.79910345035091
 21
39.855288251358161
 31
0.0
  0
LINE
  5
9D21
  8
TITLE
 10
158.0603502944397
 20
39.029250222799931
 30
0.0
 11
158.8863883229979
 21
39.855288251358161
 31
0.0
  0
LINE
  5
9D22
  8
TITLE
 10
158.14763516708669
 20
39.029250222799931
 30
0.0
 11
158.9736731956452
 21
39.855288251358161
 31
0.0
  0
LINE
  5
9D23
  8
TITLE
 10
158.23492003973399
 20
39.029250222799931
 30
0.0
 11
159.06095806829219
 21
39.855288251358161
 31
0.0
  0
LINE
  5
9D24
  8
TITLE
 10
158.3222049123811
 20
39.029250222799931
 30
0.0
 11
159.14824294093941
 21
39.855288251358161
 31
0.0
  0
LINE
  5
9D25
  8
TITLE
 10
160.01480379454691
 20
35.92118110940811
 30
0.0
 11
160.37804091164671
 21
36.284418226511491
 31
0.0
  0
LINE
  5
9D26
  8
TITLE
 10
160.01480379454691
 20
35.833896236761241
 30
0.0
 11
160.46532578429361
 21
36.284418226511491
 31
0.0
  0
LINE
  5
9D27
  8
TITLE
 10
160.05698039101921
 20
35.788787960585807
 30
0.0
 11
160.55261065694091
 21
36.284418226511491
 31
0.0
  0
LINE
  5
9D28
  8
TITLE
 10
160.14426526366631
 20
35.788787960585807
 30
0.0
 11
160.63989552958819
 21
36.284418226511491
 31
0.0
  0
LINE
  5
9D29
  8
TITLE
 10
160.2315501363135
 20
35.788787960585807
 30
0.0
 11
160.72718040223521
 21
36.284418226511491
 31
0.0
  0
LINE
  5
9D2A
  8
TITLE
 10
160.01480379454691
 20
34.524623147068098
 30
0.0
 11
160.49168987092909
 21
35.001509223450462
 31
0.0
  0
LINE
  5
9D2B
  8
TITLE
 10
160.01480379454691
 20
34.437338274420831
 30
0.0
 11
160.6097119570972
 21
35.032246436971207
 31
0.0
  0
LINE
  5
9D2C
  8
TITLE
 10
160.01480379454691
 20
34.350053401773948
 30
0.0
 11
160.75361888464769
 21
35.088868491874791
 31
0.0
  0
LINE
  5
9D2D
  8
TITLE
 10
158.55885679452129
 20
34.290664364088173
 30
0.0
 11
159.4112888578839
 21
35.143096427454793
 31
0.0
  0
LINE
  5
9D2E
  8
TITLE
 10
158.64614166716129
 20
34.290664364088173
 30
0.0
 11
159.48386732960429
 21
35.128390026527541
 31
0.0
  0
LINE
  5
9D2F
  8
TITLE
 10
158.73342653980851
 20
34.290664364088173
 30
0.0
 11
159.48386732960429
 21
35.04110515388021
 31
0.0
  0
LINE
  5
9D30
  8
TITLE
 10
158.82071141245541
 20
34.290664364088173
 30
0.0
 11
159.48386732960429
 21
34.953820281233391
 31
0.0
  0
LINE
  5
9D31
  8
TITLE
 10
160.01480379454691
 20
34.786477765006168
 30
0.0
 11
160.2076590933639
 21
34.97933306382663
 31
0.0
  0
LINE
  5
9D32
  8
TITLE
 10
160.01480379454691
 20
34.699192892358838
 30
0.0
 11
160.2942134577641
 21
34.978602555579471
 31
0.0
  0
LINE
  5
9D33
  8
TITLE
 10
160.01480379454691
 20
34.611908019715202
 30
0.0
 11
160.3880753041262
 21
34.985179529294442
 31
0.0
  0
LINE
  5
9D34
  8
TITLE
 10
160.01480379454691
 20
34.873762637653037
 30
0.0
 11
160.1211690158425
 21
34.98012785894872
 31
0.0
  0
LINE
  5
9D35
  8
TITLE
 10
158.9079962851028
 20
34.290664364088173
 30
0.0
 11
159.48386732960429
 21
34.866535408589698
 31
0.0
  0
LINE
  5
9D36
  8
TITLE
 10
158.9952811577501
 20
34.290664364088173
 30
0.0
 11
159.48386732960429
 21
34.779250535942481
 31
0.0
  0
LINE
  5
9D37
  8
TITLE
 10
159.08256603039689
 20
34.290664364088173
 30
0.0
 11
159.48386732960429
 21
34.691965663295321
 31
0.0
  0
LINE
  5
9D38
  8
TITLE
 10
159.16985090304419
 20
34.290664364088173
 30
0.0
 11
159.48386732960429
 21
34.60468079064816
 31
0.0
  0
LINE
  5
9D39
  8
TITLE
 10
159.25713577569121
 20
34.290664364088173
 30
0.0
 11
159.48386732960429
 21
34.517395918001171
 31
0.0
  0
LINE
  5
9D3A
  8
TITLE
 10
159.34442064833831
 20
34.290664364088173
 30
0.0
 11
159.48386732960429
 21
34.43011104535384
 31
0.0
  0
LINE
  5
9D3B
  8
TITLE
 10
159.4317055209861
 20
34.290664364088173
 30
0.0
 11
159.48386732960429
 21
34.342826172707191
 31
0.0
  0
LINE
  5
9D3C
  8
TITLE
 10
160.01480379454691
 20
34.961047510296801
 30
0.0
 11
160.03388414319531
 21
34.98012785894872
 31
0.0
  0
LINE
  5
9D3D
  8
TITLE
 10
160.19255660353599
 20
37.059067517508829
 30
0.0
 11
160.40916809021769
 21
37.27567900419411
 31
0.0
  0
LINE
  5
9D3E
  8
TITLE
 10
160.19255660353599
 20
36.971782644861833
 30
0.0
 11
160.49645296286491
 21
37.27567900419411
 31
0.0
  0
LINE
  5
9D3F
  8
TITLE
 10
160.19255660353599
 20
36.884497772214672
 30
0.0
 11
160.58373783551249
 21
37.27567900419411
 31
0.0
  0
LINE
  5
9D40
  8
TITLE
 10
160.19255660353599
 20
36.797212899570752
 30
0.0
 11
160.6710227081592
 21
37.27567900419411
 31
0.0
  0
LINE
  5
9D41
  8
TITLE
 10
160.2365914337758
 20
36.753962857166933
 30
0.0
 11
160.75830758080639
 21
37.27567900419411
 31
0.0
  0
LINE
  5
9D42
  8
TITLE
 10
160.01480379454691
 20
36.183035727349711
 30
0.0
 11
160.1161862937052
 21
36.284418226511491
 31
0.0
  0
LINE
  5
9D43
  8
TITLE
 10
160.01480379454691
 20
36.095750854702658
 30
0.0
 11
160.20347116635199
 21
36.284418226511491
 31
0.0
  0
LINE
  5
9D44
  8
TITLE
 10
160.01480379454691
 20
36.008465982055213
 30
0.0
 11
160.2907560389994
 21
36.284418226511491
 31
0.0
  0
LINE
  5
9D45
  8
TITLE
 10
160.01480379454691
 20
36.270320599996808
 30
0.0
 11
160.02890142106509
 21
36.284418226511491
 31
0.0
  0
LINE
  5
9D46
  8
TITLE
 10
160.19255660353599
 20
37.233637262802858
 30
0.0
 11
160.23459834492371
 21
37.27567900419411
 31
0.0
  0
LINE
  5
9D47
  8
TITLE
 10
160.19255660353599
 20
37.146352390155869
 30
0.0
 11
160.32188321757079
 21
37.27567900419411
 31
0.0
  0
LINE
  5
9D48
  8
TITLE
 10
156.72587446894519
 20
34.290664364088173
 30
0.0
 11
157.5783065323082
 21
35.143096427454793
 31
0.0
  0
LINE
  5
9D49
  8
TITLE
 10
156.8131593415853
 20
34.290664364088173
 30
0.0
 11
157.66559140495571
 21
35.143096427454793
 31
0.0
  0
LINE
  5
9D4A
  8
TITLE
 10
156.90044421423241
 20
34.290664364088173
 30
0.0
 11
157.75287627760241
 21
35.143096427454793
 31
0.0
  0
LINE
  5
9D4B
  8
TITLE
 10
156.98772908687991
 20
34.290664364088173
 30
0.0
 11
157.8401611502498
 21
35.143096427454793
 31
0.0
  0
LINE
  5
9D4C
  8
TITLE
 10
157.07501395952681
 20
34.290664364088173
 30
0.0
 11
157.92744602288991
 21
35.143096427454793
 31
0.0
  0
LINE
  5
9D4D
  8
TITLE
 10
157.16229883217409
 20
34.290664364088173
 30
0.0
 11
158.0147308955369
 21
35.143096427454793
 31
0.0
  0
LINE
  5
9D4E
  8
TITLE
 10
157.24958370482119
 20
34.290664364088173
 30
0.0
 11
158.10201576818389
 21
35.143096427454793
 31
0.0
  0
LINE
  5
9D4F
  8
TITLE
 10
157.3368685774681
 20
34.290664364088173
 30
0.0
 11
158.18930064083099
 21
35.143096427454793
 31
0.0
  0
LINE
  5
9D50
  8
TITLE
 10
157.4241534501154
 20
34.290664364088173
 30
0.0
 11
158.27658551347849
 21
35.143096427454793
 31
0.0
  0
LINE
  5
9D51
  8
TITLE
 10
157.5114383227629
 20
34.290664364088173
 30
0.0
 11
158.3638703861254
 21
35.143096427454793
 31
0.0
  0
LINE
  5
9D52
  8
TITLE
 10
157.59872319540989
 20
34.290664364088173
 30
0.0
 11
158.45115525877301
 21
35.143096427454793
 31
0.0
  0
LINE
  5
9D53
  8
TITLE
 10
157.68600806804989
 20
34.290664364088173
 30
0.0
 11
158.5384401314198
 21
35.143096427454793
 31
0.0
  0
LINE
  5
9D54
  8
TITLE
 10
158.38428704922691
 20
34.290664364088173
 30
0.0
 11
159.23671911259021
 21
35.143096427454793
 31
0.0
  0
LINE
  5
9D55
  8
TITLE
 10
158.4715719218741
 20
34.290664364088173
 30
0.0
 11
159.32400398523711
 21
35.143096427454793
 31
0.0
  0
LINE
  5
9D56
  8
TITLE
 10
157.7732929406969
 20
34.290664364088173
 30
0.0
 11
158.62572500406711
 21
35.143096427454793
 31
0.0
  0
LINE
  5
9D57
  8
TITLE
 10
157.86057781334409
 20
34.290664364088173
 30
0.0
 11
158.7130098767139
 21
35.143096427454793
 31
0.0
  0
LINE
  5
9D58
  8
TITLE
 10
157.9478626859912
 20
34.290664364088173
 30
0.0
 11
158.800294749361
 21
35.143096427454793
 31
0.0
  0
LINE
  5
9D59
  8
TITLE
 10
158.03514755863819
 20
34.290664364088173
 30
0.0
 11
158.88757962200111
 21
35.143096427454793
 31
0.0
  0
LINE
  5
9D5A
  8
TITLE
 10
158.1224324312854
 20
34.290664364088173
 30
0.0
 11
158.97486449464819
 21
35.143096427454793
 31
0.0
  0
LINE
  5
9D5B
  8
TITLE
 10
158.20971730393271
 20
34.290664364088173
 30
0.0
 11
159.0621493672954
 21
35.143096427454793
 31
0.0
  0
LINE
  5
9D5C
  8
TITLE
 10
158.29700217657981
 20
34.290664364088173
 30
0.0
 11
159.14943423994251
 21
35.143096427454793
 31
0.0
  0
LINE
  5
9D5D
  8
TITLE
 10
162.68162286472409
 20
38.76256992488328
 30
0.0
 11
163.77434119120269
 21
39.855288251358161
 31
0.0
  0
LINE
  5
9D5E
  8
TITLE
 10
162.76890773737119
 20
38.76256992488328
 30
0.0
 11
163.86162606384991
 21
39.855288251358161
 31
0.0
  0
LINE
  5
9D5F
  8
TITLE
 10
162.8561926100181
 20
38.76256992488328
 30
0.0
 11
163.8775382128442
 21
39.783915527705581
 31
0.0
  0
LINE
  5
9D60
  8
TITLE
 10
162.94347748266529
 20
38.76256992488328
 30
0.0
 11
163.8775382128442
 21
39.696630655058591
 31
0.0
  0
LINE
  5
9D61
  8
TITLE
 10
163.0307623553125
 20
38.76256992488328
 30
0.0
 11
163.8775382128442
 21
39.609345782411417
 31
0.0
  0
LINE
  5
9D62
  8
TITLE
 10
163.72904133648271
 20
38.76256992488328
 30
0.0
 11
164.82175966296151
 21
39.855288251358161
 31
0.0
  0
LINE
  5
9D63
  8
TITLE
 10
163.11804722795989
 20
38.76256992488328
 30
0.0
 11
163.8775382128442
 21
39.522060909763873
 31
0.0
  0
LINE
  5
9D64
  8
TITLE
 10
163.20533210060711
 20
38.76256992488328
 30
0.0
 11
163.8775382128442
 21
39.434776037120521
 31
0.0
  0
LINE
  5
9D65
  8
TITLE
 10
163.29261697324691
 20
38.76256992488328
 30
0.0
 11
163.9447621570319
 21
39.414715108664673
 31
0.0
  0
LINE
  5
9D66
  8
TITLE
 10
163.37990184589421
 20
38.76256992488328
 30
0.0
 11
164.03204702967921
 21
39.414715108664673
 31
0.0
  0
LINE
  5
9D67
  8
TITLE
 10
163.46718671854109
 20
38.76256992488328
 30
0.0
 11
164.11933190232611
 21
39.414715108664673
 31
0.0
  0
LINE
  5
9D68
  8
TITLE
 10
163.55447159118819
 20
38.76256992488328
 30
0.0
 11
164.20661677497321
 21
39.414715108664673
 31
0.0
  0
LINE
  5
9D69
  8
TITLE
 10
163.64175646383541
 20
38.76256992488328
 30
0.0
 11
164.73447479031421
 21
39.855288251358161
 31
0.0
  0
LINE
  5
9D6A
  8
TITLE
 10
163.6106294081803
 20
37.771309270119673
 30
0.0
 11
164.4993693244235
 21
38.660049186359288
 31
0.0
  0
LINE
  5
9D6B
  8
TITLE
 10
163.69791428082701
 20
37.771309270119673
 30
0.0
 11
164.4775131302747
 21
38.550908119567509
 31
0.0
  0
LINE
  5
9D6C
  8
TITLE
 10
163.78519915347451
 20
37.771309270119673
 30
0.0
 11
164.45565693613321
 21
38.441767052771191
 31
0.0
  0
LINE
  5
9D6D
  8
TITLE
 10
163.8724840261217
 20
37.771309270119673
 30
0.0
 11
164.4463718124332
 21
38.345197056431289
 31
0.0
  0
LINE
  5
9D6E
  8
TITLE
 10
163.95976889876869
 20
37.771309270119673
 30
0.0
 11
164.5336566850801
 21
38.345197056431289
 31
0.0
  0
LINE
  5
9D6F
  8
TITLE
 10
164.0470537714159
 20
37.771309270119673
 30
0.0
 11
164.62094155772749
 21
38.345197056431289
 31
0.0
  0
LINE
  5
9D70
  8
TITLE
 10
164.13433864406309
 20
37.771309270119673
 30
0.0
 11
164.70822643037459
 21
38.345197056431289
 31
0.0
  0
LINE
  5
9D71
  8
TITLE
 10
164.22162351671
 20
37.771309270119673
 30
0.0
 11
164.79551130302141
 21
38.345197056431289
 31
0.0
  0
LINE
  5
9D72
  8
TITLE
 10
164.3089083893575
 20
37.771309270119673
 30
0.0
 11
164.88279617566889
 21
38.345197056431289
 31
0.0
  0
LINE
  5
9D73
  8
TITLE
 10
164.36673462751651
 20
39.662117833854779
 30
0.0
 11
164.55990504501989
 21
39.855288251358161
 31
0.0
  0
LINE
  5
9D74
  8
TITLE
 10
164.28895989131081
 20
39.497058225001808
 30
0.0
 11
164.64718991766711
 21
39.855288251358161
 31
0.0
  0
LINE
  5
9D75
  8
TITLE
 10
163.207541535377
 20
39.63762808612114
 30
0.0
 11
163.4252017006142
 21
39.855288251358161
 31
0.0
  0
LINE
  5
9D76
  8
TITLE
 10
163.207541535377
 20
39.55034321347415
 30
0.0
 11
163.51248657326121
 21
39.855288251358161
 31
0.0
  0
LINE
  5
9D77
  8
TITLE
 10
163.207541535377
 20
39.463058340826713
 30
0.0
 11
163.59977144590869
 21
39.855288251358161
 31
0.0
  0
LINE
  5
9D78
  8
TITLE
 10
163.207541535377
 20
39.812197831411773
 30
0.0
 11
163.2506319553199
 21
39.855288251358161
 31
0.0
  0
LINE
  5
9D79
  8
TITLE
 10
163.207541535377
 20
39.724912958764939
 30
0.0
 11
163.33791682796701
 21
39.855288251358161
 31
0.0
  0
LINE
  5
9D7A
  8
TITLE
 10
164.44450936371521
 20
39.827177442700702
 30
0.0
 11
164.47262017237301
 21
39.855288251358161
 31
0.0
  0
LINE
  5
9D7B
  8
TITLE
 10
163.2996798355062
 20
35.627377371866373
 30
0.0
 11
163.9567206901514
 21
36.284418226511491
 31
0.0
  0
LINE
  5
9D7C
  8
TITLE
 10
163.3310471763821
 20
35.571459840098157
 30
0.0
 11
164.0440055627983
 21
36.284418226511491
 31
0.0
  0
LINE
  5
9D7D
  8
TITLE
 10
163.3635807430029
 20
35.516708534072158
 30
0.0
 11
164.13129043544569
 21
36.284418226511491
 31
0.0
  0
LINE
  5
9D7E
  8
TITLE
 10
163.39725859875361
 20
35.463101517168873
 30
0.0
 11
164.21857530809271
 21
36.284418226511491
 31
0.0
  0
LINE
  5
9D7F
  8
TITLE
 10
163.43206153260971
 20
35.410619578384683
 30
0.0
 11
164.30586018074001
 21
36.284418226511491
 31
0.0
  0
LINE
  5
9D80
  8
TITLE
 10
163.46797286119991
 20
35.359246034324322
 30
0.0
 11
164.393145053387
 21
36.284418226511491
 31
0.0
  0
LINE
  5
9D81
  8
TITLE
 10
163.50497826261449
 20
35.308966563095787
 30
0.0
 11
164.48042992603411
 21
36.284418226511491
 31
0.0
  0
LINE
  5
9D82
  8
TITLE
 10
163.5430656380579
 20
35.259769065887838
 30
0.0
 11
164.56771479868129
 21
36.284418226511491
 31
0.0
  0
LINE
  5
9D83
  8
TITLE
 10
163.58222499792549
 20
35.211643553111969
 30
0.0
 11
164.65499967132121
 21
36.284418226511491
 31
0.0
  0
LINE
  5
9D84
  8
TITLE
 10
163.6224483699082
 20
35.164582052454818
 30
0.0
 11
164.74228454396851
 21
36.284418226511491
 31
0.0
  0
LINE
  5
9D85
  8
TITLE
 10
164.33393915069371
 20
35.788787960585807
 30
0.0
 11
164.8295694166157
 21
36.284418226511491
 31
0.0
  0
LINE
  5
9D86
  8
TITLE
 10
163.98220800560901
 20
34.826062706977837
 30
0.0
 11
164.54817926948439
 21
35.392033970853852
 31
0.0
  0
LINE
  5
9D87
  8
TITLE
 10
164.0319597108282
 20
34.788529539550268
 30
0.0
 11
164.58906959329639
 21
35.345639422015147
 31
0.0
  0
LINE
  5
9D88
  8
TITLE
 10
164.082799332631
 20
34.752084288709632
 30
0.0
 11
164.63230346866291
 21
35.301588424737758
 31
0.0
  0
LINE
  5
9D89
  8
TITLE
 10
164.13474009566539
 20
34.716740179100498
 30
0.0
 11
164.67787736179719
 21
35.2598774452253
 31
0.0
  0
LINE
  5
9D8A
  8
TITLE
 10
164.1877975154905
 20
34.682512726274808
 30
0.0
 11
164.72580804164619
 21
35.220523252430162
 31
0.0
  0
LINE
  5
9D8B
  8
TITLE
 10
164.24198955075011
 20
34.649419888890748
 30
0.0
 11
164.77613331764101
 21
35.183563655778023
 31
0.0
  0
LINE
  5
9D8C
  8
TITLE
 10
164.29733678512159
 20
34.617482250611381
 30
0.0
 11
164.82891374685011
 21
35.14905921234373
 31
0.0
  0
LINE
  5
9D8D
  8
TITLE
 10
164.35386264349651
 20
34.586723236342841
 30
0.0
 11
164.8842354959979
 21
35.117096088840533
 31
0.0
  0
LINE
  5
9D8E
  8
TITLE
 10
163.88592616740991
 20
34.904350614073223
 30
0.0
 11
164.47354676054999
 21
35.491971207213851
 31
0.0
  0
LINE
  5
9D8F
  8
TITLE
 10
163.93353315712409
 20
34.864672731136856
 30
0.0
 11
164.509656488248
 21
35.440796062264162
 31
0.0
  0
LINE
  5
9D90
  8
TITLE
 10
162.66124580890181
 20
34.290664364088173
 30
0.0
 11
163.29115615205899
 21
34.920574707245407
 31
0.0
  0
LINE
  5
9D91
  8
TITLE
 10
162.74853068154891
 20
34.290664364088173
 30
0.0
 11
163.29115615205899
 21
34.833289834598702
 31
0.0
  0
LINE
  5
9D92
  8
TITLE
 10
162.8358155541959
 20
34.290664364088173
 30
0.0
 11
163.29115615205899
 21
34.746004961954782
 31
0.0
  0
LINE
  5
9D93
  8
TITLE
 10
162.92310042684301
 20
34.290664364088173
 30
0.0
 11
163.29115615205899
 21
34.65872008930797
 31
0.0
  0
LINE
  5
9D94
  8
TITLE
 10
163.01038529949011
 20
34.290664364088173
 30
0.0
 11
163.29115615205899
 21
34.571435216660518
 31
0.0
  0
LINE
  5
9D95
  8
TITLE
 10
163.09767017213741
 20
34.290664364088173
 30
0.0
 11
163.29115615205899
 21
34.484150344016832
 31
0.0
  0
LINE
  5
9D96
  8
TITLE
 10
163.1849550447775
 20
34.290664364088173
 30
0.0
 11
163.29115615205899
 21
34.396865471369722
 31
0.0
  0
LINE
  5
9D97
  8
TITLE
 10
163.27223991742451
 20
34.290664364088173
 30
0.0
 11
163.29115615205899
 21
34.309580598722668
 31
0.0
  0
LINE
  5
9D98
  8
TITLE
 10
163.6637297269321
 20
35.118578536827897
 30
0.0
 11
164.3326775665717
 21
35.787526376463802
 31
0.0
  0
LINE
  5
9D99
  8
TITLE
 10
163.7060649334781
 20
35.073628870726907
 30
0.0
 11
164.35505693159629
 21
35.722620868848942
 31
0.0
  0
LINE
  5
9D9A
  8
TITLE
 10
163.74945170916109
 20
35.029730773762481
 30
0.0
 11
164.38052671146269
 21
35.660805776067889
 31
0.0
  0
LINE
  5
9D9B
  8
TITLE
 10
163.7938896087621
 20
34.986883800719852
 30
0.0
 11
164.40886986011941
 21
35.601864052077481
 31
0.0
  0
LINE
  5
9D9C
  8
TITLE
 10
163.83938001836279
 20
34.945089337666332
 30
0.0
 11
164.43991920055021
 21
35.545628519861047
 31
0.0
  0
LINE
  5
9D9D
  8
TITLE
 10
163.7279863396403
 20
36.753962857166933
 30
0.0
 11
164.24970248666381
 21
37.27567900419411
 31
0.0
  0
LINE
  5
9D9E
  8
TITLE
 10
163.81527121228751
 20
36.753962857166933
 30
0.0
 11
164.33698735931131
 21
37.27567900419411
 31
0.0
  0
LINE
  5
9D9F
  8
TITLE
 10
163.90255608492731
 20
36.753962857166933
 30
0.0
 11
164.42427223195821
 21
37.27567900419411
 31
0.0
  0
LINE
  5
9DA0
  8
TITLE
 10
163.98984095757501
 20
36.753962857166933
 30
0.0
 11
164.5115571046054
 21
37.27567900419411
 31
0.0
  0
LINE
  5
9DA1
  8
TITLE
 10
163.29156197640449
 20
36.753962857166933
 30
0.0
 11
163.8132781234282
 21
37.27567900419411
 31
0.0
  0
LINE
  5
9DA2
  8
TITLE
 10
163.378846849052
 20
36.753962857166933
 30
0.0
 11
163.90056299607539
 21
37.27567900419411
 31
0.0
  0
LINE
  5
9DA3
  8
TITLE
 10
163.4661317216991
 20
36.753962857166933
 30
0.0
 11
163.9878478687225
 21
37.27567900419411
 31
0.0
  0
LINE
  5
9DA4
  8
TITLE
 10
163.55341659434589
 20
36.753962857166933
 30
0.0
 11
164.0751327413696
 21
37.27567900419411
 31
0.0
  0
LINE
  5
9DA5
  8
TITLE
 10
163.64070146699299
 20
36.753962857166933
 30
0.0
 11
164.16241761401699
 21
37.27567900419411
 31
0.0
  0
LINE
  5
9DA6
  8
TITLE
 10
164.0771258302218
 20
36.753962857166933
 30
0.0
 11
164.59884197725259
 21
37.27567900419411
 31
0.0
  0
LINE
  5
9DA7
  8
TITLE
 10
164.16441070286911
 20
36.753962857166933
 30
0.0
 11
164.6861268498925
 21
37.27567900419411
 31
0.0
  0
LINE
  5
9DA8
  8
TITLE
 10
164.25169557551601
 20
36.753962857166933
 30
0.0
 11
164.77341172253969
 21
37.27567900419411
 31
0.0
  0
LINE
  5
9DA9
  8
TITLE
 10
164.33898044816311
 20
36.753962857166933
 30
0.0
 11
164.86069659518699
 21
37.27567900419411
 31
0.0
  0
LINE
  5
9DAA
  8
TITLE
 10
160.84864053914799
 20
38.76256992488328
 30
0.0
 11
161.5007857229329
 21
39.414715108664673
 31
0.0
  0
LINE
  5
9DAB
  8
TITLE
 10
160.93592541179521
 20
38.76256992488328
 30
0.0
 11
161.5880705955804
 21
39.414715108664673
 31
0.0
  0
LINE
  5
9DAC
  8
TITLE
 10
161.02321028444251
 20
38.76256992488328
 30
0.0
 11
161.67535546822739
 21
39.414715108664673
 31
0.0
  0
LINE
  5
9DAD
  8
TITLE
 10
161.11049515708939
 20
38.76256992488328
 30
0.0
 11
161.76264034086751
 21
39.414715108664673
 31
0.0
  0
LINE
  5
9DAE
  8
TITLE
 10
161.17767471993719
 20
38.742464615086881
 30
0.0
 11
162.29049835620819
 21
39.855288251358161
 31
0.0
  0
LINE
  5
9DAF
  8
TITLE
 10
161.98334388355411
 20
38.76256992488328
 30
0.0
 11
162.6354890673316
 21
39.414715108664673
 31
0.0
  0
LINE
  5
9DB0
  8
TITLE
 10
160.81751348349269
 20
37.771309270119673
 30
0.0
 11
162.486006723803
 21
39.439802510422801
 31
0.0
  0
LINE
  5
9DB1
  8
TITLE
 10
160.90479835613971
 20
37.771309270119673
 30
0.0
 11
162.54820419469189
 21
39.414715108664673
 31
0.0
  0
LINE
  5
9DB2
  8
TITLE
 10
161.23592678136589
 20
38.451577185927192
 30
0.0
 11
162.486006723803
 21
39.701657128360686
 31
0.0
  0
LINE
  5
9DB3
  8
TITLE
 10
161.25048979672309
 20
38.378855328637137
 30
0.0
 11
162.486006723803
 21
39.614372255717058
 31
0.0
  0
LINE
  5
9DB4
  8
TITLE
 10
161.19223773529441
 20
38.669742757797231
 30
0.0
 11
162.37778322885549
 21
39.855288251358161
 31
0.0
  0
LINE
  5
9DB5
  8
TITLE
 10
161.2068007506515
 20
38.597020900507061
 30
0.0
 11
162.46506810150291
 21
39.855288251358161
 31
0.0
  0
LINE
  5
9DB6
  8
TITLE
 10
161.22136376600889
 20
38.524299043217518
 30
0.0
 11
162.486006723803
 21
39.788942001008138
 31
0.0
  0
LINE
  5
9DB7
  8
TITLE
 10
160.99208322878721
 20
37.771309270119673
 30
0.0
 11
161.9485379775079
 21
38.727764018840098
 31
0.0
  0
LINE
  5
9DB8
  8
TITLE
 10
161.07936810143389
 20
37.771309270119673
 30
0.0
 11
161.9631009928649
 21
38.655042161550568
 31
0.0
  0
LINE
  5
9DB9
  8
TITLE
 10
161.1666529740813
 20
37.771309270119673
 30
0.0
 11
161.97766400822189
 21
38.582320304256882
 31
0.0
  0
LINE
  5
9DBA
  8
TITLE
 10
161.25393784672849
 20
37.771309270119673
 30
0.0
 11
161.99222702357889
 21
38.50959844696672
 31
0.0
  0
LINE
  5
9DBB
  8
TITLE
 10
161.34122271937559
 20
37.771309270119673
 30
0.0
 11
162.00679003893629
 21
38.436876589676729
 31
0.0
  0
LINE
  5
9DBC
  8
TITLE
 10
161.42850759202281
 20
37.771309270119673
 30
0.0
 11
162.02135305428621
 21
38.364154732383042
 31
0.0
  0
LINE
  5
9DBD
  8
TITLE
 10
161.5157924646698
 20
37.771309270119673
 30
0.0
 11
162.08968025098139
 21
38.345197056431289
 31
0.0
  0
LINE
  5
9DBE
  8
TITLE
 10
161.6030773373171
 20
37.771309270119673
 30
0.0
 11
162.17696512362841
 21
38.345197056431289
 31
0.0
  0
LINE
  5
9DBF
  8
TITLE
 10
161.69036220995719
 20
37.771309270119673
 30
0.0
 11
162.26424999627571
 21
38.345197056431289
 31
0.0
  0
LINE
  5
9DC0
  8
TITLE
 10
161.7776470826042
 20
37.771309270119673
 30
0.0
 11
162.35153486891519
 21
38.345197056431289
 31
0.0
  0
LINE
  5
9DC1
  8
TITLE
 10
161.86493195525139
 20
37.771309270119673
 30
0.0
 11
162.43881974156301
 21
38.345197056431289
 31
0.0
  0
LINE
  5
9DC2
  8
TITLE
 10
161.9522168278985
 20
37.771309270119673
 30
0.0
 11
162.52610461421
 21
38.345197056431289
 31
0.0
  0
LINE
  5
9DC3
  8
TITLE
 10
162.03950170054591
 20
37.771309270119673
 30
0.0
 11
162.61338948685699
 21
38.345197056431289
 31
0.0
  0
LINE
  5
9DC4
  8
TITLE
 10
161.8160100463358
 20
39.642654559420073
 30
0.0
 11
162.0286437382741
 21
39.855288251358161
 31
0.0
  0
LINE
  5
9DC5
  8
TITLE
 10
161.8160100463358
 20
39.555369686772792
 30
0.0
 11
162.11592861092109
 21
39.855288251358161
 31
0.0
  0
LINE
  5
9DC6
  8
TITLE
 10
161.8160100463358
 20
39.468084814125632
 30
0.0
 11
162.20321348356819
 21
39.855288251358161
 31
0.0
  0
LINE
  5
9DC7
  8
TITLE
 10
161.8160100463358
 20
39.817224304714209
 30
0.0
 11
161.85407399298009
 21
39.855288251358161
 31
0.0
  0
LINE
  5
9DC8
  8
TITLE
 10
161.8160100463358
 20
39.729939432067063
 30
0.0
 11
161.94135886562691
 21
39.855288251358161
 31
0.0
  0
LINE
  5
9DC9
  8
TITLE
 10
160.84254424483629
 20
35.788787960585807
 30
0.0
 11
161.33817451075819
 21
36.284418226511491
 31
0.0
  0
LINE
  5
9DCA
  8
TITLE
 10
160.92982911748351
 20
35.788787960585807
 30
0.0
 11
161.4254593834051
 21
36.284418226511491
 31
0.0
  0
LINE
  5
9DCB
  8
TITLE
 10
161.0171139901305
 20
35.788787960585807
 30
0.0
 11
161.51274425605251
 21
36.284418226511491
 31
0.0
  0
LINE
  5
9DCC
  8
TITLE
 10
161.10439886277771
 20
35.788787960585807
 30
0.0
 11
161.60002912869979
 21
36.284418226511491
 31
0.0
  0
LINE
  5
9DCD
  8
TITLE
 10
161.19168373541771
 20
35.788787960585807
 30
0.0
 11
161.68731400134669
 21
36.284418226511491
 31
0.0
  0
LINE
  5
9DCE
  8
TITLE
 10
161.2789686080651
 20
35.788787960585807
 30
0.0
 11
161.77459887399411
 21
36.284418226511491
 31
0.0
  0
LINE
  5
9DCF
  8
TITLE
 10
161.3589777037536
 20
35.781512183627513
 30
0.0
 11
161.8618837466411
 21
36.284418226511491
 31
0.0
  0
LINE
  5
9DD0
  8
TITLE
 10
161.3023556488501
 20
35.637605256076817
 30
0.0
 11
161.9491686192809
 21
36.284418226511491
 31
0.0
  0
LINE
  5
9DD1
  8
TITLE
 10
161.15161035021339
 20
35.399575084792957
 30
0.0
 11
162.0364534919282
 21
36.284418226511491
 31
0.0
  0
LINE
  5
9DD2
  8
TITLE
 10
161.44498062361521
 20
34.645526886440052
 30
0.0
 11
162.35071042157571
 21
35.551256684396833
 31
0.0
  0
LINE
  5
9DD3
  8
TITLE
 10
161.71786840926319
 20
34.831129799436781
 30
0.0
 11
162.16510750857549
 21
35.27836889874937
 31
0.0
  0
LINE
  5
9DD4
  8
TITLE
 10
160.84758554230569
 20
36.753962857166933
 30
0.0
 11
161.36930168932929
 21
37.27567900419411
 31
0.0
  0
LINE
  5
9DD5
  8
TITLE
 10
160.93487041495291
 20
36.753962857166933
 30
0.0
 11
161.45658656197691
 21
37.27567900419411
 31
0.0
  0
LINE
  5
9DD6
  8
TITLE
 10
161.02215528759999
 20
36.753962857166933
 30
0.0
 11
161.5438714346237
 21
37.27567900419411
 31
0.0
  0
LINE
  5
9DD7
  8
TITLE
 10
161.1094401602472
 20
36.753962857166933
 30
0.0
 11
161.63115630727091
 21
37.27567900419411
 31
0.0
  0
LINE
  5
9DD8
  8
TITLE
 10
161.196725032887
 20
36.753962857166933
 30
0.0
 11
161.71844117991819
 21
37.27567900419411
 31
0.0
  0
LINE
  5
9DD9
  8
TITLE
 10
161.28400990553411
 20
36.753962857166933
 30
0.0
 11
161.80572605256521
 21
37.27567900419411
 31
0.0
  0
LINE
  5
9DDA
  8
TITLE
 10
161.37129477818161
 20
36.753962857166933
 30
0.0
 11
161.89301092520549
 21
37.27567900419411
 31
0.0
  0
LINE
  5
9DDB
  8
TITLE
 10
161.45857965082891
 20
36.753962857166933
 30
0.0
 11
161.98029579785251
 21
37.27567900419411
 31
0.0
  0
LINE
  5
9DDC
  8
TITLE
 10
161.5458645234759
 20
36.753962857166933
 30
0.0
 11
162.0675806704995
 21
37.27567900419411
 31
0.0
  0
LINE
  5
9DDD
  8
TITLE
 10
161.63314939612309
 20
36.753962857166933
 30
0.0
 11
162.15486554314671
 21
37.27567900419411
 31
0.0
  0
LINE
  5
9DDE
  8
TITLE
 10
161.72043426876991
 20
36.753962857166933
 30
0.0
 11
162.2421504157937
 21
37.27567900419411
 31
0.0
  0
LINE
  5
9DDF
  8
TITLE
 10
161.80771914141729
 20
36.753962857166933
 30
0.0
 11
162.3294352884412
 21
37.27567900419411
 31
0.0
  0
LINE
  5
9DE0
  8
TITLE
 10
162.5943379920771
 20
38.76256992488328
 30
0.0
 11
163.6870563185557
 21
39.855288251358161
 31
0.0
  0
LINE
  5
9DE1
  8
TITLE
 10
162.41976824678241
 20
38.76256992488328
 30
0.0
 11
163.07191343056769
 21
39.414715108664673
 31
0.0
  0
LINE
  5
9DE2
  8
TITLE
 10
162.50705311942991
 20
38.76256992488328
 30
0.0
 11
163.15919830321479
 21
39.414715108664673
 31
0.0
  0
LINE
  5
9DE3
  8
TITLE
 10
162.0706287562011
 20
38.76256992488328
 30
0.0
 11
162.72277393997899
 21
39.414715108664673
 31
0.0
  0
LINE
  5
9DE4
  8
TITLE
 10
162.15791362884809
 20
38.76256992488328
 30
0.0
 11
162.81005881262621
 21
39.414715108664673
 31
0.0
  0
LINE
  5
9DE5
  8
TITLE
 10
162.24519850149571
 20
38.76256992488328
 30
0.0
 11
162.897343685273
 21
39.414715108664673
 31
0.0
  0
LINE
  5
9DE6
  8
TITLE
 10
162.3324833741425
 20
38.76256992488328
 30
0.0
 11
162.9846285579205
 21
39.414715108664673
 31
0.0
  0
LINE
  5
9DE7
  8
TITLE
 10
160.83596690959479
 20
34.38565266300418
 30
0.0
 11
163.7259932507811
 21
37.27567900419411
 31
0.0
  0
LINE
  5
9DE8
  8
TITLE
 10
162.40239210711391
 20
34.81737451612122
 30
0.0
 11
163.8694358175041
 21
36.284418226511491
 31
0.0
  0
LINE
  5
9DE9
  8
TITLE
 10
160.96226088844699
 20
34.424661769209543
 30
0.0
 11
163.29115615205899
 21
36.753557032821448
 31
0.0
  0
LINE
  5
9DEA
  8
TITLE
 10
161.10075752885311
 20
34.475873536971847
 30
0.0
 11
163.29115615205899
 21
36.666272160174628
 31
0.0
  0
LINE
  5
9DEB
  8
TITLE
 10
161.25724562885301
 20
34.545076764320868
 30
0.0
 11
163.29115615205899
 21
36.578987287530822
 31
0.0
  0
LINE
  5
9DEC
  8
TITLE
 10
162.40239210711391
 20
34.991944261411852
 30
0.0
 11
163.69486607220969
 21
36.284418226511491
 31
0.0
  0
LINE
  5
9DED
  8
TITLE
 10
162.40239210711391
 20
34.904659388768273
 30
0.0
 11
163.78215094485711
 21
36.284418226511491
 31
0.0
  0
LINE
  5
9DEE
  8
TITLE
 10
162.40239210711391
 20
35.60293836994191
 30
0.0
 11
163.29115615205899
 21
36.491702414883548
 31
0.0
  0
LINE
  5
9DEF
  8
TITLE
 10
162.40239210711391
 20
35.515653497294579
 30
0.0
 11
163.29115615205899
 21
36.404417542236217
 31
0.0
  0
LINE
  5
9DF0
  8
TITLE
 10
162.40239210711391
 20
35.42836862464776
 30
0.0
 11
163.29115615205899
 21
36.317132669592873
 31
0.0
  0
LINE
  5
9DF1
  8
TITLE
 10
162.40239210711391
 20
35.341083752000323
 30
0.0
 11
163.34572658162821
 21
36.284418226511491
 31
0.0
  0
LINE
  5
9DF2
  8
TITLE
 10
162.40239210711391
 20
35.253798879353042
 30
0.0
 11
163.43301145427549
 21
36.284418226511491
 31
0.0
  0
LINE
  5
9DF3
  8
TITLE
 10
162.40239210711391
 20
35.166514006706173
 30
0.0
 11
163.52029632692251
 21
36.284418226511491
 31
0.0
  0
LINE
  5
9DF4
  8
TITLE
 10
162.40239210711391
 20
35.079229134059183
 30
0.0
 11
163.60758119956989
 21
36.284418226511491
 31
0.0
  0
LINE
  5
9DF5
  8
TITLE
 10
162.40239210711391
 20
34.730089643477868
 30
0.0
 11
163.29115615205899
 21
35.618853688419222
 31
0.0
  0
LINE
  5
9DF6
  8
TITLE
 10
162.40239210711391
 20
34.642804770830708
 30
0.0
 11
163.29115615205899
 21
35.531568815772232
 31
0.0
  0
LINE
  5
9DF7
  8
TITLE
 10
162.40239210711391
 20
34.55551989818332
 30
0.0
 11
163.29115615205899
 21
35.444283943124901
 31
0.0
  0
LINE
  5
9DF8
  8
TITLE
 10
162.40239210711391
 20
34.468235025535989
 30
0.0
 11
163.29115615205899
 21
35.356999070481152
 31
0.0
  0
LINE
  5
9DF9
  8
TITLE
 10
162.40239210711391
 20
34.380950152888772
 30
0.0
 11
163.29115615205899
 21
35.269714197834283
 31
0.0
  0
LINE
  5
9DFA
  8
TITLE
 10
162.40239210711391
 20
34.293665280241733
 30
0.0
 11
163.29115615205899
 21
35.182429325187002
 31
0.0
  0
LINE
  5
9DFB
  8
TITLE
 10
162.48667606360749
 20
34.290664364088173
 30
0.0
 11
163.29115615205899
 21
35.095144452540133
 31
0.0
  0
LINE
  5
9DFC
  8
TITLE
 10
162.57396093625431
 20
34.290664364088173
 30
0.0
 11
163.29115615205899
 21
35.007859579892681
 31
0.0
  0
LINE
  5
9DFD
  8
TITLE
 10
162.40239210711391
 20
37.610490440808519
 30
0.0
 11
163.13709872274021
 21
38.345197056431289
 31
0.0
  0
LINE
  5
9DFE
  8
TITLE
 10
162.40239210711391
 20
37.523205568161423
 30
0.0
 11
163.22438359538009
 21
38.345197056431289
 31
0.0
  0
LINE
  5
9DFF
  8
TITLE
 10
162.40239210711391
 20
37.435920695517723
 30
0.0
 11
163.31166846802699
 21
38.345197056431289
 31
0.0
  0
LINE
  5
9E00
  8
TITLE
 10
162.40239210711391
 20
37.348635822870897
 30
0.0
 11
163.39895334067421
 21
38.345197056431289
 31
0.0
  0
LINE
  5
9E01
  8
TITLE
 10
161.89500401406451
 20
36.753962857166933
 30
0.0
 11
163.4862382133212
 21
38.345197056431289
 31
0.0
  0
LINE
  5
9E02
  8
TITLE
 10
161.98228888671139
 20
36.753962857166933
 30
0.0
 11
163.5735230859685
 21
38.345197056431289
 31
0.0
  0
LINE
  5
9E03
  8
TITLE
 10
162.0695737593515
 20
36.753962857166933
 30
0.0
 11
163.66080795861569
 21
38.345197056431289
 31
0.0
  0
LINE
  5
9E04
  8
TITLE
 10
162.12678657319299
 20
37.771309270119673
 30
0.0
 11
162.70067435950421
 21
38.345197056431289
 31
0.0
  0
LINE
  5
9E05
  8
TITLE
 10
162.21407144584009
 20
37.771309270119673
 30
0.0
 11
162.78795923215151
 21
38.345197056431289
 31
0.0
  0
LINE
  5
9E06
  8
TITLE
 10
162.30135631848719
 20
37.771309270119673
 30
0.0
 11
162.87524410479841
 21
38.345197056431289
 31
0.0
  0
LINE
  5
9E07
  8
TITLE
 10
162.3886411911345
 20
37.771309270119673
 30
0.0
 11
162.96252897744569
 21
38.345197056431289
 31
0.0
  0
LINE
  5
9E08
  8
TITLE
 10
162.40239210711391
 20
37.697775313452041
 30
0.0
 11
163.0498138500929
 21
38.345197056431289
 31
0.0
  0
LINE
  5
9E09
  8
TITLE
 10
162.33142837729301
 20
36.753962857166933
 30
0.0
 11
163.29115615205899
 21
37.713690631932877
 31
0.0
  0
LINE
  5
9E0A
  8
TITLE
 10
162.40239210711391
 20
36.737641714344143
 30
0.0
 11
163.29115615205899
 21
37.626405759286001
 31
0.0
  0
LINE
  5
9E0B
  8
TITLE
 10
162.40239210711391
 20
36.650356841696798
 30
0.0
 11
163.29115615205899
 21
37.539120886638727
 31
0.0
  0
LINE
  5
9E0C
  8
TITLE
 10
162.40239210711391
 20
36.563071969049993
 30
0.0
 11
163.29115615205899
 21
37.451836013995091
 31
0.0
  0
LINE
  5
9E0D
  8
TITLE
 10
162.40239210711391
 20
36.475787096406179
 30
0.0
 11
163.29115615205899
 21
37.364551141347818
 31
0.0
  0
LINE
  5
9E0E
  8
TITLE
 10
162.40239210711391
 20
36.388502223759311
 30
0.0
 11
163.29115615205899
 21
37.277266268700657
 31
0.0
  0
LINE
  5
9E0F
  8
TITLE
 10
162.40239210711391
 20
36.301217351111923
 30
0.0
 11
163.37685376019991
 21
37.27567900419411
 31
0.0
  0
LINE
  5
9E10
  8
TITLE
 10
169.8750000000002
 20
52.5
 30
0.0
 11
169.8750000000002
 21
42.5
 31
0.0
  0
LINE
  5
9E11
  8
TITLE
 10
168.42128167881509
 20
38.828712016948721
 30
0.0
 11
169.43993198529949
 21
39.847362323440223
 31
0.0
  0
LINE
  5
9E12
  8
TITLE
 10
168.42128167881509
 20
38.741427144301497
 30
0.0
 11
169.43993198529949
 21
39.760077450793062
 31
0.0
  0
LINE
  5
9E13
  8
TITLE
 10
168.42128167881509
 20
38.04314816313115
 30
0.0
 11
169.5059047926471
 21
39.127771276966712
 31
0.0
  0
LINE
  5
9E14
  8
TITLE
 10
168.5011941101375
 20
38.035775721813707
 30
0.0
 11
169.59318966529409
 21
39.127771276966712
 31
0.0
  0
LINE
  5
9E15
  8
TITLE
 10
168.42128167881509
 20
38.479572526363199
 30
0.0
 11
169.43993198529949
 21
39.498222832851638
 31
0.0
  0
LINE
  5
9E16
  8
TITLE
 10
168.42128167881509
 20
38.39228765371638
 30
0.0
 11
169.43989151933371
 21
39.410897494238327
 31
0.0
  0
LINE
  5
9E17
  8
TITLE
 10
168.42128167881509
 20
38.305002781072687
 30
0.0
 11
169.43609377269621
 21
39.319814874953749
 31
0.0
  0
LINE
  5
9E18
  8
TITLE
 10
168.42128167881509
 20
38.217717908425868
 30
0.0
 11
169.42584509583921
 21
39.222281325453253
 31
0.0
  0
LINE
  5
9E19
  8
TITLE
 10
168.42128167881509
 20
38.130433035778417
 30
0.0
 11
169.41861991999971
 21
39.127771276966712
 31
0.0
  0
LINE
  5
9E1A
  8
TITLE
 10
168.66841769994761
 20
38.115714438969633
 30
0.0
 11
169.680474537941
 21
39.127771276966712
 31
0.0
  0
LINE
  5
9E1B
  8
TITLE
 10
168.42128167881509
 20
38.654142271654159
 30
0.0
 11
169.43993198529949
 21
39.672792578145732
 31
0.0
  0
LINE
  5
9E1C
  8
TITLE
 10
168.42128167881509
 20
38.56685739900712
 30
0.0
 11
169.43993198529949
 21
39.58550770549909
 31
0.0
  0
LINE
  5
9E1D
  8
TITLE
 10
168.65429324818709
 20
39.149008458971359
 30
0.0
 11
169.36057304057769
 21
39.855288251358161
 31
0.0
  0
LINE
  5
9E1E
  8
TITLE
 10
168.73471248846261
 20
39.578567189831688
 30
0.0
 11
169.01143354998879
 21
39.855288251358161
 31
0.0
  0
LINE
  5
9E1F
  8
TITLE
 10
168.73471248846261
 20
39.491282317184698
 30
0.0
 11
169.0987184226361
 21
39.855288251358161
 31
0.0
  0
LINE
  5
9E20
  8
TITLE
 10
168.73041054111431
 20
39.399695497189157
 30
0.0
 11
169.18600329528309
 21
39.855288251358161
 31
0.0
  0
LINE
  5
9E21
  8
TITLE
 10
168.70820579424071
 20
39.290205877672122
 30
0.0
 11
169.2732881679303
 21
39.855288251358161
 31
0.0
  0
LINE
  5
9E22
  8
TITLE
 10
168.42128167881509
 20
34.551753257273958
 30
0.0
 11
169.7182866230057
 21
35.848758201464079
 31
0.0
  0
LINE
  5
9E23
  8
TITLE
 10
168.56234162742791
 20
34.605528333243278
 30
0.0
 11
169.60698555393441
 21
35.650172259746228
 31
0.0
  0
LINE
  5
9E24
  8
TITLE
 10
168.83996139452671
 20
34.795863227694838
 30
0.0
 11
169.41665065948271
 21
35.372552492647117
 31
0.0
  0
LINE
  5
9E25
  8
TITLE
 10
168.66624012647159
 20
35.756845304045441
 30
0.0
 11
170.68070409254921
 21
37.771309270119673
 31
0.0
  0
LINE
  5
9E26
  8
TITLE
 10
168.42128167881509
 20
35.424601983738121
 30
0.0
 11
170.76798896519651
 21
37.771309270119673
 31
0.0
  0
LINE
  5
9E27
  8
TITLE
 10
168.96920274991481
 20
36.23437767277926
 30
0.0
 11
170.56305938401789
 21
37.82823430687904
 31
0.0
  0
LINE
  5
9E28
  8
TITLE
 10
168.85657310276889
 20
36.034463152986291
 30
0.0
 11
170.59341921990219
 21
37.771309270119673
 31
0.0
  0
LINE
  5
9E29
  8
TITLE
 10
168.42231796777051
 20
37.171335725622221
 30
0.0
 11
169.02229151226089
 21
37.771309270119673
 31
0.0
  0
LINE
  5
9E2A
  8
TITLE
 10
168.5096028404177
 20
37.171335725622221
 30
0.0
 11
169.10957638490791
 21
37.771309270119673
 31
0.0
  0
LINE
  5
9E2B
  8
TITLE
 10
168.59688771306469
 20
37.171335725622221
 30
0.0
 11
169.1968612575551
 21
37.771309270119673
 31
0.0
  0
LINE
  5
9E2C
  8
TITLE
 10
168.68417258570469
 20
37.171335725622221
 30
0.0
 11
169.284146130202
 21
37.771309270119673
 31
0.0
  0
LINE
  5
9E2D
  8
TITLE
 10
168.7714574583519
 20
37.171335725622221
 30
0.0
 11
169.37143100284919
 21
37.771309270119673
 31
0.0
  0
LINE
  5
9E2E
  8
TITLE
 10
168.85874233099901
 20
37.171335725622221
 30
0.0
 11
169.45871587549641
 21
37.771309270119673
 31
0.0
  0
LINE
  5
9E2F
  8
TITLE
 10
168.9460272036462
 20
37.171335725622221
 30
0.0
 11
169.5460007481436
 21
37.771309270119673
 31
0.0
  0
LINE
  5
9E30
  8
TITLE
 10
168.42128167881509
 20
34.98817762050237
 30
0.0
 11
171.20441332842489
 21
37.771309270119673
 31
0.0
  0
LINE
  5
9E31
  8
TITLE
 10
168.42128167881509
 20
34.813607875211801
 30
0.0
 11
171.37898307371921
 21
37.771309270119673
 31
0.0
  0
LINE
  5
9E32
  8
TITLE
 10
168.42128167881509
 20
34.726323002564811
 30
0.0
 11
171.46626794636649
 21
37.771309270119673
 31
0.0
  0
LINE
  5
9E33
  8
TITLE
 10
168.42128167881509
 20
34.639038129921239
 30
0.0
 11
171.5535528190139
 21
37.771309270119673
 31
0.0
  0
LINE
  5
9E34
  8
TITLE
 10
168.42128167881509
 20
34.900892747859082
 30
0.0
 11
171.29169820107239
 21
37.771309270119673
 31
0.0
  0
LINE
  5
9E35
  8
TITLE
 10
168.42128167881509
 20
35.162747365796861
 30
0.0
 11
171.0298435831308
 21
37.771309270119673
 31
0.0
  0
LINE
  5
9E36
  8
TITLE
 10
168.42128167881509
 20
35.075462493149701
 30
0.0
 11
171.1171284557779
 21
37.771309270119673
 31
0.0
  0
LINE
  5
9E37
  8
TITLE
 10
168.42128167881509
 20
35.337317111091302
 30
0.0
 11
170.85527383783639
 21
37.771309270119673
 31
0.0
  0
LINE
  5
9E38
  8
TITLE
 10
168.42128167881509
 20
35.25003223844385
 30
0.0
 11
170.94255871048381
 21
37.771309270119673
 31
0.0
  0
LINE
  5
9E39
  8
TITLE
 10
166.8802463782292
 20
38.946089296648161
 30
0.0
 11
167.71606218197101
 21
39.781905100389743
 31
0.0
  0
LINE
  5
9E3A
  8
TITLE
 10
166.82111832423891
 20
38.188682261491067
 30
0.0
 11
167.71606218197101
 21
39.083626119219623
 31
0.0
  0
LINE
  5
9E3B
  8
TITLE
 10
167.7812519233502
 20
38.188682261487429
 30
0.0
 11
168.1862085132002
 21
38.593638851333708
 31
0.0
  0
LINE
  5
9E3C
  8
TITLE
 10
167.86853679599739
 20
38.188682261487429
 30
0.0
 11
168.1862085132002
 21
38.506353978686427
 31
0.0
  0
LINE
  5
9E3D
  8
TITLE
 10
167.95582166864469
 20
38.188682261487429
 30
0.0
 11
168.1862085132002
 21
38.419069106043032
 31
0.0
  0
LINE
  5
9E3E
  8
TITLE
 10
168.13039141393909
 20
38.188682261491067
 30
0.0
 11
168.1862085132002
 21
38.244499360749217
 31
0.0
  0
LINE
  5
9E3F
  8
TITLE
 10
168.04310654129199
 20
38.188682261487429
 30
0.0
 11
168.1862085132002
 21
38.331784233395808
 31
0.0
  0
LINE
  5
9E40
  8
TITLE
 10
166.8802463782292
 20
37.811385952246212
 30
0.0
 11
167.9357736294383
 21
38.866913203454772
 31
0.0
  0
LINE
  5
9E41
  8
TITLE
 10
166.8802463782292
 20
37.724101079599109
 30
0.0
 11
168.023058502086
 21
38.866913203454772
 31
0.0
  0
LINE
  5
9E42
  8
TITLE
 10
166.8802463782292
 20
37.985955697536902
 30
0.0
 11
167.76120388414421
 21
38.866913203454772
 31
0.0
  0
LINE
  5
9E43
  8
TITLE
 10
166.8802463782292
 20
37.898670824889727
 30
0.0
 11
167.8484887567912
 21
38.866913203454772
 31
0.0
  0
LINE
  5
9E44
  8
TITLE
 10
166.8802463782292
 20
38.073240570183721
 30
0.0
 11
167.71606218197101
 21
38.909056373925303
 31
0.0
  0
LINE
  5
9E45
  8
TITLE
 10
166.8802463782292
 20
38.160525442827179
 30
0.0
 11
167.71606218197101
 21
38.99634124657274
 31
0.0
  0
LINE
  5
9E46
  8
TITLE
 10
166.8802463782292
 20
39.120659041938779
 30
0.0
 11
167.6148755876489
 21
39.855288251358161
 31
0.0
  0
LINE
  5
9E47
  8
TITLE
 10
166.8802463782292
 20
39.03337416929196
 30
0.0
 11
167.70216046028889
 21
39.855288251358161
 31
0.0
  0
LINE
  5
9E48
  8
TITLE
 10
166.8802463782292
 20
39.557083405174701
 30
0.0
 11
167.17845122441321
 21
39.855288251358161
 31
0.0
  0
LINE
  5
9E49
  8
TITLE
 10
166.8802463782292
 20
39.469798532527541
 30
0.0
 11
167.2657360970604
 21
39.855288251358161
 31
0.0
  0
LINE
  5
9E4A
  8
TITLE
 10
166.8802463782292
 20
39.38251365988021
 30
0.0
 11
167.3530209697075
 21
39.855288251358161
 31
0.0
  0
LINE
  5
9E4B
  8
TITLE
 10
166.8802463782292
 20
39.295228787233498
 30
0.0
 11
167.44030584235441
 21
39.855288251358161
 31
0.0
  0
LINE
  5
9E4C
  8
TITLE
 10
166.8802463782292
 20
39.20794391458611
 30
0.0
 11
167.52759071500191
 21
39.855288251358161
 31
0.0
  0
LINE
  5
9E4D
  8
TITLE
 10
166.8802463782292
 20
39.644368277821798
 30
0.0
 11
167.09116635176591
 21
39.855288251358161
 31
0.0
  0
LINE
  5
9E4E
  8
TITLE
 10
166.8802463782292
 20
39.818938023112757
 30
0.0
 11
166.91659660647159
 21
39.855288251358161
 31
0.0
  0
LINE
  5
9E4F
  8
TITLE
 10
166.8802463782292
 20
39.731653150465718
 30
0.0
 11
167.00388147911889
 21
39.855288251358161
 31
0.0
  0
LINE
  5
9E50
  8
TITLE
 10
168.73471248846261
 20
39.665852062478848
 30
0.0
 11
168.9241486773418
 21
39.855288251358161
 31
0.0
  0
LINE
  5
9E51
  8
TITLE
 10
168.73471248846261
 20
39.840421807769651
 30
0.0
 11
168.74957893204751
 21
39.855288251358161
 31
0.0
  0
LINE
  5
9E52
  8
TITLE
 10
168.73471248846261
 20
39.753136935122768
 30
0.0
 11
168.8368638046947
 21
39.855288251358161
 31
0.0
  0
LINE
  5
9E53
  8
TITLE
 10
164.95102955353531
 20
38.76256992488328
 30
0.0
 11
165.6031747373134
 21
39.414715108664673
 31
0.0
  0
LINE
  5
9E54
  8
TITLE
 10
165.03831442618281
 20
38.76256992488328
 30
0.0
 11
165.6787444646331
 21
39.402999963329819
 31
0.0
  0
LINE
  5
9E55
  8
TITLE
 10
165.125599298823
 20
38.76256992488328
 30
0.0
 11
165.6787444646331
 21
39.315715090686012
 31
0.0
  0
LINE
  5
9E56
  8
TITLE
 10
165.21288417146991
 20
38.76256992488328
 30
0.0
 11
165.6787444646331
 21
39.228430218039129
 31
0.0
  0
LINE
  5
9E57
  8
TITLE
 10
165.3001690441171
 20
38.76256992488328
 30
0.0
 11
165.6787444646331
 21
39.141145345395387
 31
0.0
  0
LINE
  5
9E58
  8
TITLE
 10
165.3874539167642
 20
38.76256992488328
 30
0.0
 11
165.6787444646331
 21
39.053860472748227
 31
0.0
  0
LINE
  5
9E59
  8
TITLE
 10
165.56202366205841
 20
38.76256992488328
 30
0.0
 11
165.6787444646331
 21
38.879290727453792
 31
0.0
  0
LINE
  5
9E5A
  8
TITLE
 10
165.64930853470571
 20
38.76256992488328
 30
0.0
 11
165.6787444646331
 21
38.79200585480698
 31
0.0
  0
LINE
  5
9E5B
  8
TITLE
 10
166.14890766670811
 20
38.825744693652837
 30
0.0
 11
166.19007617650979
 21
38.866913203454772
 31
0.0
  0
LINE
  5
9E5C
  8
TITLE
 10
166.14890766670811
 20
38.738459821005847
 30
0.0
 11
166.27736104915721
 21
38.866913203454772
 31
0.0
  0
LINE
  5
9E5D
  8
TITLE
 10
165.47473878941139
 20
38.76256992488328
 30
0.0
 11
165.6787444646331
 21
38.966575600101073
 31
0.0
  0
LINE
  5
9E5E
  8
TITLE
 10
165.0071873705273
 20
37.771309270119673
 30
0.0
 11
165.50099165564421
 21
38.265113555233143
 31
0.0
  0
LINE
  5
9E5F
  8
TITLE
 10
165.09447224317489
 20
37.771309270119673
 30
0.0
 11
165.50099165564421
 21
38.177828682585698
 31
0.0
  0
LINE
  5
9E60
  8
TITLE
 10
164.91990249788029
 20
37.771309270119673
 30
0.0
 11
165.49379028419179
 21
38.345197056431289
 31
0.0
  0
LINE
  5
9E61
  8
TITLE
 10
165.1817571158216
 20
37.771309270119673
 30
0.0
 11
165.50099165564421
 21
38.090543809941892
 31
0.0
  0
LINE
  5
9E62
  8
TITLE
 10
165.26904198846921
 20
37.771309270119673
 30
0.0
 11
165.50099165564421
 21
38.003258937294618
 31
0.0
  0
LINE
  5
9E63
  8
TITLE
 10
165.3563268611091
 20
37.771309270119673
 30
0.0
 11
165.50099165564421
 21
37.915974064647742
 31
0.0
  0
LINE
  5
9E64
  8
TITLE
 10
165.44361173375589
 20
37.771309270119673
 30
0.0
 11
165.50099165564421
 21
37.828689192000468
 31
0.0
  0
LINE
  5
9E65
  8
TITLE
 10
166.14890766670811
 20
38.476605203068061
 30
0.0
 11
166.53921566709829
 21
38.866913203454772
 31
0.0
  0
LINE
  5
9E66
  8
TITLE
 10
166.14890766670811
 20
38.389320330420787
 30
0.0
 11
166.62650053973829
 21
38.866913203454772
 31
0.0
  0
LINE
  5
9E67
  8
TITLE
 10
166.14890766670811
 20
38.302035457777272
 30
0.0
 11
166.7137854123855
 21
38.866913203454772
 31
0.0
  0
LINE
  5
9E68
  8
TITLE
 10
166.14890766670811
 20
38.56389007571147
 30
0.0
 11
166.45193079445119
 21
38.866913203454772
 31
0.0
  0
LINE
  5
9E69
  8
TITLE
 10
166.14890766670811
 20
38.651174948358573
 30
0.0
 11
166.36464592180391
 21
38.866913203454772
 31
0.0
  0
LINE
  5
9E6A
  8
TITLE
 10
166.21012421571589
 20
38.188682261491067
 30
0.0
 11
167.71606218197101
 21
39.69462022774627
 31
0.0
  0
LINE
  5
9E6B
  8
TITLE
 10
166.297409088363
 20
38.188682261491067
 30
0.0
 11
167.71606218197101
 21
39.607335355098833
 31
0.0
  0
LINE
  5
9E6C
  8
TITLE
 10
166.38469396101021
 20
38.188682261487429
 30
0.0
 11
167.71606218197101
 21
39.520050482451673
 31
0.0
  0
LINE
  5
9E6D
  8
TITLE
 10
166.47197883365729
 20
38.188682261487429
 30
0.0
 11
167.71606218197101
 21
39.432765609804342
 31
0.0
  0
LINE
  5
9E6E
  8
TITLE
 10
166.5592637062976
 20
38.188682261487429
 30
0.0
 11
167.71606218197101
 21
39.345480737157523
 31
0.0
  0
LINE
  5
9E6F
  8
TITLE
 10
166.6465485789449
 20
38.188682261487429
 30
0.0
 11
167.71606218197101
 21
39.258195864510242
 31
0.0
  0
LINE
  5
9E70
  8
TITLE
 10
166.73383345159201
 20
38.188682261487429
 30
0.0
 11
167.71606218197101
 21
39.170910991863252
 31
0.0
  0
LINE
  5
9E71
  8
TITLE
 10
166.14890766670811
 20
38.214750585130112
 30
0.0
 11
166.80107028503281
 21
38.866913203454772
 31
0.0
  0
LINE
  5
9E72
  8
TITLE
 10
166.8802463782292
 20
35.716549008728812
 30
0.0
 11
167.71606218197101
 21
36.552364812469762
 31
0.0
  0
LINE
  5
9E73
  8
TITLE
 10
166.8802463782292
 20
35.629264136081481
 30
0.0
 11
167.71606218197101
 21
36.465079939822772
 31
0.0
  0
LINE
  5
9E74
  8
TITLE
 10
166.8802463782292
 20
35.541979263434662
 30
0.0
 11
167.71606218197101
 21
36.377795067175612
 31
0.0
  0
LINE
  5
9E75
  8
TITLE
 10
166.8802463782292
 20
35.454694390787211
 30
0.0
 11
167.71606218197101
 21
36.290510194532153
 31
0.0
  0
LINE
  5
9E76
  8
TITLE
 10
166.8802463782292
 20
35.367409518143859
 30
0.0
 11
167.71606218197101
 21
36.203225321884872
 31
0.0
  0
LINE
  5
9E77
  8
TITLE
 10
166.8802463782292
 20
35.280124645496471
 30
0.0
 11
167.71606218197101
 21
36.115940449241748
 31
0.0
  0
LINE
  5
9E78
  8
TITLE
 10
166.8802463782292
 20
35.192839772849311
 30
0.0
 11
167.71606218197101
 21
36.02865557659419
 31
0.0
  0
LINE
  5
9E79
  8
TITLE
 10
166.8802463782292
 20
35.978403626670229
 30
0.0
 11
167.71606218197101
 21
36.814219430411192
 31
0.0
  0
LINE
  5
9E7A
  8
TITLE
 10
166.8802463782292
 20
35.891118754023239
 30
0.0
 11
167.71606218197101
 21
36.726934557764203
 31
0.0
  0
LINE
  5
9E7B
  8
TITLE
 10
166.8802463782292
 20
35.803833881376079
 30
0.0
 11
167.71606218197101
 21
36.639649685117043
 31
0.0
  0
LINE
  5
9E7C
  8
TITLE
 10
166.8802463782292
 20
34.843700282264251
 30
0.0
 11
167.71606218197101
 21
35.67951608600584
 31
0.0
  0
LINE
  5
9E7D
  8
TITLE
 10
166.8802463782292
 20
34.756415409617091
 30
0.0
 11
167.71606218197101
 21
35.592231213358389
 31
0.0
  0
LINE
  5
9E7E
  8
TITLE
 10
166.8802463782292
 20
34.669130536970101
 30
0.0
 11
167.71606218197101
 21
35.504946340711228
 31
0.0
  0
LINE
  5
9E7F
  8
TITLE
 10
166.8802463782292
 20
34.581845664322827
 30
0.0
 11
167.71606218197101
 21
35.417661468067713
 31
0.0
  0
LINE
  5
9E80
  8
TITLE
 10
166.8802463782292
 20
34.494560791675667
 30
0.0
 11
167.71606218197101
 21
35.33037659542083
 31
0.0
  0
LINE
  5
9E81
  8
TITLE
 10
166.8802463782292
 20
34.407275919032152
 30
0.0
 11
167.71606218197101
 21
35.243091722773727
 31
0.0
  0
LINE
  5
9E82
  8
TITLE
 10
166.8802463782292
 20
34.319991046384871
 30
0.0
 11
167.71606218197101
 21
35.155806850130197
 31
0.0
  0
LINE
  5
9E83
  8
TITLE
 10
166.9382045685762
 20
34.290664364088173
 30
0.0
 11
167.71606218197101
 21
35.068521977482931
 31
0.0
  0
LINE
  5
9E84
  8
TITLE
 10
167.0254894412237
 20
34.290664364088173
 30
0.0
 11
167.71606218197101
 21
34.9812371048356
 31
0.0
  0
LINE
  5
9E85
  8
TITLE
 10
167.11277431387049
 20
34.290664364088173
 30
0.0
 11
167.71606218197101
 21
34.893952232188383
 31
0.0
  0
LINE
  5
9E86
  8
TITLE
 10
167.20005918651759
 20
34.290664364088173
 30
0.0
 11
167.71606218197101
 21
34.806667359541507
 31
0.0
  0
LINE
  5
9E87
  8
TITLE
 10
167.28734405916521
 20
34.290664364088173
 30
0.0
 11
167.71606218197101
 21
34.719382486894013
 31
0.0
  0
LINE
  5
9E88
  8
TITLE
 10
167.374628931812
 20
34.290664364088173
 30
0.0
 11
167.71606218197101
 21
34.632097614246788
 31
0.0
  0
LINE
  5
9E89
  8
TITLE
 10
167.46191380445919
 20
34.290664364088173
 30
0.0
 11
167.71606218197101
 21
34.544812741599912
 31
0.0
  0
LINE
  5
9E8A
  8
TITLE
 10
167.5491986771064
 20
34.290664364088173
 30
0.0
 11
167.71606218197101
 21
34.457527868956113
 31
0.0
  0
LINE
  5
9E8B
  8
TITLE
 10
167.63648354975351
 20
34.290664364088173
 30
0.0
 11
167.71606218197101
 21
34.3702429963094
 31
0.0
  0
LINE
  5
9E8C
  8
TITLE
 10
166.8802463782292
 20
35.105554900205789
 30
0.0
 11
167.71606218197101
 21
35.9413707039472
 31
0.0
  0
LINE
  5
9E8D
  8
TITLE
 10
166.8802463782292
 20
35.018270027558628
 30
0.0
 11
167.71606218197101
 21
35.854085831299933
 31
0.0
  0
LINE
  5
9E8E
  8
TITLE
 10
166.8802463782292
 20
34.930985154911809
 30
0.0
 11
167.71606218197101
 21
35.766800958652659
 31
0.0
  0
LINE
  5
9E8F
  8
TITLE
 10
167.75207853396131
 20
36.850235782398563
 30
0.0
 11
168.1862085132002
 21
37.28436576164097
 31
0.0
  0
LINE
  5
9E90
  8
TITLE
 10
167.80073655151429
 20
36.811608927311227
 30
0.0
 11
168.1862085132002
 21
37.197080888993867
 31
0.0
  0
LINE
  5
9E91
  8
TITLE
 10
167.8503588245479
 20
36.77394632769392
 30
0.0
 11
168.1862085132002
 21
37.10979601634682
 31
0.0
  0
LINE
  5
9E92
  8
TITLE
 10
166.8802463782292
 20
36.152973371960861
 30
0.0
 11
168.1862085132002
 21
37.45893550693188
 31
0.0
  0
LINE
  5
9E93
  8
TITLE
 10
166.8802463782292
 20
36.065688499317389
 30
0.0
 11
168.1862085132002
 21
37.371650634284492
 31
0.0
  0
LINE
  5
9E94
  8
TITLE
 10
167.90095402853601
 20
36.737256659035097
 30
0.0
 11
168.1862085132002
 21
37.022511143699717
 31
0.0
  0
LINE
  5
9E95
  8
TITLE
 10
167.95253238190691
 20
36.701550139762901
 30
0.0
 11
168.1862085132002
 21
36.935226271052272
 31
0.0
  0
LINE
  5
9E96
  8
TITLE
 10
168.00510572374509
 20
36.666838608949767
 30
0.0
 11
168.1862085132002
 21
36.847941398405112
 31
0.0
  0
LINE
  5
9E97
  8
TITLE
 10
168.05868760605111
 20
36.633135618608719
 30
0.0
 11
168.1862085132002
 21
36.760656525758293
 31
0.0
  0
LINE
  5
9E98
  8
TITLE
 10
168.11329340231941
 20
36.600456542236827
 30
0.0
 11
168.1862085132002
 21
36.673371653110848
 31
0.0
  0
LINE
  5
9E99
  8
TITLE
 10
168.1689404345361
 20
36.568818701806208
 30
0.0
 11
168.1862085132002
 21
36.586086780467333
 31
0.0
  0
LINE
  5
9E9A
  8
TITLE
 10
164.9449332592165
 20
35.788787960585807
 30
0.0
 11
165.44056352514599
 21
36.284418226511491
 31
0.0
  0
LINE
  5
9E9B
  8
TITLE
 10
165.03221813186391
 20
35.788787960585807
 30
0.0
 11
165.5278483977857
 21
36.284418226511491
 31
0.0
  0
LINE
  5
9E9C
  8
TITLE
 10
165.11950300451099
 20
35.788787960585807
 30
0.0
 11
165.61513327043281
 21
36.284418226511491
 31
0.0
  0
LINE
  5
9E9D
  8
TITLE
 10
165.20678787715809
 20
35.788787960585807
 30
0.0
 11
165.6787444646331
 21
36.260744548060757
 31
0.0
  0
LINE
  5
9E9E
  8
TITLE
 10
165.2940727498052
 20
35.788787960585807
 30
0.0
 11
165.6787444646331
 21
36.173459675413767
 31
0.0
  0
LINE
  5
9E9F
  8
TITLE
 10
165.3813576224523
 20
35.788787960585807
 30
0.0
 11
165.6787444646331
 21
36.086174802766493
 31
0.0
  0
LINE
  5
9EA0
  8
TITLE
 10
165.46864249509949
 20
35.788787960585807
 30
0.0
 11
165.6787444646331
 21
35.998889930119162
 31
0.0
  0
LINE
  5
9EA1
  8
TITLE
 10
164.92133392699131
 20
34.368630666013253
 30
0.0
 11
165.5328311199232
 21
34.98012785894872
 31
0.0
  0
LINE
  5
9EA2
  8
TITLE
 10
164.9918232210353
 20
34.351835087417442
 30
0.0
 11
165.62011599256999
 21
34.98012785894872
 31
0.0
  0
LINE
  5
9EA3
  8
TITLE
 10
165.06405999876159
 20
34.336786992492421
 30
0.0
 11
165.6787444646331
 21
34.951471458360629
 31
0.0
  0
LINE
  5
9EA4
  8
TITLE
 10
165.13814615752341
 20
34.323588278610892
 30
0.0
 11
165.6787444646331
 21
34.864186585713242
 31
0.0
  0
LINE
  5
9EA5
  8
TITLE
 10
165.21419909690081
 20
34.312356345341698
 30
0.0
 11
165.6787444646331
 21
34.776901713070004
 31
0.0
  0
LINE
  5
9EA6
  8
TITLE
 10
165.2923550009599
 20
34.303227376756702
 30
0.0
 11
165.6787444646331
 21
34.68961684042273
 31
0.0
  0
LINE
  5
9EA7
  8
TITLE
 10
165.37277310049629
 20
34.296360603642711
 30
0.0
 11
165.6787444646331
 21
34.602331967779207
 31
0.0
  0
LINE
  5
9EA8
  8
TITLE
 10
165.45564129791791
 20
34.29194392841675
 30
0.0
 11
165.6787444646331
 21
34.515047095132218
 31
0.0
  0
LINE
  5
9EA9
  8
TITLE
 10
165.5416466062363
 20
34.290664364088173
 30
0.0
 11
165.6787444646331
 21
34.427762222485228
 31
0.0
  0
LINE
  5
9EAA
  8
TITLE
 10
165.62893147888349
 20
34.290664364088173
 30
0.0
 11
165.6787444646331
 21
34.340477349837784
 31
0.0
  0
LINE
  5
9EAB
  8
TITLE
 10
165.5559273677469
 20
35.788787960585807
 30
0.0
 11
165.6787444646331
 21
35.911605057472229
 31
0.0
  0
LINE
  5
9EAC
  8
TITLE
 10
165.64321224039401
 20
35.788787960585807
 30
0.0
 11
165.6787444646331
 21
35.824320184824963
 31
0.0
  0
LINE
  5
9EAD
  8
TITLE
 10
164.9499745566861
 20
36.753962857166933
 30
0.0
 11
165.47169070371709
 21
37.27567900419411
 31
0.0
  0
LINE
  5
9EAE
  8
TITLE
 10
165.0372594293332
 20
36.753962857166933
 30
0.0
 11
165.50099165564421
 21
37.217695083474098
 31
0.0
  0
LINE
  5
9EAF
  8
TITLE
 10
165.12454430198039
 20
36.753962857166933
 30
0.0
 11
165.50099165564421
 21
37.130410210830178
 31
0.0
  0
LINE
  5
9EB0
  8
TITLE
 10
165.21182917462789
 20
36.753962857166933
 30
0.0
 11
165.50099165564421
 21
37.043125338183238
 31
0.0
  0
LINE
  5
9EB1
  8
TITLE
 10
165.29911404727491
 20
36.753962857166933
 30
0.0
 11
165.50099165564421
 21
36.955840465536028
 31
0.0
  0
LINE
  5
9EB2
  8
TITLE
 10
165.3863989199219
 20
36.753962857166933
 30
0.0
 11
165.50099165564421
 21
36.868555592888761
 31
0.0
  0
LINE
  5
9EB3
  8
TITLE
 10
165.47368379256909
 20
36.753962857166933
 30
0.0
 11
165.50099165564421
 21
36.781270720241878
 31
0.0
  0
LINE
  5
9EB4
  8
TITLE
 10
166.14890766670811
 20
36.643622877492078
 30
0.0
 11
166.24534904758781
 21
36.740064258368697
 31
0.0
  0
LINE
  5
9EB5
  8
TITLE
 10
166.14890766670811
 20
35.770774151027581
 30
0.0
 11
167.98040322839489
 21
37.602269712715099
 31
0.0
  0
LINE
  5
9EB6
  8
TITLE
 10
166.14890766670811
 20
35.683489278380762
 30
0.0
 11
168.03230855200209
 21
37.566890163671253
 31
0.0
  0
LINE
  5
9EB7
  8
TITLE
 10
166.31078574890699
 20
35.758082487936178
 30
0.0
 11
168.08797630903399
 21
37.535273048055728
 31
0.0
  0
LINE
  5
9EB8
  8
TITLE
 10
166.55378948934521
 20
35.913801355720238
 30
0.0
 11
168.14767444277979
 21
37.507686309158323
 31
0.0
  0
LINE
  5
9EB9
  8
TITLE
 10
166.14890766670811
 20
35.945343896318441
 30
0.0
 11
167.88727696339259
 21
37.6837131930032
 31
0.0
  0
LINE
  5
9EBA
  8
TITLE
 10
166.14890766670811
 20
35.858059023671267
 30
0.0
 11
167.93208994968259
 21
37.641241306653399
 31
0.0
  0
LINE
  5
9EBB
  8
TITLE
 10
166.64848984491991
 20
37.143205055700271
 30
0.0
 11
168.1862085132002
 21
38.680923723981152
 31
0.0
  0
LINE
  5
9EBC
  8
TITLE
 10
166.14890766670811
 20
36.556338004845031
 30
0.0
 11
167.71606218197101
 21
38.1234925201083
 31
0.0
  0
LINE
  5
9EBD
  8
TITLE
 10
166.14890766670811
 20
36.469053132201232
 30
0.0
 11
167.71606218197101
 21
38.036207647460849
 31
0.0
  0
LINE
  5
9EBE
  8
TITLE
 10
166.14890766670811
 20
36.381768259553951
 30
0.0
 11
167.71742509289211
 21
37.950285685731501
 31
0.0
  0
LINE
  5
9EBF
  8
TITLE
 10
166.14890766670811
 20
36.294483386906961
 30
0.0
 11
167.74361771013349
 21
37.889193430325577
 31
0.0
  0
LINE
  5
9EC0
  8
TITLE
 10
166.14890766670811
 20
36.207198514259858
 30
0.0
 11
167.7739543609521
 21
37.832245208504219
 31
0.0
  0
LINE
  5
9EC1
  8
TITLE
 10
166.14890766670811
 20
36.119913641612811
 30
0.0
 11
167.80812890493809
 21
37.779134879839148
 31
0.0
  0
LINE
  5
9EC2
  8
TITLE
 10
166.14890766670811
 20
36.032628768965708
 30
0.0
 11
167.84594176974619
 21
37.729662872007971
 31
0.0
  0
LINE
  5
9EC3
  8
TITLE
 10
168.42128167881509
 20
37.43215405460478
 30
0.0
 11
168.7604368943262
 21
37.771309270119673
 31
0.0
  0
LINE
  5
9EC4
  8
TITLE
 10
168.42128167881509
 20
37.344869181961258
 30
0.0
 11
168.84772176697339
 21
37.771309270119673
 31
0.0
  0
LINE
  5
9EC5
  8
TITLE
 10
168.42128167881509
 20
37.257584309314161
 30
0.0
 11
168.93500663962089
 21
37.771309270119673
 31
0.0
  0
LINE
  5
9EC6
  8
TITLE
 10
168.42128167881509
 20
37.519438927252111
 30
0.0
 11
168.67315202167919
 21
37.771309270119673
 31
0.0
  0
LINE
  5
9EC7
  8
TITLE
 10
168.42128167881509
 20
37.694008672542743
 30
0.0
 11
168.49858227638489
 21
37.771309270119673
 31
0.0
  0
LINE
  5
9EC8
  8
TITLE
 10
168.42128167881509
 20
37.606723799899548
 30
0.0
 11
168.58586714903191
 21
37.771309270119673
 31
0.0
  0
LINE
  5
9EC9
  8
TITLE
 10
166.87125114582989
 20
37.627820974555853
 30
0.0
 11
168.11034337473271
 21
38.866913203454772
 31
0.0
  0
LINE
  5
9ECA
  8
TITLE
 10
166.83175169617539
 20
37.501036652250377
 30
0.0
 11
168.1862085132002
 21
38.855493469275302
 31
0.0
  0
LINE
  5
9ECB
  8
TITLE
 10
166.7688823487392
 20
37.350882432170813
 30
0.0
 11
168.1862085132002
 21
38.768208596628263
 31
0.0
  0
LINE
  5
9ECC
  8
TITLE
 10
172.29475386004381
 20
38.948934674385441
 30
0.0
 11
172.47359021679691
 21
39.127771031131147
 31
0.0
  0
LINE
  5
9ECD
  8
TITLE
 10
172.29475386004381
 20
38.861649801738281
 30
0.0
 11
172.56087508943679
 21
39.127771031131147
 31
0.0
  0
LINE
  5
9ECE
  8
TITLE
 10
172.29475386004381
 20
38.774364929091291
 30
0.0
 11
172.64815996208421
 21
39.127771031131147
 31
0.0
  0
LINE
  5
9ECF
  8
TITLE
 10
172.29475386004381
 20
38.425225438502707
 30
0.0
 11
172.99729945267251
 21
39.127771031131147
 31
0.0
  0
LINE
  5
9ED0
  8
TITLE
 10
172.38026762517009
 20
38.42345433098194
 30
0.0
 11
173.0845843253197
 21
39.127771031131147
 31
0.0
  0
LINE
  5
9ED1
  8
TITLE
 10
170.9395690772059
 20
38.553883490655153
 30
0.0
 11
171.51345686351709
 21
39.127771276966712
 31
0.0
  0
LINE
  5
9ED2
  8
TITLE
 10
170.8522842045586
 20
38.553883490655153
 30
0.0
 11
171.42617199086979
 21
39.127771276966712
 31
0.0
  0
LINE
  5
9ED3
  8
TITLE
 10
171.28870856779409
 20
38.553883490655153
 30
0.0
 11
171.84290230430389
 21
39.108077227168913
 31
0.0
  0
LINE
  5
9ED4
  8
TITLE
 10
171.02685394985269
 20
38.553883490655153
 30
0.0
 11
171.60074173616391
 21
39.127771276966712
 31
0.0
  0
LINE
  5
9ED5
  8
TITLE
 10
171.11413882249991
 20
38.553883490655153
 30
0.0
 11
171.68802660881121
 21
39.127771276966712
 31
0.0
  0
LINE
  5
9ED6
  8
TITLE
 10
171.2014236951471
 20
38.553883490655153
 30
0.0
 11
171.77531148145849
 21
39.127771276966712
 31
0.0
  0
LINE
  5
9ED7
  8
TITLE
 10
172.29475386004381
 20
38.5997951837968
 30
0.0
 11
172.82272970737819
 21
39.127771031131147
 31
0.0
  0
LINE
  5
9ED8
  8
TITLE
 10
172.29475386004381
 20
38.512510311149697
 30
0.0
 11
172.91001458002529
 21
39.127771031131147
 31
0.0
  0
LINE
  5
9ED9
  8
TITLE
 10
172.29475386004381
 20
38.687080056444302
 30
0.0
 11
172.73544483473111
 21
39.127771031131147
 31
0.0
  0
LINE
  5
9EDA
  8
TITLE
 10
171.7251329310227
 20
38.553883490655153
 30
0.0
 11
171.84290230430389
 21
38.67165286394016
 31
0.0
  0
LINE
  5
9EDB
  8
TITLE
 10
171.8124178036698
 20
38.553883490655153
 30
0.0
 11
171.84290230430389
 21
38.584367991292879
 31
0.0
  0
LINE
  5
9EDC
  8
TITLE
 10
171.55056318572849
 20
38.553883490655153
 30
0.0
 11
171.84290230430389
 21
38.846222609234253
 31
0.0
  0
LINE
  5
9EDD
  8
TITLE
 10
171.6378480583756
 20
38.553883490655153
 30
0.0
 11
171.84290230430389
 21
38.758937736586972
 31
0.0
  0
LINE
  5
9EDE
  8
TITLE
 10
171.37599344044119
 20
38.553883490655153
 30
0.0
 11
171.84290230430389
 21
39.020792354525327
 31
0.0
  0
LINE
  5
9EDF
  8
TITLE
 10
171.46327831308119
 20
38.553883490655153
 30
0.0
 11
171.84290230430389
 21
38.933507481878053
 31
0.0
  0
LINE
  5
9EE0
  8
TITLE
 10
172.29475386004381
 20
39.123504419676458
 30
0.0
 11
172.2990204715025
 21
39.127771031131147
 31
0.0
  0
LINE
  5
9EE1
  8
TITLE
 10
172.29475386004381
 20
39.036219547032999
 30
0.0
 11
172.38630534414989
 21
39.127771031131147
 31
0.0
  0
LINE
  5
9EE2
  8
TITLE
 10
170.8626113497412
 20
35.421955220565913
 30
0.0
 11
171.46565652180479
 21
36.025000392629067
 31
0.0
  0
LINE
  5
9EE3
  8
TITLE
 10
170.9000852463962
 20
35.372144244569768
 30
0.0
 11
171.49938280357279
 21
35.971441801750068
 31
0.0
  0
LINE
  5
9EE4
  8
TITLE
 10
170.9384419205812
 20
35.32321604611122
 30
0.0
 11
171.5340054207
 21
35.918779546230269
 31
0.0
  0
LINE
  5
9EE5
  8
TITLE
 10
170.97767502278271
 20
35.275164275665873
 30
0.0
 11
171.5695135565816
 21
35.867002809471728
 31
0.0
  0
LINE
  5
9EE6
  8
TITLE
 10
171.23125812494999
 20
35.005038141950081
 30
0.0
 11
171.80069827838591
 21
35.574478295389163
 31
0.0
  0
LINE
  5
9EE7
  8
TITLE
 10
171.27653760769491
 20
34.96303275205446
 30
0.0
 11
171.84219738701049
 21
35.528692531370211
 31
0.0
  0
LINE
  5
9EE8
  8
TITLE
 10
171.41756898201189
 20
34.842209508430699
 30
0.0
 11
171.84290230430389
 21
35.267542830726029
 31
0.0
  0
LINE
  5
9EE9
  8
TITLE
 10
171.3226804473685
 20
34.921890719081148
 30
0.0
 11
171.84290230430389
 21
35.44211257602047
 31
0.0
  0
LINE
  5
9EEA
  8
TITLE
 10
171.36968958048769
 20
34.881614979553433
 30
0.0
 11
171.84290230430389
 21
35.354827703373189
 31
0.0
  0
LINE
  5
9EEB
  8
TITLE
 10
171.01777930280321
 20
35.22798368304246
 30
0.0
 11
171.60589760535669
 21
35.816101985592411
 31
0.0
  0
LINE
  5
9EEC
  8
TITLE
 10
171.05875057807609
 20
35.181670085664742
 30
0.0
 11
171.64314911252239
 21
35.766068620114709
 31
0.0
  0
LINE
  5
9EED
  8
TITLE
 10
171.10058570864521
 20
35.136220343586793
 30
0.0
 11
171.68126072388421
 21
35.716895358825752
 31
0.0
  0
LINE
  5
9EEE
  8
TITLE
 10
171.14328257862161
 20
35.091632340923688
 30
0.0
 11
171.72022614195589
 21
35.668575904249913
 31
0.0
  0
LINE
  5
9EEF
  8
TITLE
 10
171.18684008375351
 20
35.047904973407753
 30
0.0
 11
171.76004008932969
 21
35.621104978976859
 31
0.0
  0
LINE
  5
9EF0
  8
TITLE
 10
172.29475386004381
 20
34.759260787354151
 30
0.0
 11
172.6873045738572
 21
35.151811501164218
 31
0.0
  0
LINE
  5
9EF1
  8
TITLE
 10
172.29475386004381
 20
34.671975914707218
 30
0.0
 11
172.7798872051809
 21
35.157109259844049
 31
0.0
  0
LINE
  5
9EF2
  8
TITLE
 10
172.29475386004381
 20
34.584691042060058
 30
0.0
 11
172.87310449274901
 21
35.16304167476153
 31
0.0
  0
LINE
  5
9EF3
  8
TITLE
 10
172.29475386004381
 20
34.497406169416543
 30
0.0
 11
172.966970473164
 21
35.169622782536813
 31
0.0
  0
LINE
  5
9EF4
  8
TITLE
 10
172.29475386004381
 20
34.410121296769262
 30
0.0
 11
173.0614997920753
 21
35.176867228793931
 31
0.0
  0
LINE
  5
9EF5
  8
TITLE
 10
172.29475386004381
 20
34.846545659997851
 30
0.0
 11
172.59534313633171
 21
35.147134936285909
 31
0.0
  0
LINE
  5
9EF6
  8
TITLE
 10
171.46632368907231
 20
34.803679342843679
 30
0.0
 11
171.84290230430389
 21
35.180257958082677
 31
0.0
  0
LINE
  5
9EF7
  8
TITLE
 10
171.5159598313092
 20
34.766030612433269
 30
0.0
 11
171.84290230430389
 21
35.092973085435347
 31
0.0
  0
LINE
  5
9EF8
  8
TITLE
 10
171.56648466835389
 20
34.729270576834438
 30
0.0
 11
171.84290230430389
 21
35.0056882127883
 31
0.0
  0
LINE
  5
9EF9
  8
TITLE
 10
171.67023539434831
 20
34.658451557534477
 30
0.0
 11
171.84290230430389
 21
34.83111846749415
 31
0.0
  0
LINE
  5
9EFA
  8
TITLE
 10
171.72348190099689
 20
34.624413191532938
 30
0.0
 11
171.84290230430389
 21
34.743833594846819
 31
0.0
  0
LINE
  5
9EFB
  8
TITLE
 10
171.83277887695101
 20
34.55914042219581
 30
0.0
 11
171.84290230430389
 21
34.569263849552442
 31
0.0
  0
LINE
  5
9EFC
  8
TITLE
 10
171.77765847314899
 20
34.591304891044437
 30
0.0
 11
171.84290230430389
 21
34.656548722199553
 31
0.0
  0
LINE
  5
9EFD
  8
TITLE
 10
171.61790663494389
 20
34.693407670773929
 30
0.0
 11
171.84290230430389
 21
34.91840334014114
 31
0.0
  0
LINE
  5
9EFE
  8
TITLE
 10
172.29475386004381
 20
35.108400277939268
 30
0.0
 11
172.3230593126132
 21
35.136705730509341
 31
0.0
  0
LINE
  5
9EFF
  8
TITLE
 10
172.29475386004381
 20
35.021115405292221
 30
0.0
 11
172.41323267235211
 21
35.139594217600582
 31
0.0
  0
LINE
  5
9F00
  8
TITLE
 10
172.29475386004381
 20
34.933830532644947
 30
0.0
 11
172.5039899720461
 21
35.143066644650851
 31
0.0
  0
LINE
  5
9F01
  8
TITLE
 10
171.30271876510511
 20
37.171335725622221
 30
0.0
 11
171.84290230430389
 21
37.711519264828389
 31
0.0
  0
LINE
  5
9F02
  8
TITLE
 10
171.39000363774511
 20
37.171335725622221
 30
0.0
 11
171.84290230430389
 21
37.62423439218157
 31
0.0
  0
LINE
  5
9F03
  8
TITLE
 10
172.45146938162549
 20
37.534522488326047
 30
0.0
 11
172.63608440120879
 21
37.719137507916351
 31
0.0
  0
LINE
  5
9F04
  8
TITLE
 10
172.45146938162549
 20
37.44723761567878
 30
0.0
 11
172.72336927385609
 21
37.719137507916351
 31
0.0
  0
LINE
  5
9F05
  8
TITLE
 10
172.45146938162549
 20
37.359952743031499
 30
0.0
 11
172.810654146503
 21
37.719137507916351
 31
0.0
  0
LINE
  5
9F06
  8
TITLE
 10
172.45146938162549
 20
37.272667870387863
 30
0.0
 11
172.89793901915019
 21
37.719137507916351
 31
0.0
  0
LINE
  5
9F07
  8
TITLE
 10
172.45146938162549
 20
37.185382997741158
 30
0.0
 11
172.98522389179749
 21
37.719137507916351
 31
0.0
  0
LINE
  5
9F08
  8
TITLE
 10
172.45146938162549
 20
37.098098125093721
 30
0.0
 11
173.07250876444471
 21
37.719137507916351
 31
0.0
  0
LINE
  5
9F09
  8
TITLE
 10
171.47728851039221
 20
37.171335725622221
 30
0.0
 11
171.84290230430389
 21
37.536949519534289
 31
0.0
  0
LINE
  5
9F0A
  8
TITLE
 10
171.5645733830392
 20
37.171335725622221
 30
0.0
 11
171.84290230430389
 21
37.449664646886959
 31
0.0
  0
LINE
  5
9F0B
  8
TITLE
 10
171.65185825568639
 20
37.171335725622221
 30
0.0
 11
171.84290230430389
 21
37.362379774240139
 31
0.0
  0
LINE
  5
9F0C
  8
TITLE
 10
171.8264280009808
 20
37.171335725622221
 30
0.0
 11
171.84290230430389
 21
37.187810028949343
 31
0.0
  0
LINE
  5
9F0D
  8
TITLE
 10
171.73914312833369
 20
37.171335725622221
 30
0.0
 11
171.84290230430389
 21
37.275094901592809
 31
0.0
  0
LINE
  5
9F0E
  8
TITLE
 10
172.45146938162549
 20
37.709092233620197
 30
0.0
 11
172.46151465592169
 21
37.719137507916351
 31
0.0
  0
LINE
  5
9F0F
  8
TITLE
 10
172.45146938162549
 20
37.621807360973207
 30
0.0
 11
172.54879952856899
 21
37.719137507916351
 31
0.0
  0
LINE
  5
9F10
  8
TITLE
 10
171.2154338924579
 20
37.171335725622221
 30
0.0
 11
171.81540743694799
 21
37.771309270119673
 31
0.0
  0
LINE
  5
9F11
  8
TITLE
 10
171.04086414716369
 20
37.171335725622221
 30
0.0
 11
171.64083769166081
 21
37.771309270119673
 31
0.0
  0
LINE
  5
9F12
  8
TITLE
 10
171.12814901981059
 20
37.171335725622221
 30
0.0
 11
171.72812256430799
 21
37.771309270119673
 31
0.0
  0
LINE
  5
9F13
  8
TITLE
 10
169.75336302846341
 20
38.065956423079342
 30
0.0
 11
170.81517788234709
 21
39.127771276966712
 31
0.0
  0
LINE
  5
9F14
  8
TITLE
 10
169.75336302846341
 20
38.5023807863152
 30
0.0
 11
170.56305938401789
 21
39.31207714186985
 31
0.0
  0
LINE
  5
9F15
  8
TITLE
 10
169.75336302846341
 20
38.41509591366821
 30
0.0
 11
170.56305938401789
 21
39.224792269222689
 31
0.0
  0
LINE
  5
9F16
  8
TITLE
 10
169.75336302846341
 20
38.327811041021278
 30
0.0
 11
170.56305938401789
 21
39.137507396575757
 31
0.0
  0
LINE
  5
9F17
  8
TITLE
 10
169.75336302846341
 20
38.24052616837406
 30
0.0
 11
170.64060813705299
 21
39.127771276966712
 31
0.0
  0
LINE
  5
9F18
  8
TITLE
 10
169.75336302846341
 20
38.153241295726957
 30
0.0
 11
170.7278930097001
 21
39.127771276966712
 31
0.0
  0
LINE
  5
9F19
  8
TITLE
 10
169.19387162427691
 20
38.553883490655153
 30
0.0
 11
170.49527638497631
 21
39.855288251358161
 31
0.0
  0
LINE
  5
9F1A
  8
TITLE
 10
169.28115649692421
 20
38.553883490655153
 30
0.0
 11
170.56305938401789
 21
39.835786377745883
 31
0.0
  0
LINE
  5
9F1B
  8
TITLE
 10
169.36844136957109
 20
38.553883490655153
 30
0.0
 11
170.56305938401789
 21
39.74850150510207
 31
0.0
  0
LINE
  5
9F1C
  8
TITLE
 10
169.45572624221819
 20
38.553883490655153
 30
0.0
 11
170.56305938401789
 21
39.661216632454803
 31
0.0
  0
LINE
  5
9F1D
  8
TITLE
 10
169.54301111486549
 20
38.553883490655153
 30
0.0
 11
170.56305938401789
 21
39.57393175980792
 31
0.0
  0
LINE
  5
9F1E
  8
TITLE
 10
169.63029598750549
 20
38.553883490655153
 30
0.0
 11
170.56305938401789
 21
39.48664688716417
 31
0.0
  0
LINE
  5
9F1F
  8
TITLE
 10
169.71758086015291
 20
38.553883490655153
 30
0.0
 11
170.56305938401789
 21
39.399362014516839
 31
0.0
  0
LINE
  5
9F20
  8
TITLE
 10
169.75336302846341
 20
39.637084130721242
 30
0.0
 11
169.97156714910039
 21
39.855288251358161
 31
0.0
  0
LINE
  5
9F21
  8
TITLE
 10
169.75336302846341
 20
39.549799258074067
 30
0.0
 11
170.0588520217479
 21
39.855288251358161
 31
0.0
  0
LINE
  5
9F22
  8
TITLE
 10
169.75336302846341
 20
39.462514385426971
 30
0.0
 11
170.146136894395
 21
39.855288251358161
 31
0.0
  0
LINE
  5
9F23
  8
TITLE
 10
169.75336302846341
 20
39.375229512779811
 30
0.0
 11
170.2334217670417
 21
39.855288251358161
 31
0.0
  0
LINE
  5
9F24
  8
TITLE
 10
169.75336302846341
 20
39.287944640132928
 30
0.0
 11
170.32070663968929
 21
39.855288251358161
 31
0.0
  0
LINE
  5
9F25
  8
TITLE
 10
169.75336302846341
 20
39.200659767485661
 30
0.0
 11
170.40799151233639
 21
39.855288251358161
 31
0.0
  0
LINE
  5
9F26
  8
TITLE
 10
169.75336302846341
 20
39.811653876012031
 30
0.0
 11
169.79699740380619
 21
39.855288251358161
 31
0.0
  0
LINE
  5
9F27
  8
TITLE
 10
169.75336302846341
 20
39.724369003365162
 30
0.0
 11
169.88428227645349
 21
39.855288251358161
 31
0.0
  0
LINE
  5
9F28
  8
TITLE
 10
169.75336302846341
 20
34.836416135163752
 30
0.0
 11
170.56305938401789
 21
35.64611249071811
 31
0.0
  0
LINE
  5
9F29
  8
TITLE
 10
169.75336302846341
 20
34.749131262516471
 30
0.0
 11
170.56305938401789
 21
35.558827618070843
 31
0.0
  0
LINE
  5
9F2A
  8
TITLE
 10
169.75336302846341
 20
34.661846389869197
 30
0.0
 11
170.56305938401789
 21
35.471542745423683
 31
0.0
  0
LINE
  5
9F2B
  8
TITLE
 10
169.75336302846341
 20
34.574561517222207
 30
0.0
 11
170.56305938401789
 21
35.384257872776523
 31
0.0
  0
LINE
  5
9F2C
  8
TITLE
 10
169.75336302846341
 20
34.487276644574933
 30
0.0
 11
170.56305938401789
 21
35.296973000129242
 31
0.0
  0
LINE
  5
9F2D
  8
TITLE
 10
169.75336302846341
 20
34.399991771931703
 30
0.0
 11
170.56305938401789
 21
35.209688127485613
 31
0.0
  0
LINE
  5
9F2E
  8
TITLE
 10
169.75336302846341
 20
34.312706899284251
 30
0.0
 11
170.56305938401789
 21
35.12240325483873
 31
0.0
  0
LINE
  5
9F2F
  8
TITLE
 10
169.81860536591111
 20
34.290664364088173
 30
0.0
 11
170.56305938401789
 21
35.035118382191513
 31
0.0
  0
LINE
  5
9F30
  8
TITLE
 10
169.90589023855799
 20
34.290664364088173
 30
0.0
 11
170.56305938401789
 21
34.947833509548097
 31
0.0
  0
LINE
  5
9F31
  8
TITLE
 10
169.75336302846341
 20
34.923701007811019
 30
0.0
 11
170.56305938401789
 21
35.733397363365157
 31
0.0
  0
LINE
  5
9F32
  8
TITLE
 10
169.99317511120509
 20
34.290664364088173
 30
0.0
 11
170.56305938401789
 21
34.860548636901122
 31
0.0
  0
LINE
  5
9F33
  8
TITLE
 10
170.08045998385211
 20
34.290664364088173
 30
0.0
 11
170.56305938401789
 21
34.773263764253841
 31
0.0
  0
LINE
  5
9F34
  8
TITLE
 10
170.1677448564995
 20
34.290664364088173
 30
0.0
 11
170.56305938401789
 21
34.685978891606972
 31
0.0
  0
LINE
  5
9F35
  8
TITLE
 10
170.25502972914691
 20
34.290664364088173
 30
0.0
 11
170.56305938401789
 21
34.598694018959691
 31
0.0
  0
LINE
  5
9F36
  8
TITLE
 10
170.34231460179399
 20
34.290664364088173
 30
0.0
 11
170.56305938401789
 21
34.511409146311792
 31
0.0
  0
LINE
  5
9F37
  8
TITLE
 10
170.42959947444109
 20
34.290664364088173
 30
0.0
 11
170.56305938401789
 21
34.424124273664972
 31
0.0
  0
LINE
  5
9F38
  8
TITLE
 10
170.51688434708089
 20
34.290664364088173
 30
0.0
 11
170.56305938401789
 21
34.336839401017819
 31
0.0
  0
LINE
  5
9F39
  8
TITLE
 10
169.75336302846341
 20
35.098270753101417
 30
0.0
 11
170.56305938401789
 21
35.907967108659818
 31
0.0
  0
LINE
  5
9F3A
  8
TITLE
 10
169.75336302846341
 20
35.010985880458058
 30
0.0
 11
170.56305938401789
 21
35.82068223601221
 31
0.0
  0
LINE
  5
9F3B
  8
TITLE
 10
169.2078818215877
 20
37.171335725622221
 30
0.0
 11
170.56305938401789
 21
38.526513288052691
 31
0.0
  0
LINE
  5
9F3C
  8
TITLE
 10
169.23370010085091
 20
36.935299386951101
 30
0.0
 11
170.56305938401789
 21
38.264658670111153
 31
0.0
  0
LINE
  5
9F3D
  8
TITLE
 10
169.20145970692519
 20
36.815774120378251
 30
0.0
 11
170.56305938401789
 21
38.177373797464163
 31
0.0
  0
LINE
  5
9F3E
  8
TITLE
 10
169.28071145862751
 20
37.156880490022218
 30
0.0
 11
170.56305938401789
 21
38.439228415405523
 31
0.0
  0
LINE
  5
9F3F
  8
TITLE
 10
169.259789085889
 20
37.048673244629761
 30
0.0
 11
170.56305938401789
 21
38.351943542758313
 31
0.0
  0
LINE
  5
9F40
  8
TITLE
 10
169.16168728064511
 20
36.688716821451131
 30
0.0
 11
170.56305938401789
 21
38.090088924816833
 31
0.0
  0
LINE
  5
9F41
  8
TITLE
 10
169.11233770585
 20
36.552082374001657
 30
0.0
 11
170.56305938401789
 21
38.002804052169843
 31
0.0
  0
LINE
  5
9F42
  8
TITLE
 10
169.0501383556421
 20
36.402598151153988
 30
0.0
 11
170.56305938401789
 21
37.915519179526491
 31
0.0
  0
LINE
  5
9F43
  8
TITLE
 10
169.03331207629341
 20
37.171335725622221
 30
0.0
 11
169.6332856207907
 21
37.771309270119673
 31
0.0
  0
LINE
  5
9F44
  8
TITLE
 10
169.12059694894049
 20
37.171335725622221
 30
0.0
 11
169.720570493438
 21
37.771309270119673
 31
0.0
  0
LINE
  5
9F45
  8
TITLE
 10
169.75336302846341
 20
37.978671550435877
 30
0.0
 11
170.90246275499419
 21
39.127771276966712
 31
0.0
  0
LINE
  5
9F46
  8
TITLE
 10
169.75336302846341
 20
37.891386677788716
 30
0.0
 11
170.98974762764121
 21
39.127771276966712
 31
0.0
  0
LINE
  5
9F47
  8
TITLE
 10
169.75336302846341
 20
37.804101805145201
 30
0.0
 11
171.07703250028121
 21
39.127771276966712
 31
0.0
  0
LINE
  5
9F48
  8
TITLE
 10
170.76499933191141
 20
38.553883490655153
 30
0.0
 11
171.338887118223
 21
39.127771276966712
 31
0.0
  0
LINE
  5
9F49
  8
TITLE
 10
170.5904295866172
 20
38.553883490655153
 30
0.0
 11
171.16431737292851
 21
39.127771276966712
 31
0.0
  0
LINE
  5
9F4A
  8
TITLE
 10
170.67771445926411
 20
38.553883490655153
 30
0.0
 11
171.2516022455757
 21
39.127771276966712
 31
0.0
  0
LINE
  5
9F4B
  8
TITLE
 10
169.75336302846341
 20
35.883834606922221
 30
0.0
 11
171.03432978502121
 21
37.164801363480251
 31
0.0
  0
LINE
  5
9F4C
  8
TITLE
 10
169.75336302846341
 20
35.796549734275061
 30
0.0
 11
171.04796205820941
 21
37.09114876402078
 31
0.0
  0
LINE
  5
9F4D
  8
TITLE
 10
169.75336302846341
 20
35.709264861627901
 30
0.0
 11
171.06305517110141
 21
37.018957004265758
 31
0.0
  0
LINE
  5
9F4E
  8
TITLE
 10
169.75336302846341
 20
35.621979988980797
 30
0.0
 11
171.0795448520434
 21
36.948161812560897
 31
0.0
  0
LINE
  5
9F4F
  8
TITLE
 10
169.75336302846341
 20
35.534695116333467
 30
0.0
 11
171.09737342765919
 21
36.878705515537042
 31
0.0
  0
LINE
  5
9F50
  8
TITLE
 10
169.75336302846341
 20
35.447410243686527
 30
0.0
 11
171.11648897836699
 21
36.810536193593457
 31
0.0
  0
LINE
  5
9F51
  8
TITLE
 10
169.75336302846341
 20
35.360125371039203
 30
0.0
 11
171.13684463262899
 21
36.743606975211719
 31
0.0
  0
LINE
  5
9F52
  8
TITLE
 10
169.75336302846341
 20
35.272840498395851
 30
0.0
 11
171.1583979733594
 21
36.67787544329525
 31
0.0
  0
LINE
  5
9F53
  8
TITLE
 10
170.65681192175879
 20
35.73986502845878
 30
0.0
 11
171.28289973173551
 21
36.365952838435653
 31
0.0
  0
LINE
  5
9F54
  8
TITLE
 10
170.68878830118999
 20
35.684556535249897
 30
0.0
 11
171.31094301496441
 21
36.30671124901756
 31
0.0
  0
LINE
  5
9F55
  8
TITLE
 10
170.72171140924021
 20
35.630194770646263
 30
0.0
 11
171.33997758928999
 21
36.248460950695751
 31
0.0
  0
LINE
  5
9F56
  8
TITLE
 10
170.75556718291699
 20
35.57676567168312
 30
0.0
 11
171.369983527193
 21
36.191182015958653
 31
0.0
  0
LINE
  5
9F57
  8
TITLE
 10
170.79034302516411
 20
35.524256641282761
 30
0.0
 11
171.40094270567749
 21
36.134856321796121
 31
0.0
  0
LINE
  5
9F58
  8
TITLE
 10
170.8260277184109
 20
35.472656461883162
 30
0.0
 11
171.43283867123151
 21
36.079467414699202
 31
0.0
  0
LINE
  5
9F59
  8
TITLE
 10
169.75336302846341
 20
35.185555625748577
 30
0.0
 11
171.1811105354908
 21
36.61330313277989
 31
0.0
  0
LINE
  5
9F5A
  8
TITLE
 10
170.5667279672077
 20
35.91163569184954
 30
0.0
 11
171.20494737851681
 21
36.549855103162031
 31
0.0
  0
LINE
  5
9F5B
  8
TITLE
 10
170.59576354154399
 20
35.853386393538422
 30
0.0
 11
171.22987672092651
 21
36.487499572921251
 31
0.0
  0
LINE
  5
9F5C
  8
TITLE
 10
170.6257978992472
 20
35.796135878594441
 30
0.0
 11
171.25586962614429
 21
36.426207605491697
 31
0.0
  0
LINE
  5
9F5E
  8
TITLE
 10
189.13847689187489
 20
37.724689068395378
 30
0.0
 11
189.9826071139172
 21
38.568819290437887
 31
0.0
  0
LINE
  5
9F5F
  8
TITLE
 10
189.40033150981611
 20
37.724689068395378
 30
0.0
 11
189.9826071139172
 21
38.306964672500051
 31
0.0
  0
LINE
  5
9F60
  8
TITLE
 10
189.4876163824635
 20
37.724689068395378
 30
0.0
 11
189.9826071139172
 21
38.21967979985277
 31
0.0
  0
LINE
  5
9F61
  8
TITLE
 10
189.22576176452191
 20
37.724689068395378
 30
0.0
 11
189.9826071139172
 21
38.481534417791011
 31
0.0
  0
LINE
  5
9F62
  8
TITLE
 10
189.31304663716921
 20
37.724689068395378
 30
0.0
 11
189.9826071139172
 21
38.394249545147211
 31
0.0
  0
LINE
  5
9F63
  8
TITLE
 10
188.6721378575528
 20
34.290664364088173
 30
0.0
 11
189.52437755531921
 21
35.142904061858466
 31
0.0
  0
LINE
  5
9F64
  8
TITLE
 10
188.75942273019251
 20
34.290664364088173
 30
0.0
 11
189.61166242796671
 21
35.142904061858466
 31
0.0
  0
LINE
  5
9F65
  8
TITLE
 10
188.84670760284001
 20
34.290664364088173
 30
0.0
 11
189.69894730061401
 21
35.142904061858466
 31
0.0
  0
LINE
  5
9F66
  8
TITLE
 10
188.93399247548689
 20
34.290664364088173
 30
0.0
 11
189.78623217325401
 21
35.142904061858466
 31
0.0
  0
LINE
  5
9F67
  8
TITLE
 10
189.02127734813399
 20
34.290664364088173
 30
0.0
 11
189.87351704590091
 21
35.142904061858466
 31
0.0
  0
LINE
  5
9F68
  8
TITLE
 10
189.10856222078129
 20
34.290664364088173
 30
0.0
 11
189.9608019185481
 21
35.142904061858466
 31
0.0
  0
LINE
  5
9F69
  8
TITLE
 10
189.19584709342851
 20
34.290664364088173
 30
0.0
 11
190.048086791195
 21
35.142904061858466
 31
0.0
  0
LINE
  5
9F6A
  8
TITLE
 10
189.28313196607539
 20
34.290664364088173
 30
0.0
 11
190.13537166384219
 21
35.142904061858466
 31
0.0
  0
LINE
  5
9F6B
  8
TITLE
 10
189.37041683872289
 20
34.290664364088173
 30
0.0
 11
190.22265653648989
 21
35.142904061858466
 31
0.0
  0
LINE
  5
9F6C
  8
TITLE
 10
189.45770171136999
 20
34.290664364088173
 30
0.0
 11
190.23358695249379
 21
35.066549605211783
 31
0.0
  0
LINE
  5
9F6D
  8
TITLE
 10
188.25084515361911
 20
37.273481693371757
 30
0.0
 11
189.55429222641311
 21
38.576928766166247
 31
0.0
  0
LINE
  5
9F6E
  8
TITLE
 10
188.25084515361911
 20
37.186196820724767
 30
0.0
 11
189.64157709906021
 21
38.576928766166247
 31
0.0
  0
LINE
  5
9F6F
  8
TITLE
 10
188.25084515361911
 20
37.098911948077621
 30
0.0
 11
189.7288619717072
 21
38.576928766166247
 31
0.0
  0
LINE
  5
9F70
  8
TITLE
 10
188.25084515361911
 20
37.011627075430802
 30
0.0
 11
189.81614684435451
 21
38.576928766166247
 31
0.0
  0
LINE
  5
9F71
  8
TITLE
 10
188.25084515361911
 20
36.92434220278335
 30
0.0
 11
189.9034317169945
 21
38.576928766166247
 31
0.0
  0
LINE
  5
9F72
  8
TITLE
 10
180.6730384841982
 20
38.773301779179747
 30
0.0
 11
181.73249884012341
 21
39.832762135112489
 31
0.0
  0
LINE
  5
9F73
  8
TITLE
 10
179.30763632220379
 20
37.844323980424583
 30
0.0
 11
181.31860059313729
 21
39.855288251358161
 31
0.0
  0
LINE
  5
9F74
  8
TITLE
 10
179.98253430844451
 20
38.344652221363852
 30
0.0
 11
181.4931703384317
 21
39.855288251358161
 31
0.0
  0
LINE
  5
9F75
  8
TITLE
 10
180.17495661226329
 20
38.449789652542677
 30
0.0
 11
181.5804552110788
 21
39.855288251358161
 31
0.0
  0
LINE
  5
9F76
  8
TITLE
 10
179.8089045348309
 20
38.258307320404469
 30
0.0
 11
181.40588546578451
 21
39.855288251358161
 31
0.0
  0
LINE
  5
9F77
  8
TITLE
 10
180.3964208179307
 20
38.5839689855597
 30
0.0
 11
181.66774008372599
 21
39.855288251354807
 31
0.0
  0
LINE
  5
9F78
  8
TITLE
 10
181.29070441303139
 20
39.129113090078818
 30
0.0
 11
181.86563779457549
 21
39.704046471619449
 31
0.0
  0
LINE
  5
9F79
  8
TITLE
 10
181.20017624428809
 20
39.213154666626679
 30
0.0
 11
181.77620622039791
 21
39.789184642736252
 31
0.0
  0
LINE
  5
9F7A
  8
TITLE
 10
181.2451882639177
 20
39.170881813608503
 30
0.0
 11
181.82058569697699
 21
39.746279246667832
 31
0.0
  0
LINE
  5
9F7B
  8
TITLE
 10
181.2529236826019
 20
34.290664364088173
 30
0.0
 11
182.93384118115571
 21
35.971581862649543
 31
0.0
  0
LINE
  5
9F7C
  8
TITLE
 10
181.165638809955
 20
34.290664364088173
 30
0.0
 11
182.84655630850889
 21
35.971581862649543
 31
0.0
  0
LINE
  5
9F7D
  8
TITLE
 10
180.64192957407209
 20
34.290664364088173
 30
0.0
 11
181.35831220650891
 21
35.007046996521872
 31
0.0
  0
LINE
  5
9F7E
  8
TITLE
 10
180.7292144467192
 20
34.290664364088173
 30
0.0
 11
181.44559707914931
 21
35.007046996521872
 31
0.0
  0
LINE
  5
9F7F
  8
TITLE
 10
180.81649931936619
 20
34.290664364088173
 30
0.0
 11
181.53288195179621
 21
35.007046996521872
 31
0.0
  0
LINE
  5
9F80
  8
TITLE
 10
180.90378419201321
 20
34.290664364088173
 30
0.0
 11
181.6242289278313
 21
35.011109099906207
 31
0.0
  0
LINE
  5
9F81
  8
TITLE
 10
180.99106906466039
 20
34.290664364088173
 30
0.0
 11
181.7314813860809
 21
35.031076685508481
 31
0.0
  0
LINE
  5
9F82
  8
TITLE
 10
181.0783539373077
 20
34.290664364088173
 30
0.0
 11
181.86956489406799
 21
35.081875320848212
 31
0.0
  0
LINE
  5
9F83
  8
TITLE
 10
180.62811698430571
 20
36.284403845184897
 30
0.0
 11
181.33196672157919
 21
36.988253582461773
 31
0.0
  0
LINE
  5
9F84
  8
TITLE
 10
180.7154018569457
 20
36.284403845184897
 30
0.0
 11
181.4192515942261
 21
36.988253582461773
 31
0.0
  0
LINE
  5
9F85
  8
TITLE
 10
180.80268672959301
 20
36.284403845184897
 30
0.0
 11
181.5065364668732
 21
36.988253582461773
 31
0.0
  0
LINE
  5
9F86
  8
TITLE
 10
180.88997160224019
 20
36.284403845184897
 30
0.0
 11
181.5938213395134
 21
36.988253582461773
 31
0.0
  0
LINE
  5
9F87
  8
TITLE
 10
180.9772564748873
 20
36.284403845184897
 30
0.0
 11
181.68110621216039
 21
36.988253582461773
 31
0.0
  0
LINE
  5
9F88
  8
TITLE
 10
181.064541347534
 20
36.284403845184897
 30
0.0
 11
181.76839108480789
 21
36.988253582461773
 31
0.0
  0
LINE
  5
9F89
  8
TITLE
 10
181.1518262201815
 20
36.284403845184897
 30
0.0
 11
181.85567595745451
 21
36.988253582461773
 31
0.0
  0
LINE
  5
9F8A
  8
TITLE
 10
181.23911109282889
 20
36.284403845184897
 30
0.0
 11
181.94296083010181
 21
36.988253582461773
 31
0.0
  0
LINE
  5
9F8B
  8
TITLE
 10
180.5531431129487
 20
37.431418190884472
 30
0.0
 11
181.33519837659171
 21
38.213473454524369
 31
0.0
  0
LINE
  5
9F8C
  8
TITLE
 10
180.6404279855962
 20
37.431418190884472
 30
0.0
 11
181.4224832492321
 21
38.213473454524369
 31
0.0
  0
LINE
  5
9F8D
  8
TITLE
 10
180.72771285824271
 20
37.431418190884472
 30
0.0
 11
181.50976812187901
 21
38.213473454524369
 31
0.0
  0
LINE
  5
9F8E
  8
TITLE
 10
180.81499773089021
 20
37.431418190884472
 30
0.0
 11
181.59705299452611
 21
38.213473454524369
 31
0.0
  0
LINE
  5
9F8F
  8
TITLE
 10
180.9022826035372
 20
37.431418190884472
 30
0.0
 11
181.6843378671735
 21
38.213473454524369
 31
0.0
  0
LINE
  5
9F90
  8
TITLE
 10
180.98956747618439
 20
37.431418190884472
 30
0.0
 11
181.77162273982029
 21
38.213473454524369
 31
0.0
  0
LINE
  5
9F91
  8
TITLE
 10
181.07685234883149
 20
37.431418190884472
 30
0.0
 11
181.8589076124677
 21
38.213473454524369
 31
0.0
  0
LINE
  5
9F92
  8
TITLE
 10
181.16413722147149
 20
37.431418190884472
 30
0.0
 11
181.94619248511469
 21
38.213473454524369
 31
0.0
  0
LINE
  5
9F93
  8
TITLE
 10
181.25142209411891
 20
37.431418190884472
 30
0.0
 11
182.03347735776219
 21
38.213473454524369
 31
0.0
  0
LINE
  5
9F94
  8
TITLE
 10
176.56994151219749
 20
38.42345433098194
 30
0.0
 11
177.27425821234701
 21
39.127771031131147
 31
0.0
  0
LINE
  5
9F95
  8
TITLE
 10
176.65722638484471
 20
38.42345433098194
 30
0.0
 11
177.36154308499439
 21
39.127771031131147
 31
0.0
  0
LINE
  5
9F96
  8
TITLE
 10
176.74451125749189
 20
38.42345433098194
 30
0.0
 11
177.4488279576415
 21
39.127771031131147
 31
0.0
  0
LINE
  5
9F97
  8
TITLE
 10
176.83179613013911
 20
38.42345433098194
 30
0.0
 11
177.53611283028869
 21
39.127771031131147
 31
0.0
  0
LINE
  5
9F98
  8
TITLE
 10
176.91908100278621
 20
38.42345433098194
 30
0.0
 11
177.62339770293599
 21
39.127771031131147
 31
0.0
  0
LINE
  5
9F99
  8
TITLE
 10
177.00636587543329
 20
38.42345433098194
 30
0.0
 11
177.71068257558309
 21
39.127771031131147
 31
0.0
  0
LINE
  5
9F9A
  8
TITLE
 10
177.09365074808059
 20
38.42345433098194
 30
0.0
 11
177.79796744823
 21
39.127771031131147
 31
0.0
  0
LINE
  5
9F9B
  8
TITLE
 10
177.18093562072769
 20
38.42345433098194
 30
0.0
 11
177.85815195723319
 21
39.100670667491393
 31
0.0
  0
LINE
  5
9F9C
  8
TITLE
 10
176.970097957646
 20
39.609174630247757
 30
0.0
 11
177.216211578757
 21
39.855288251358161
 31
0.0
  0
LINE
  5
9F9D
  8
TITLE
 10
176.970097957646
 20
39.52188975760032
 30
0.0
 11
177.30349645140399
 21
39.855288251358161
 31
0.0
  0
LINE
  5
9F9E
  8
TITLE
 10
176.970097957646
 20
39.43460488495316
 30
0.0
 11
177.39078132405089
 21
39.855288251358161
 31
0.0
  0
LINE
  5
9F9F
  8
TITLE
 10
177.0374929310812
 20
39.414714985748788
 30
0.0
 11
177.47806619669831
 21
39.855288251358161
 31
0.0
  0
LINE
  5
9FA0
  8
TITLE
 10
177.12477780372899
 20
39.414714985748788
 30
0.0
 11
177.5653510693455
 21
39.855288251358161
 31
0.0
  0
LINE
  5
9FA1
  8
TITLE
 10
177.21206267637589
 20
39.414714985748788
 30
0.0
 11
177.65263594199271
 21
39.855288251358161
 31
0.0
  0
LINE
  5
9FA2
  8
TITLE
 10
176.6723455774941
 20
35.209033235707473
 30
0.0
 11
177.2355996248815
 21
35.77228728310223
 31
0.0
  0
LINE
  5
9FA3
  8
TITLE
 10
176.71336157090931
 20
35.162764356482967
 30
0.0
 11
177.27823613090499
 21
35.727638916471392
 31
0.0
  0
LINE
  5
9FA4
  8
TITLE
 10
176.7550746515667
 20
35.117192564493507
 30
0.0
 11
177.32192031844019
 21
35.684038231366742
 31
0.0
  0
LINE
  5
9FA5
  8
TITLE
 10
176.79748334857919
 20
35.072316388858781
 30
0.0
 11
177.36665225971211
 21
35.641485299991643
 31
0.0
  0
LINE
  5
9FA6
  8
TITLE
 10
176.84058672354089
 20
35.028134891173131
 30
0.0
 11
177.4124338413398
 21
35.599982008968823
 31
0.0
  0
LINE
  5
9FA7
  8
TITLE
 10
176.8843843669641
 20
34.984647661949573
 30
0.0
 11
177.45926878076131
 21
35.559532075746858
 31
0.0
  0
LINE
  5
9FA8
  8
TITLE
 10
176.9288763967208
 20
34.941854819059252
 30
0.0
 11
177.50716265869701
 21
35.520141081034872
 31
0.0
  0
LINE
  5
9FA9
  8
TITLE
 10
177.0665279164603
 20
34.817651720860617
 30
0.0
 11
177.65728283969
 21
35.408406644090178
 31
0.0
  0
LINE
  5
9FAA
  8
TITLE
 10
177.11380927535299
 20
34.777648207110083
 30
0.0
 11
177.70950765132849
 21
35.373346583081741
 31
0.0
  0
LINE
  5
9FAB
  8
TITLE
 10
177.1617936068215
 20
34.73834766593081
 30
0.0
 11
177.7628496327462
 21
35.339403691852233
 31
0.0
  0
LINE
  5
9FAC
  8
TITLE
 10
177.21048427373989
 20
34.699753460202203
 30
0.0
 11
177.81732726026809
 21
35.306596446726651
 31
0.0
  0
LINE
  5
9FAD
  8
TITLE
 10
176.97406345847401
 20
34.899757008168422
 30
0.0
 11
177.55612296837319
 21
35.481816518064193
 31
0.0
  0
LINE
  5
9FAE
  8
TITLE
 10
177.0199467281613
 20
34.858355405212201
 30
0.0
 11
177.60615918254709
 21
35.444567859590791
 31
0.0
  0
LINE
  5
9FAF
  8
TITLE
 10
175.71637448554009
 20
37.831741922261926
 30
0.0
 11
177.01240359441309
 21
39.127771031131147
 31
0.0
  0
LINE
  5
9FB0
  8
TITLE
 10
175.71637448554009
 20
37.744457049618241
 30
0.0
 11
177.099688467053
 21
39.127771031131147
 31
0.0
  0
LINE
  5
9FB1
  8
TITLE
 10
175.71637448554009
 20
38.093596540199712
 30
0.0
 11
176.75054897647121
 21
39.127771031131147
 31
0.0
  0
LINE
  5
9FB2
  8
TITLE
 10
175.71637448554009
 20
38.00631166755619
 30
0.0
 11
176.83783384911851
 21
39.127771031131147
 31
0.0
  0
LINE
  5
9FB3
  8
TITLE
 10
175.71637448554009
 20
37.919026794908859
 30
0.0
 11
176.92511872176601
 21
39.127771031131147
 31
0.0
  0
LINE
  5
9FB4
  8
TITLE
 10
175.0860986772102
 20
38.42345433098194
 30
0.0
 11
176.51793259758691
 21
39.855288251358161
 31
0.0
  0
LINE
  5
9FB5
  8
TITLE
 10
175.17338354985731
 20
38.42345433098194
 30
0.0
 11
176.552190055772
 21
39.802260836899677
 31
0.0
  0
LINE
  5
9FB6
  8
TITLE
 10
175.26066842250469
 20
38.42345433098194
 30
0.0
 11
176.552190055772
 21
39.714975964252858
 31
0.0
  0
LINE
  5
9FB7
  8
TITLE
 10
175.34795329515171
 20
38.42345433098194
 30
0.0
 11
176.552190055772
 21
39.627691091609051
 31
0.0
  0
LINE
  5
9FB8
  8
TITLE
 10
175.43523816779219
 20
38.42345433098194
 30
0.0
 11
176.552190055772
 21
39.540406218961891
 31
0.0
  0
LINE
  5
9FB9
  8
TITLE
 10
175.5225230404389
 20
38.42345433098194
 30
0.0
 11
176.552190055772
 21
39.453121346314788
 31
0.0
  0
LINE
  5
9FBA
  8
TITLE
 10
175.6098079130862
 20
38.42345433098194
 30
0.0
 11
176.552190055772
 21
39.365836473667457
 31
0.0
  0
LINE
  5
9FBB
  8
TITLE
 10
175.6970927857333
 20
38.42345433098194
 30
0.0
 11
176.552190055772
 21
39.278551601020808
 31
0.0
  0
LINE
  5
9FBC
  8
TITLE
 10
175.71637448554009
 20
38.355451158140909
 30
0.0
 11
176.552190055772
 21
39.191266728373201
 31
0.0
  0
LINE
  5
9FBD
  8
TITLE
 10
175.71637448554009
 20
38.268166285493798
 30
0.0
 11
176.575979231177
 21
39.127771031131147
 31
0.0
  0
LINE
  5
9FBE
  8
TITLE
 10
175.71637448554009
 20
38.180881412846823
 30
0.0
 11
176.66326410382419
 21
39.127771031131147
 31
0.0
  0
LINE
  5
9FBF
  8
TITLE
 10
174.99881380456321
 20
38.42345433098194
 30
0.0
 11
175.70313050471299
 21
39.127771031131147
 31
0.0
  0
LINE
  5
9FC0
  8
TITLE
 10
176.970097957646
 20
39.783744375538276
 30
0.0
 11
177.04164183346219
 21
39.855288251358161
 31
0.0
  0
LINE
  5
9FC1
  8
TITLE
 10
176.970097957646
 20
39.696459502891123
 30
0.0
 11
177.12892670610989
 21
39.855288251358161
 31
0.0
  0
LINE
  5
9FC2
  8
TITLE
 10
175.71637448554009
 20
39.141015011958253
 30
0.0
 11
176.43064772493989
 21
39.855288251358161
 31
0.0
  0
LINE
  5
9FC3
  8
TITLE
 10
175.71637448554009
 20
39.402869629899669
 30
0.0
 11
176.16879310699821
 21
39.855288251358161
 31
0.0
  0
LINE
  5
9FC4
  8
TITLE
 10
175.71637448554009
 20
39.315584757252388
 30
0.0
 11
176.25607797964551
 21
39.855288251358161
 31
0.0
  0
LINE
  5
9FC5
  8
TITLE
 10
175.71637448554009
 20
39.228299884605583
 30
0.0
 11
176.3433628522929
 21
39.855288251358161
 31
0.0
  0
LINE
  5
9FC6
  8
TITLE
 10
175.71637448554009
 20
39.664724247837739
 30
0.0
 11
175.9069384890567
 21
39.855288251358161
 31
0.0
  0
LINE
  5
9FC7
  8
TITLE
 10
175.71637448554009
 20
39.577439375193819
 30
0.0
 11
175.994223361704
 21
39.855288251358161
 31
0.0
  0
LINE
  5
9FC8
  8
TITLE
 10
175.71637448554009
 20
39.490154502546829
 30
0.0
 11
176.08150823435099
 21
39.855288251358161
 31
0.0
  0
LINE
  5
9FC9
  8
TITLE
 10
175.71637448554009
 20
39.839293993131889
 30
0.0
 11
175.7323687437694
 21
39.855288251358161
 31
0.0
  0
LINE
  5
9FCA
  8
TITLE
 10
175.71637448554009
 20
39.752009120484779
 30
0.0
 11
175.8196536164171
 21
39.855288251358161
 31
0.0
  0
LINE
  5
9FCB
  8
TITLE
 10
173.5149709695757
 20
38.42345433098194
 30
0.0
 11
174.21928766972539
 21
39.127771031131147
 31
0.0
  0
LINE
  5
9FCC
  8
TITLE
 10
173.6022558422157
 20
38.42345433098194
 30
0.0
 11
174.30657254237289
 21
39.127771031131147
 31
0.0
  0
LINE
  5
9FCD
  8
TITLE
 10
173.68954071486289
 20
38.42345433098194
 30
0.0
 11
174.39385741501269
 21
39.127771031131147
 31
0.0
  0
LINE
  5
9FCE
  8
TITLE
 10
173.77682558751019
 20
38.42345433098194
 30
0.0
 11
174.48114228765999
 21
39.127771031131147
 31
0.0
  0
LINE
  5
9FCF
  8
TITLE
 10
173.86411046015721
 20
38.42345433098194
 30
0.0
 11
174.5684271603069
 21
39.127771031131147
 31
0.0
  0
LINE
  5
9FD0
  8
TITLE
 10
173.95139533280451
 20
38.42345433098194
 30
0.0
 11
174.65571203295411
 21
39.127771031131147
 31
0.0
  0
LINE
  5
9FD1
  8
TITLE
 10
174.03868020545161
 20
38.42345433098194
 30
0.0
 11
174.7429969056013
 21
39.127771031131147
 31
0.0
  0
LINE
  5
9FD2
  8
TITLE
 10
174.1259650780986
 20
38.42345433098194
 30
0.0
 11
174.83028177824849
 21
39.127771031131147
 31
0.0
  0
LINE
  5
9FD3
  8
TITLE
 10
173.34040122428161
 20
38.42345433098194
 30
0.0
 11
174.0447179244313
 21
39.127771031131147
 31
0.0
  0
LINE
  5
9FD4
  8
TITLE
 10
173.42768609692891
 20
38.42345433098194
 30
0.0
 11
174.1320027970784
 21
39.127771031131147
 31
0.0
  0
LINE
  5
9FD5
  8
TITLE
 10
173.16583147898729
 20
38.42345433098194
 30
0.0
 11
173.87014817913709
 21
39.127771031131147
 31
0.0
  0
LINE
  5
9FD6
  8
TITLE
 10
173.2531163516345
 20
38.42345433098194
 30
0.0
 11
173.95743305178399
 21
39.127771031131147
 31
0.0
  0
LINE
  5
9FD7
  8
TITLE
 10
174.2132499507459
 20
38.42345433098194
 30
0.0
 11
174.91756665089551
 21
39.127771031131147
 31
0.0
  0
LINE
  5
9FD8
  8
TITLE
 10
174.30053482339309
 20
38.42345433098194
 30
0.0
 11
175.00485152354281
 21
39.127771031131147
 31
0.0
  0
LINE
  5
9FD9
  8
TITLE
 10
174.38781969604031
 20
38.42345433098194
 30
0.0
 11
175.09213639619011
 21
39.127771031131147
 31
0.0
  0
LINE
  5
9FDA
  8
TITLE
 10
174.47510456868019
 20
38.42345433098194
 30
0.0
 11
175.17942126883699
 21
39.127771031131147
 31
0.0
  0
LINE
  5
9FDB
  8
TITLE
 10
174.56238944132721
 20
38.42345433098194
 30
0.0
 11
175.26670614148421
 21
39.127771031131147
 31
0.0
  0
LINE
  5
9FDC
  8
TITLE
 10
174.64967431397449
 20
38.42345433098194
 30
0.0
 11
175.35399101412389
 21
39.127771031131147
 31
0.0
  0
LINE
  5
9FDD
  8
TITLE
 10
174.7369591866217
 20
38.42345433098194
 30
0.0
 11
175.44127588677119
 21
39.127771031131147
 31
0.0
  0
LINE
  5
9FDE
  8
TITLE
 10
174.82424405926869
 20
38.42345433098194
 30
0.0
 11
175.5285607594185
 21
39.127771031131147
 31
0.0
  0
LINE
  5
9FDF
  8
TITLE
 10
174.911528931916
 20
38.42345433098194
 30
0.0
 11
175.61584563206591
 21
39.127771031131147
 31
0.0
  0
LINE
  5
9FE0
  8
TITLE
 10
176.44103978077089
 20
35.501436674867307
 30
0.0
 11
177.0020096750921
 21
36.062406569188802
 31
0.0
  0
LINE
  5
9FE1
  8
TITLE
 10
176.47781156242999
 20
35.450923583876033
 30
0.0
 11
177.03825805769719
 21
36.011370079147191
 31
0.0
  0
LINE
  5
9FE2
  8
TITLE
 10
176.51530090558069
 20
35.401128054383321
 30
0.0
 11
177.07559288524419
 21
35.961420034046803
 31
0.0
  0
LINE
  5
9FE3
  8
TITLE
 10
176.55350294982489
 20
35.352045225980191
 30
0.0
 11
177.1140027875868
 21
35.9125450637423
 31
0.0
  0
LINE
  5
9FE4
  8
TITLE
 10
176.59241343422849
 20
35.30367083774388
 30
0.0
 11
177.1534784526776
 21
35.864735856185632
 31
0.0
  0
LINE
  5
9FE5
  8
TITLE
 10
176.63202868031709
 20
35.256001211177818
 30
0.0
 11
177.1940125419714
 21
35.817985072836052
 31
0.0
  0
LINE
  5
9FE6
  8
TITLE
 10
176.17349727554009
 20
35.932173150807103
 30
0.0
 11
176.75328605962699
 21
36.511961934897158
 31
0.0
  0
LINE
  5
9FE7
  8
TITLE
 10
176.2042737075104
 20
35.875664710130252
 30
0.0
 11
176.78013936494509
 21
36.451530367565169
 31
0.0
  0
LINE
  5
9FE8
  8
TITLE
 10
176.23583119751569
 20
35.819937327488333
 30
0.0
 11
176.80826264368369
 21
36.392368773656187
 31
0.0
  0
LINE
  5
9FE9
  8
TITLE
 10
176.26815910569891
 20
35.76498036302803
 30
0.0
 11
176.83762182390171
 21
36.334443081230738
 31
0.0
  0
LINE
  5
9FEA
  8
TITLE
 10
176.30124764501909
 20
35.710784029703973
 30
0.0
 11
176.8681866166537
 21
36.277723001335858
 31
0.0
  0
LINE
  5
9FEB
  8
TITLE
 10
176.33508783528751
 20
35.657339347325603
 30
0.0
 11
176.89993015214301
 21
36.222181664181171
 31
0.0
  0
LINE
  5
9FEC
  8
TITLE
 10
176.36967146210739
 20
35.604638101494857
 30
0.0
 11
176.9328286723624
 21
36.16779531175343
 31
0.0
  0
LINE
  5
9FED
  8
TITLE
 10
176.40499104020569
 20
35.552672806949893
 30
0.0
 11
176.96686127123721
 21
36.114543037981257
 31
0.0
  0
LINE
  5
9FEE
  8
TITLE
 10
175.24365830818141
 20
34.740479565507151
 30
0.0
 11
175.71637448554009
 21
35.213195742868891
 31
0.0
  0
LINE
  5
9FEF
  8
TITLE
 10
175.3690118717368
 20
34.778548256414979
 30
0.0
 11
175.71637448554009
 21
35.125910870221453
 31
0.0
  0
LINE
  5
9FF0
  8
TITLE
 10
175.49681557712771
 20
34.819067089162729
 30
0.0
 11
175.71637448554009
 21
35.03862599757781
 31
0.0
  0
LINE
  5
9FF1
  8
TITLE
 10
175.6272506006691
 20
34.862217240052992
 30
0.0
 11
175.71637448554009
 21
34.951341124930821
 31
0.0
  0
LINE
  5
9FF2
  8
TITLE
 10
175.8003916933412
 20
36.95562553094851
 30
0.0
 11
176.55127000115499
 21
37.706503838769258
 31
0.0
  0
LINE
  5
9FF3
  8
TITLE
 10
175.81623128597869
 20
36.884180250945242
 30
0.0
 11
176.54644819941009
 21
37.614397164377067
 31
0.0
  0
LINE
  5
9FF4
  8
TITLE
 10
175.83320787739041
 20
36.813871969706561
 30
0.0
 11
176.5449293008912
 21
37.525593393203792
 31
0.0
  0
LINE
  5
9FF5
  8
TITLE
 10
175.85128325036791
 20
36.74466247004068
 30
0.0
 11
176.54637638169021
 21
37.439755601363181
 31
0.0
  0
LINE
  5
9FF6
  8
TITLE
 10
175.87042235499689
 20
36.676516702022468
 30
0.0
 11
176.5505149286945
 21
37.356609275716487
 31
0.0
  0
LINE
  5
9FF7
  8
TITLE
 10
175.2837060949889
 20
36.962649168478997
 30
0.0
 11
175.4290626570608
 21
37.108005730550701
 31
0.0
  0
LINE
  5
9FF8
  8
TITLE
 10
175.8905929855639
 20
36.60940245994226
 30
0.0
 11
176.55711787864331
 21
37.275927353022162
 31
0.0
  0
LINE
  5
9FF9
  8
TITLE
 10
175.9117655004749
 20
36.543290102213227
 30
0.0
 11
176.56599500459231
 21
37.197519606330793
 31
0.0
  0
LINE
  5
9FFA
  8
TITLE
 10
175.93391257849069
 20
36.478152307574987
 30
0.0
 11
176.5769851972878
 21
37.121224926371838
 31
0.0
  0
LINE
  5
9FFB
  8
TITLE
 10
175.95700900562659
 20
36.41396386206344
 30
0.0
 11
176.5899507304791
 21
37.046905586915557
 31
0.0
  0
LINE
  5
9FFC
  8
TITLE
 10
176.11433472331589
 20
36.047580343876923
 30
0.0
 11
176.70354724378319
 21
36.636792864344621
 31
0.0
  0
LINE
  5
9FFD
  8
TITLE
 10
176.143513445617
 20
35.989474193531237
 30
0.0
 11
176.72774101430349
 21
36.573701762217581
 31
0.0
  0
LINE
  5
9FFE
  8
TITLE
 10
175.98103148839229
 20
36.35070147218579
 30
0.0
 11
176.60477292025979
 21
36.974442904049397
 31
0.0
  0
LINE
  5
9FFF
  8
TITLE
 10
176.0059584894297
 20
36.288343600572148
 30
0.0
 11
176.62134878534999
 21
36.903733896492497
 31
0.0
  0
LINE
  5
A000
  8
TITLE
 10
176.03177008247721
 20
36.226870320979863
 30
0.0
 11
176.6395884403222
 21
36.834688678824932
 31
0.0
  0
LINE
  5
A001
  8
TITLE
 10
176.058447824111
 20
36.16626318996282
 30
0.0
 11
176.65941303471749
 21
36.767228400569017
 31
0.0
  0
LINE
  5
A002
  8
TITLE
 10
176.0859746399021
 20
36.106505133110197
 30
0.0
 11
176.6807531050564
 21
36.701283598265213
 31
0.0
  0
LINE
  5
A003
  8
TITLE
 10
175.3709909676362
 20
36.962649168478997
 30
0.0
 11
175.4290626570608
 21
37.020720857903257
 31
0.0
  0
LINE
  5
A004
  8
TITLE
 10
174.99967796823049
 20
34.671068970850513
 30
0.0
 11
175.71637448554009
 21
35.387765488159523
 31
0.0
  0
LINE
  5
A005
  8
TITLE
 10
175.120594568873
 20
34.704700698852889
 30
0.0
 11
175.71637448554009
 21
35.300480615512242
 31
0.0
  0
LINE
  5
A006
  8
TITLE
 10
175.02185147704751
 20
36.962649168478997
 30
0.0
 11
175.4290626570608
 21
37.369860348492132
 31
0.0
  0
LINE
  5
A007
  8
TITLE
 10
175.10913634969469
 20
36.962649168478997
 30
0.0
 11
175.4290626570608
 21
37.282575475844681
 31
0.0
  0
LINE
  5
A008
  8
TITLE
 10
175.19642122234211
 20
36.962649168478997
 30
0.0
 11
175.4290626570608
 21
37.195290603197861
 31
0.0
  0
LINE
  5
A009
  8
TITLE
 10
173.60071599501441
 20
35.803368304383639
 30
0.0
 11
174.3581739212141
 21
36.560826230582911
 31
0.0
  0
LINE
  5
A00A
  8
TITLE
 10
173.60071599501441
 20
35.716083431740117
 30
0.0
 11
174.3581739212141
 21
36.47354135793563
 31
0.0
  0
LINE
  5
A00B
  8
TITLE
 10
173.60071599501441
 20
35.6287985590929
 30
0.0
 11
174.3581739212141
 21
36.386256485288811
 31
0.0
  0
LINE
  5
A00C
  8
TITLE
 10
173.60071599501441
 20
35.54151368644586
 30
0.0
 11
174.3581739212141
 21
36.298971612645289
 31
0.0
  0
LINE
  5
A00D
  8
TITLE
 10
173.60071599501441
 20
35.454228813798579
 30
0.0
 11
174.3581739212141
 21
36.211686739998193
 31
0.0
  0
LINE
  5
A00E
  8
TITLE
 10
173.60071599501441
 20
35.366943941151483
 30
0.0
 11
174.3581739212141
 21
36.124401867350741
 31
0.0
  0
LINE
  5
A00F
  8
TITLE
 10
173.60071599501441
 20
35.279659068504152
 30
0.0
 11
174.3581739212141
 21
36.03711699470341
 31
0.0
  0
LINE
  5
A010
  8
TITLE
 10
173.60071599501441
 20
35.977938049677682
 30
0.0
 11
174.3581739212141
 21
36.735395975873701
 31
0.0
  0
LINE
  5
A011
  8
TITLE
 10
173.60071599501441
 20
35.890653177030799
 30
0.0
 11
174.3581739212141
 21
36.648111103226491
 31
0.0
  0
LINE
  5
A012
  8
TITLE
 10
173.28131602967821
 20
34.349264994645132
 30
0.0
 11
174.3581739212141
 21
35.426122886180849
 31
0.0
  0
LINE
  5
A013
  8
TITLE
 10
173.37935675094789
 20
34.3600208432606
 30
0.0
 11
174.35879457702589
 21
35.33945866934625
 31
0.0
  0
LINE
  5
A014
  8
TITLE
 10
173.47842478709271
 20
34.371804006765501
 30
0.0
 11
174.4646026384068
 21
35.357981858079199
 31
0.0
  0
LINE
  5
A015
  8
TITLE
 10
173.57855665712589
 20
34.384651004147827
 30
0.0
 11
174.57140217761051
 21
35.377496524635831
 31
0.0
  0
LINE
  5
A016
  8
TITLE
 10
173.6797913845279
 20
34.39860085890615
 30
0.0
 11
174.67922584174639
 21
35.39803531612506
 31
0.0
  0
LINE
  5
A017
  8
TITLE
 10
173.78217074520569
 20
34.413695346936947
 30
0.0
 11
174.78810829274721
 21
35.419632894478468
 31
0.0
  0
LINE
  5
A018
  8
TITLE
 10
173.88573954792821
 20
34.429979277012031
 30
0.0
 11
174.89808638659389
 21
35.442326115677879
 31
0.0
  0
LINE
  5
A019
  8
TITLE
 10
173.18426838901689
 20
34.339502226623722
 30
0.0
 11
174.3581739212141
 21
35.513407758824371
 31
0.0
  0
LINE
  5
A01A
  8
TITLE
 10
173.27615402411891
 20
36.962649168478997
 30
0.0
 11
174.03264236355611
 21
37.719137507916351
 31
0.0
  0
LINE
  5
A01B
  8
TITLE
 10
173.36343889676601
 20
36.962649168478997
 30
0.0
 11
174.11992723620341
 21
37.719137507916351
 31
0.0
  0
LINE
  5
A01C
  8
TITLE
 10
173.450723769413
 20
36.962649168478997
 30
0.0
 11
174.2072121088502
 21
37.719137507916351
 31
0.0
  0
LINE
  5
A01D
  8
TITLE
 10
173.53800864206011
 20
36.962649168478997
 30
0.0
 11
174.2944969814977
 21
37.719137507916351
 31
0.0
  0
LINE
  5
A01E
  8
TITLE
 10
173.60071599501441
 20
36.938071648785872
 30
0.0
 11
174.38178185414449
 21
37.719137507916351
 31
0.0
  0
LINE
  5
A01F
  8
TITLE
 10
173.60071599501441
 20
36.8507867761424
 30
0.0
 11
174.46906672678489
 21
37.719137507916351
 31
0.0
  0
LINE
  5
A020
  8
TITLE
 10
173.60071599501441
 20
36.763501903495239
 30
0.0
 11
174.55635159943171
 21
37.719137507916351
 31
0.0
  0
LINE
  5
A021
  8
TITLE
 10
173.60071599501441
 20
36.67621703084825
 30
0.0
 11
174.64363647207921
 21
37.719137507916351
 31
0.0
  0
LINE
  5
A022
  8
TITLE
 10
173.18886915147129
 20
36.962649168478997
 30
0.0
 11
173.94535749090869
 21
37.719137507916351
 31
0.0
  0
LINE
  5
A023
  8
TITLE
 10
173.60071599501441
 20
36.58893215820445
 30
0.0
 11
174.73092134472611
 21
37.719137507916351
 31
0.0
  0
LINE
  5
A024
  8
TITLE
 10
173.60071599501441
 20
36.501647285557169
 30
0.0
 11
174.81820621737319
 21
37.719137507916351
 31
0.0
  0
LINE
  5
A025
  8
TITLE
 10
173.60071599501441
 20
36.414362412909888
 30
0.0
 11
174.90549109002049
 21
37.719137507916351
 31
0.0
  0
LINE
  5
A026
  8
TITLE
 10
173.60071599501441
 20
36.152507794968763
 30
0.0
 11
174.3581739212141
 21
36.909965721168142
 31
0.0
  0
LINE
  5
A027
  8
TITLE
 10
173.60071599501441
 20
36.065222922321418
 30
0.0
 11
174.3581739212141
 21
36.822680848520861
 31
0.0
  0
LINE
  5
A028
  8
TITLE
 10
174.09664183483491
 20
34.466311818631539
 30
0.0
 11
175.1214891236225
 21
35.491159107419271
 31
0.0
  0
LINE
  5
A029
  8
TITLE
 10
174.20408319845501
 20
34.486468309601207
 30
0.0
 11
175.23500037744691
 21
35.517385488596346
 31
0.0
  0
LINE
  5
A02A
  8
TITLE
 10
173.99054595289849
 20
34.447500809342451
 30
0.0
 11
175.0091993737162
 21
35.466154230157137
 31
0.0
  0
LINE
  5
A02B
  8
TITLE
 10
174.41085736852449
 20
36.962649168478997
 30
0.0
 11
175.16734570796191
 21
37.719137507916351
 31
0.0
  0
LINE
  5
A02C
  8
TITLE
 10
173.60071599501441
 20
36.239792667615859
 30
0.0
 11
175.0800608353147
 21
37.719137507916351
 31
0.0
  0
LINE
  5
A02D
  8
TITLE
 10
173.60071599501441
 20
36.32707754026319
 30
0.0
 11
174.99277596266771
 21
37.719137507916351
 31
0.0
  0
LINE
  5
A02E
  8
TITLE
 10
174.31293065595909
 20
34.508030894457988
 30
0.0
 11
175.34978103284129
 21
35.544881271343627
 31
0.0
  0
LINE
  5
A02F
  8
TITLE
 10
174.42324997823999
 20
34.531065344095282
 30
0.0
 11
175.46588246637299
 21
35.573697832228113
 31
0.0
  0
LINE
  5
A030
  8
TITLE
 10
174.53511273419741
 20
34.555643227405596
 30
0.0
 11
175.58335989966699
 21
35.603890392875087
 31
0.0
  0
LINE
  5
A031
  8
TITLE
 10
174.64859703605529
 20
34.58184265662004
 30
0.0
 11
175.70227281683009
 21
35.63551843739134
 31
0.0
  0
LINE
  5
A032
  8
TITLE
 10
174.76378841308099
 20
34.609749160995023
 30
0.0
 11
175.71637448554009
 21
35.562335233453837
 31
0.0
  0
LINE
  5
A033
  8
TITLE
 10
174.88078084175169
 20
34.639456717018497
 30
0.0
 11
175.71637448554009
 21
35.475050360806513
 31
0.0
  0
LINE
  5
A034
  8
TITLE
 10
174.49814224117159
 20
36.962649168478997
 30
0.0
 11
175.2546305806091
 21
37.719137507916351
 31
0.0
  0
LINE
  5
A035
  8
TITLE
 10
174.58542711381909
 20
36.962649168478997
 30
0.0
 11
175.3419154532491
 21
37.719137507916351
 31
0.0
  0
LINE
  5
A036
  8
TITLE
 10
174.6727119864658
 20
36.962649168478997
 30
0.0
 11
175.4290626570608
 21
37.718999839073149
 31
0.0
  0
LINE
  5
A037
  8
TITLE
 10
174.7599968591058
 20
36.962649168478997
 30
0.0
 11
175.4290626570608
 21
37.63171496642974
 31
0.0
  0
LINE
  5
A038
  8
TITLE
 10
174.84728173175321
 20
36.962649168478997
 30
0.0
 11
175.4290626570608
 21
37.544430093782921
 31
0.0
  0
LINE
  5
A039
  8
TITLE
 10
174.9345666044002
 20
36.962649168478997
 30
0.0
 11
175.4290626570608
 21
37.457145221135477
 31
0.0
  0
LINE
  5
A03A
  8
TITLE
 10
175.71748810799579
 20
37.658285799423197
 30
0.0
 11
177.1869733397001
 21
39.127771031131147
 31
0.0
  0
LINE
  5
A03B
  8
TITLE
 10
175.7318792822941
 20
37.410822355783921
 30
0.0
 11
176.552190055772
 21
38.231133129262048
 31
0.0
  0
LINE
  5
A03C
  8
TITLE
 10
175.73986084330869
 20
37.331519044151548
 30
0.0
 11
176.552190055772
 21
38.143848256614717
 31
0.0
  0
LINE
  5
A03D
  8
TITLE
 10
175.7206034077517
 20
37.574116226535871
 30
0.0
 11
176.552190055772
 21
38.405702874556198
 31
0.0
  0
LINE
  5
A03E
  8
TITLE
 10
175.7254320336809
 20
37.49165997981811
 30
0.0
 11
176.552190055772
 21
38.318418001909038
 31
0.0
  0
LINE
  5
A03F
  8
TITLE
 10
175.7857308582789
 20
37.028249568540787
 30
0.0
 11
176.552190055772
 21
37.794708766033359
 31
0.0
  0
LINE
  5
A040
  8
TITLE
 10
175.74930129885689
 20
37.253674627056171
 30
0.0
 11
176.552190055772
 21
38.056563383970797
 31
0.0
  0
LINE
  5
A041
  8
TITLE
 10
175.76013289342771
 20
37.177221348979799
 30
0.0
 11
176.552190055772
 21
37.969278511323701
 31
0.0
  0
LINE
  5
A042
  8
TITLE
 10
175.77229451706521
 20
37.102098099970021
 30
0.0
 11
176.552190055772
 21
37.881993638676818
 31
0.0
  0
LINE
  5
A043
  8
TITLE
 10
179.093755109
 20
37.979582257802413
 30
0.0
 11
180.9694611025559
 21
39.855288251358161
 31
0.0
  0
LINE
  5
A044
  8
TITLE
 10
179.22271149789859
 20
38.021253774057868
 30
0.0
 11
181.05674597520311
 21
39.855288251358161
 31
0.0
  0
LINE
  5
A045
  8
TITLE
 10
179.30763632220379
 20
38.018893725715202
 30
0.0
 11
181.14403084784999
 21
39.855288251358161
 31
0.0
  0
LINE
  5
A046
  8
TITLE
 10
179.30763632220379
 20
37.93160885307185
 30
0.0
 11
181.23131572048999
 21
39.855288251358161
 31
0.0
  0
LINE
  5
A047
  8
TITLE
 10
179.30763632220379
 20
37.757039107777423
 30
0.0
 11
179.7640706689503
 21
38.213473454524369
 31
0.0
  0
LINE
  5
A048
  8
TITLE
 10
179.42597096264541
 20
35.60596705941083
 30
0.0
 11
180.8082574856962
 21
36.988253582461773
 31
0.0
  0
LINE
  5
A049
  8
TITLE
 10
179.54787736159619
 20
35.90244320365241
 30
0.0
 11
180.6336877404091
 21
36.988253582461773
 31
0.0
  0
LINE
  5
A04A
  8
TITLE
 10
179.50456043923509
 20
35.77184140864432
 30
0.0
 11
180.7209726130489
 21
36.988253582461773
 31
0.0
  0
LINE
  5
A04B
  8
TITLE
 10
179.07080186643751
 20
34.290664364088173
 30
0.0
 11
180.28969369215821
 21
35.509556189809132
 31
0.0
  0
LINE
  5
A04C
  8
TITLE
 10
179.15808673908481
 20
34.290664364088173
 30
0.0
 11
180.20073237026341
 21
35.33330999527044
 31
0.0
  0
LINE
  5
A04D
  8
TITLE
 10
179.24537161173171
 20
34.290664364088173
 30
0.0
 11
180.03758041283569
 21
35.082873165192332
 31
0.0
  0
LINE
  5
A04E
  8
TITLE
 10
179.3326564843791
 20
34.290664364088173
 30
0.0
 11
180.0490391168089
 21
35.007046996521872
 31
0.0
  0
LINE
  5
A04F
  8
TITLE
 10
179.4199413570262
 20
34.290664364088173
 30
0.0
 11
180.13632398945589
 21
35.007046996521872
 31
0.0
  0
LINE
  5
A050
  8
TITLE
 10
179.50722622967299
 20
34.290664364088173
 30
0.0
 11
180.2236088621035
 21
35.007046996521872
 31
0.0
  0
LINE
  5
A051
  8
TITLE
 10
179.05698927666421
 20
36.284403845184897
 30
0.0
 11
179.7608390139373
 21
36.988253582461773
 31
0.0
  0
LINE
  5
A052
  8
TITLE
 10
179.1442741493112
 20
36.284403845184897
 30
0.0
 11
179.8481238865848
 21
36.988253582461773
 31
0.0
  0
LINE
  5
A053
  8
TITLE
 10
179.2315590219585
 20
36.284403845184897
 30
0.0
 11
179.93540875923171
 21
36.988253582461773
 31
0.0
  0
LINE
  5
A054
  8
TITLE
 10
179.31884389460569
 20
36.284403845184897
 30
0.0
 11
180.02269363187901
 21
36.988253582461773
 31
0.0
  0
LINE
  5
A055
  8
TITLE
 10
179.40612876725271
 20
36.284403845184897
 30
0.0
 11
180.109978504526
 21
36.988253582461773
 31
0.0
  0
LINE
  5
A056
  8
TITLE
 10
179.4934136398999
 20
36.284403845184897
 30
0.0
 11
180.19726337717299
 21
36.988253582461773
 31
0.0
  0
LINE
  5
A057
  8
TITLE
 10
179.59451110231311
 20
34.290664364088173
 30
0.0
 11
180.31089373475021
 21
35.007046996521872
 31
0.0
  0
LINE
  5
A058
  8
TITLE
 10
179.68179597496029
 20
34.290664364088173
 30
0.0
 11
180.3981786073976
 21
35.007046996521872
 31
0.0
  0
LINE
  5
A059
  8
TITLE
 10
179.76908084760731
 20
34.290664364088173
 30
0.0
 11
180.4854634800449
 21
35.007046996521872
 31
0.0
  0
LINE
  5
A05A
  8
TITLE
 10
179.85636572025479
 20
34.290664364088173
 30
0.0
 11
180.57274835268481
 21
35.007046996521872
 31
0.0
  0
LINE
  5
A05B
  8
TITLE
 10
179.94365059290209
 20
34.290664364088173
 30
0.0
 11
180.66003322533189
 21
35.007046996521872
 31
0.0
  0
LINE
  5
A05C
  8
TITLE
 10
180.03093546554911
 20
34.290664364088173
 30
0.0
 11
180.7473180979789
 21
35.007046996521872
 31
0.0
  0
LINE
  5
A05D
  8
TITLE
 10
180.11822033819621
 20
34.290664364088173
 30
0.0
 11
180.83460297062621
 21
35.007046996521872
 31
0.0
  0
LINE
  5
A05E
  8
TITLE
 10
180.2055052108432
 20
34.290664364088173
 30
0.0
 11
180.92188784327311
 21
35.007046996521872
 31
0.0
  0
LINE
  5
A05F
  8
TITLE
 10
180.29279008349039
 20
34.290664364088173
 30
0.0
 11
181.0091727159205
 21
35.007046996521872
 31
0.0
  0
LINE
  5
A060
  8
TITLE
 10
180.38007495613789
 20
34.290664364088173
 30
0.0
 11
181.0964575885676
 21
35.007046996521872
 31
0.0
  0
LINE
  5
A061
  8
TITLE
 10
180.46735982878471
 20
34.290664364088173
 30
0.0
 11
181.18374246121491
 21
35.007046996521872
 31
0.0
  0
LINE
  5
A062
  8
TITLE
 10
180.55464470142499
 20
34.290664364088173
 30
0.0
 11
181.2710273338617
 21
35.007046996521872
 31
0.0
  0
LINE
  5
A063
  8
TITLE
 10
179.58069851254709
 20
36.284403845184897
 30
0.0
 11
180.2845482498204
 21
36.988253582461773
 31
0.0
  0
LINE
  5
A064
  8
TITLE
 10
179.5941752098594
 20
36.210595669849909
 30
0.0
 11
180.37183312246739
 21
36.988253582461773
 31
0.0
  0
LINE
  5
A065
  8
TITLE
 10
179.58800011549141
 20
36.117135702838709
 30
0.0
 11
180.45911799511481
 21
36.988253582461773
 31
0.0
  0
LINE
  5
A066
  8
TITLE
 10
179.57360172820739
 20
36.015452442911233
 30
0.0
 11
180.54640286776191
 21
36.988253582461773
 31
0.0
  0
LINE
  5
A067
  8
TITLE
 10
180.54083211165869
 20
36.284403845184897
 30
0.0
 11
181.2446818489318
 21
36.988253582461773
 31
0.0
  0
LINE
  5
A068
  8
TITLE
 10
179.30763632220379
 20
37.669754235130142
 30
0.0
 11
179.85135554159709
 21
38.213473454524369
 31
0.0
  0
LINE
  5
A069
  8
TITLE
 10
179.30763632220379
 20
37.582469362483103
 30
0.0
 11
179.9386404142447
 21
38.213473454524369
 31
0.0
  0
LINE
  5
A06A
  8
TITLE
 10
179.30763632220379
 20
37.495184489835822
 30
0.0
 11
180.02592528689189
 21
38.213473454524369
 31
0.0
  0
LINE
  5
A06B
  8
TITLE
 10
179.33115489589551
 20
37.431418190884472
 30
0.0
 11
180.11321015953891
 21
38.213473454524369
 31
0.0
  0
LINE
  5
A06C
  8
TITLE
 10
179.4184397685429
 20
37.431418190884472
 30
0.0
 11
180.2004950321861
 21
38.213473454524369
 31
0.0
  0
LINE
  5
A06D
  8
TITLE
 10
179.5057246411902
 20
37.431418190884472
 30
0.0
 11
180.2877799048332
 21
38.213473454524369
 31
0.0
  0
LINE
  5
A06E
  8
TITLE
 10
179.5930095138369
 20
37.431418190884472
 30
0.0
 11
180.37506477748019
 21
38.213473454524369
 31
0.0
  0
LINE
  5
A06F
  8
TITLE
 10
179.68029438648449
 20
37.431418190884472
 30
0.0
 11
180.46234965012769
 21
38.213473454524369
 31
0.0
  0
LINE
  5
A070
  8
TITLE
 10
179.76757925913151
 20
37.431418190884472
 30
0.0
 11
180.54963452276749
 21
38.213473454524369
 31
0.0
  0
LINE
  5
A071
  8
TITLE
 10
179.8548641317783
 20
37.431418190884472
 30
0.0
 11
180.63691939541471
 21
38.213473454524369
 31
0.0
  0
LINE
  5
A072
  8
TITLE
 10
179.94214900442569
 20
37.431418190884472
 30
0.0
 11
180.7242042680619
 21
38.213473454524369
 31
0.0
  0
LINE
  5
A073
  8
TITLE
 10
180.02943387707271
 20
37.431418190884472
 30
0.0
 11
180.8114891407092
 21
38.213473454524369
 31
0.0
  0
LINE
  5
A074
  8
TITLE
 10
180.11671874971989
 20
37.431418190884472
 30
0.0
 11
180.8987740133561
 21
38.213473454524369
 31
0.0
  0
LINE
  5
A075
  8
TITLE
 10
180.20400362236711
 20
37.431418190884472
 30
0.0
 11
180.98605888600329
 21
38.213473454524369
 31
0.0
  0
LINE
  5
A076
  8
TITLE
 10
180.29128849500711
 20
37.431418190884472
 30
0.0
 11
181.0733437586504
 21
38.213473454524369
 31
0.0
  0
LINE
  5
A077
  8
TITLE
 10
180.37857336765421
 20
37.431418190884472
 30
0.0
 11
181.1606286312977
 21
38.213473454524369
 31
0.0
  0
LINE
  5
A078
  8
TITLE
 10
180.4658582403014
 20
37.431418190884472
 30
0.0
 11
181.24791350394489
 21
38.213473454524369
 31
0.0
  0
LINE
  5
A079
  8
TITLE
 10
177.61735998395619
 20
38.42345433098194
 30
0.0
 11
177.85815195723319
 21
38.664246304259173
 31
0.0
  0
LINE
  5
A07A
  8
TITLE
 10
177.7046448566031
 20
38.42345433098194
 30
0.0
 11
177.85815195723319
 21
38.576961431611892
 31
0.0
  0
LINE
  5
A07B
  8
TITLE
 10
177.7919297292504
 20
38.42345433098194
 30
0.0
 11
177.85815195723319
 21
38.489676558964732
 31
0.0
  0
LINE
  5
A07C
  8
TITLE
 10
178.42017100028289
 20
38.615271238781872
 30
0.0
 11
178.5058177253531
 21
38.700917963855773
 31
0.0
  0
LINE
  5
A07D
  8
TITLE
 10
178.42017100028289
 20
38.527986366134883
 30
0.0
 11
178.6134336205875
 21
38.721248986442852
 31
0.0
  0
LINE
  5
A07E
  8
TITLE
 10
178.42017100028289
 20
38.440701493491588
 30
0.0
 11
178.72504972328761
 21
38.745580216496187
 31
0.0
  0
LINE
  5
A07F
  8
TITLE
 10
178.42017100028289
 20
38.35341662084415
 30
0.0
 11
178.84123848161931
 21
38.774484102180793
 31
0.0
  0
LINE
  5
A080
  8
TITLE
 10
177.44279023866179
 20
38.42345433098194
 30
0.0
 11
177.85815195723319
 21
38.838816049552968
 31
0.0
  0
LINE
  5
A081
  8
TITLE
 10
177.530075111309
 20
38.42345433098194
 30
0.0
 11
177.85815195723319
 21
38.751531176906148
 31
0.0
  0
LINE
  5
A082
  8
TITLE
 10
178.42017100028289
 20
38.266131748196813
 30
0.0
 11
178.96273860190229
 21
38.8086993498165
 31
0.0
  0
LINE
  5
A083
  8
TITLE
 10
177.26822049336789
 20
38.42345433098194
 30
0.0
 11
177.85815195723319
 21
39.013385794843828
 31
0.0
  0
LINE
  5
A084
  8
TITLE
 10
177.355505366015
 20
38.42345433098194
 30
0.0
 11
177.85815195723319
 21
38.926100922200312
 31
0.0
  0
LINE
  5
A085
  8
TITLE
 10
177.29934754902291
 20
39.414714985748788
 30
0.0
 11
177.7399208146399
 21
39.855288251358161
 31
0.0
  0
LINE
  5
A086
  8
TITLE
 10
177.38663242166999
 20
39.414714985748788
 30
0.0
 11
177.82720568727979
 21
39.855288251358161
 31
0.0
  0
LINE
  5
A087
  8
TITLE
 10
177.4739172943172
 20
39.414714985748788
 30
0.0
 11
177.85815195723319
 21
39.798949648664738
 31
0.0
  0
LINE
  5
A088
  8
TITLE
 10
177.56120216696439
 20
39.414714985748788
 30
0.0
 11
177.85815195723319
 21
39.711664776017471
 31
0.0
  0
LINE
  5
A089
  8
TITLE
 10
177.64848703961189
 20
39.414714985748788
 30
0.0
 11
177.85815195723319
 21
39.624379903370773
 31
0.0
  0
LINE
  5
A08A
  8
TITLE
 10
177.73577191225891
 20
39.414714985748788
 30
0.0
 11
177.85815195723319
 21
39.537095030723151
 31
0.0
  0
LINE
  5
A08B
  8
TITLE
 10
177.8230567849059
 20
39.414714985748788
 30
0.0
 11
177.85815195723319
 21
39.449810158075877
 31
0.0
  0
LINE
  5
A08C
  8
TITLE
 10
177.2598852130873
 20
34.661869526898727
 30
0.0
 11
177.85815195723319
 21
35.260136271048736
 31
0.0
  0
LINE
  5
A08D
  8
TITLE
 10
177.31000095156301
 20
34.624700392730801
 30
0.0
 11
177.85815195723319
 21
35.172851398401292
 31
0.0
  0
LINE
  5
A08E
  8
TITLE
 10
177.3608366238407
 20
34.588251192358307
 30
0.0
 11
177.85815195723319
 21
35.085566525753848
 31
0.0
  0
LINE
  5
A08F
  8
TITLE
 10
177.412397993496
 20
34.552527689373107
 30
0.0
 11
177.85815195723319
 21
34.998281653107142
 31
0.0
  0
LINE
  5
A090
  8
TITLE
 10
178.7072920514299
 20
34.887288148192063
 30
0.0
 11
178.92447534009781
 21
35.104471436859633
 31
0.0
  0
LINE
  5
A091
  8
TITLE
 10
177.6813393473052
 20
34.385044679946759
 30
0.0
 11
177.85815195723319
 21
34.561857289874979
 31
0.0
  0
LINE
  5
A092
  8
TITLE
 10
177.7374145998121
 20
34.353835059810081
 30
0.0
 11
177.85815195723319
 21
34.474572417227648
 31
0.0
  0
LINE
  5
A093
  8
TITLE
 10
177.79427595704749
 20
34.323411544398141
 30
0.0
 11
177.85815195723319
 21
34.38728754458441
 31
0.0
  0
LINE
  5
A094
  8
TITLE
 10
177.85193538549319
 20
34.293786100193302
 30
0.0
 11
177.85815195723319
 21
34.300002671937023
 31
0.0
  0
LINE
  5
A095
  8
TITLE
 10
177.46469147699219
 20
34.517536300218687
 30
0.0
 11
177.85815195723319
 21
34.910996780459868
 31
0.0
  0
LINE
  5
A096
  8
TITLE
 10
177.51772417073701
 20
34.483284121316672
 30
0.0
 11
177.85815195723319
 21
34.823711907812879
 31
0.0
  0
LINE
  5
A097
  8
TITLE
 10
177.5715038817597
 20
34.449778959692082
 30
0.0
 11
177.85815195723319
 21
34.736427035165548
 31
0.0
  0
LINE
  5
A098
  8
TITLE
 10
177.62603916208019
 20
34.417029367365217
 30
0.0
 11
177.85815195723319
 21
34.649142162521798
 31
0.0
  0
LINE
  5
A099
  8
TITLE
 10
178.7072920514299
 20
34.974573020839223
 30
0.0
 11
178.75860099086091
 21
35.02588196027375
 31
0.0
  0
LINE
  5
A09A
  8
TITLE
 10
178.42017100028289
 20
36.433149422620772
 30
0.0
 11
178.9752751601205
 21
36.988253582461773
 31
0.0
  0
LINE
  5
A09B
  8
TITLE
 10
178.42017100028289
 20
36.695004040559013
 30
0.0
 11
178.7134205421861
 21
36.988253582461773
 31
0.0
  0
LINE
  5
A09C
  8
TITLE
 10
178.42017100028289
 20
36.607719167915093
 30
0.0
 11
178.80070541483289
 21
36.988253582461773
 31
0.0
  0
LINE
  5
A09D
  8
TITLE
 10
178.42017100028289
 20
36.520434295268053
 30
0.0
 11
178.88799028747309
 21
36.988253582461773
 31
0.0
  0
LINE
  5
A09E
  8
TITLE
 10
178.42017100028289
 20
36.956858658496863
 30
0.0
 11
178.45156592424439
 21
36.988253582461773
 31
0.0
  0
LINE
  5
A09F
  8
TITLE
 10
178.42017100028289
 20
36.869573785849532
 30
0.0
 11
178.53885079689141
 21
36.988253582461773
 31
0.0
  0
LINE
  5
A0A0
  8
TITLE
 10
178.42017100028289
 20
36.78228891320618
 30
0.0
 11
178.62613566953891
 21
36.988253582461773
 31
0.0
  0
LINE
  5
A0A1
  8
TITLE
 10
178.42017100028289
 20
37.916992257608122
 30
0.0
 11
179.52877310758799
 21
39.02559436491709
 31
0.0
  0
LINE
  5
A0A2
  8
TITLE
 10
178.42017100028289
 20
37.829707384960791
 30
0.0
 11
179.70443841008881
 21
39.113974794770058
 31
0.0
  0
LINE
  5
A0A3
  8
TITLE
 10
178.5127011256331
 20
37.834952637663832
 30
0.0
 11
179.90866117937921
 21
39.230912691410254
 31
0.0
  0
LINE
  5
A0A4
  8
TITLE
 10
178.6219517500719
 20
37.856918389459338
 30
0.0
 11
180.17143789622659
 21
39.406404535614172
 31
0.0
  0
LINE
  5
A0A5
  8
TITLE
 10
178.73431182131
 20
37.881993588050143
 30
0.0
 11
180.70760648461419
 21
39.855288251358161
 31
0.0
  0
LINE
  5
A0A6
  8
TITLE
 10
178.85011463170659
 20
37.91051152580696
 30
0.0
 11
180.79489135726141
 21
39.855288251358161
 31
0.0
  0
LINE
  5
A0A7
  8
TITLE
 10
178.96976362208
 20
37.942875643533398
 30
0.0
 11
180.88217622990879
 21
39.855288251358161
 31
0.0
  0
LINE
  5
A0A8
  8
TITLE
 10
178.7072920514299
 20
34.800003275544903
 30
0.0
 11
180.89554235834311
 21
36.988253582461773
 31
0.0
  0
LINE
  5
A0A9
  8
TITLE
 10
178.7072920514299
 20
34.712718402897728
 30
0.0
 11
180.98282723099041
 21
36.988253582461773
 31
0.0
  0
LINE
  5
A0AA
  8
TITLE
 10
178.7072920514299
 20
34.625433530250923
 30
0.0
 11
181.0701121036378
 21
36.988253582461773
 31
0.0
  0
LINE
  5
A0AB
  8
TITLE
 10
178.7072920514299
 20
34.53814865760711
 30
0.0
 11
181.15739697628479
 21
36.988253582461773
 31
0.0
  0
LINE
  5
A0AC
  8
TITLE
 10
178.7072920514299
 20
34.450863784960241
 30
0.0
 11
180.47909126485251
 21
36.222662998378837
 31
0.0
  0
LINE
  5
A0AD
  8
TITLE
 10
178.7072920514299
 20
34.363578912316491
 30
0.0
 11
180.4674022030255
 21
36.123689063912032
 31
0.0
  0
LINE
  5
A0AE
  8
TITLE
 10
178.72166237584861
 20
34.290664364088173
 30
0.0
 11
180.45021234783221
 21
36.019214336071798
 31
0.0
  0
LINE
  5
A0AF
  8
TITLE
 10
178.8089472484962
 20
34.290664364088173
 30
0.0
 11
180.42631676081061
 21
35.90803387640284
 31
0.0
  0
LINE
  5
A0B0
  8
TITLE
 10
178.89623212114321
 20
34.290664364088173
 30
0.0
 11
180.39392155695751
 21
35.788353799902438
 31
0.0
  0
LINE
  5
A0B1
  8
TITLE
 10
178.9835169937902
 20
34.290664364088173
 30
0.0
 11
180.35013511005911
 21
35.657282480356677
 31
0.0
  0
LINE
  5
A0B2
  8
TITLE
 10
178.88241953136981
 20
36.284403845184897
 30
0.0
 11
179.5862692686502
 21
36.988253582461773
 31
0.0
  0
LINE
  5
A0B3
  8
TITLE
 10
178.96970440401719
 20
36.284403845184897
 30
0.0
 11
179.6735541412975
 21
36.988253582461773
 31
0.0
  0
LINE
  5
A0B4
  8
TITLE
 10
178.79513465872981
 20
36.284403845184897
 30
0.0
 11
179.49898439600301
 21
36.988253582461773
 31
0.0
  0
LINE
  5
A0B5
  8
TITLE
 10
178.42017100028289
 20
36.345864549973953
 30
0.0
 11
179.06256003276721
 21
36.988253582461773
 31
0.0
  0
LINE
  5
A0B6
  8
TITLE
 10
178.44599516814111
 20
36.284403845184897
 30
0.0
 11
179.1498449054144
 21
36.988253582461773
 31
0.0
  0
LINE
  5
A0B7
  8
TITLE
 10
178.5332800407885
 20
36.284403845184897
 30
0.0
 11
179.2371297780619
 21
36.988253582461773
 31
0.0
  0
LINE
  5
A0B8
  8
TITLE
 10
178.62056491343569
 20
36.284403845184897
 30
0.0
 11
179.324414650709
 21
36.988253582461773
 31
0.0
  0
LINE
  5
A0B9
  8
TITLE
 10
178.70784978608279
 20
36.284403845184897
 30
0.0
 11
179.41169952335599
 21
36.988253582461773
 31
0.0
  0
LINE
  5
A0BA
  8
TITLE
 10
178.42017100028289
 20
38.178846875549652
 30
0.0
 11
179.0905322058241
 21
38.849208081094453
 31
0.0
  0
LINE
  5
A0BB
  8
TITLE
 10
178.42017100028289
 20
38.09156200290284
 30
0.0
 11
179.22597544339479
 21
38.897366446014821
 31
0.0
  0
LINE
  5
A0BC
  8
TITLE
 10
178.42017100028289
 20
38.004277130255844
 30
0.0
 11
179.3710363945863
 21
38.955142524558937
 31
0.0
  0
LINE
  5
A0BD
  8
TITLE
 10
184.9308673585742
 20
38.317747530649108
 30
0.0
 11
186.4151772655442
 21
39.802057437618657
 31
0.0
  0
LINE
  5
A0BE
  8
TITLE
 10
185.01815223122151
 20
38.317747530649108
 30
0.0
 11
186.4151772655442
 21
39.714772564971383
 31
0.0
  0
LINE
  5
A0BF
  8
TITLE
 10
185.10543710386139
 20
38.317747530649108
 30
0.0
 11
186.4151772655442
 21
39.627487692324678
 31
0.0
  0
LINE
  5
A0C0
  8
TITLE
 10
185.19272197650841
 20
38.317747530649108
 30
0.0
 11
186.4151772655442
 21
39.540202819677241
 31
0.0
  0
LINE
  5
A0C1
  8
TITLE
 10
185.28000684915571
 20
38.317747530649108
 30
0.0
 11
186.4151772655442
 21
39.452917947030301
 31
0.0
  0
LINE
  5
A0C2
  8
TITLE
 10
185.36729172180301
 20
38.317747530649108
 30
0.0
 11
186.4151772655442
 21
39.36563307438297
 31
0.0
  0
LINE
  5
A0C3
  8
TITLE
 10
184.7562976132802
 20
38.317747530649108
 30
0.0
 11
185.4165327229928
 21
38.977982640358562
 31
0.0
  0
LINE
  5
A0C4
  8
TITLE
 10
184.84358248592699
 20
38.317747530649108
 30
0.0
 11
185.50381759563271
 21
38.977982640358562
 31
0.0
  0
LINE
  5
A0C5
  8
TITLE
 10
185.3434612796857
 20
35.937225527073231
 30
0.0
 11
186.98934019813669
 21
37.5831044455241
 31
0.0
  0
LINE
  5
A0C6
  8
TITLE
 10
184.5358391153249
 20
35.827882343885619
 30
0.0
 11
187.23669575390119
 21
38.528738982458492
 31
0.0
  0
LINE
  5
A0C7
  8
TITLE
 10
184.7065052689407
 20
35.736693879563859
 30
0.0
 11
187.18987184564591
 21
38.220060456265692
 31
0.0
  0
LINE
  5
A0C8
  8
TITLE
 10
184.81859340874371
 20
35.761497146719648
 30
0.0
 11
187.16506857849009
 21
38.107972316465982
 31
0.0
  0
LINE
  5
A0C9
  8
TITLE
 10
184.93666218680019
 20
35.792281052128828
 30
0.0
 11
187.134284673081
 21
37.989903538409983
 31
0.0
  0
LINE
  5
A0CA
  8
TITLE
 10
185.06202366736809
 20
35.830357660049401
 30
0.0
 11
187.09620806515309
 21
37.864542057835081
 31
0.0
  0
LINE
  5
A0CB
  8
TITLE
 10
185.19660625807899
 20
35.877655378113452
 30
0.0
 11
187.04891034709621
 21
37.729959467130762
 31
0.0
  0
LINE
  5
A0CC
  8
TITLE
 10
184.5358391153249
 20
35.740597471242097
 30
0.0
 11
187.22506325416401
 21
38.429821610074441
 31
0.0
  0
LINE
  5
A0CD
  8
TITLE
 10
184.59945646041291
 20
35.716929943683112
 30
0.0
 11
187.2096357815262
 21
38.32710926478979
 31
0.0
  0
LINE
  5
A0CE
  8
TITLE
 10
184.5358391153249
 20
38.970137759158263
 30
0.0
 11
184.54368399652901
 21
38.977982640358562
 31
0.0
  0
LINE
  5
A0CF
  8
TITLE
 10
184.5358391153249
 20
38.882852886510818
 30
0.0
 11
184.6309688691689
 21
38.977982640358562
 31
0.0
  0
LINE
  5
A0D0
  8
TITLE
 10
184.5358391153249
 20
38.795568013863829
 30
0.0
 11
184.71825374181589
 21
38.977982640358562
 31
0.0
  0
LINE
  5
A0D1
  8
TITLE
 10
183.15732368283599
 20
38.028046689904791
 30
0.0
 11
183.84005054913689
 21
38.710773556205709
 31
0.0
  0
LINE
  5
A0D2
  8
TITLE
 10
183.22273474111651
 20
38.006172875538759
 30
0.0
 11
183.91406439253041
 21
38.697502526952519
 31
0.0
  0
LINE
  5
A0D3
  8
TITLE
 10
183.28885476830919
 20
37.985008030084153
 30
0.0
 11
183.97987964601671
 21
38.676032907791701
 31
0.0
  0
LINE
  5
A0D4
  8
TITLE
 10
183.35569811517121
 20
37.964566504295362
 30
0.0
 11
183.97987964601671
 21
38.588748035144313
 31
0.0
  0
LINE
  5
A0D5
  8
TITLE
 10
183.63062360672581
 20
37.890352505265241
 30
0.0
 11
183.97987964601671
 21
38.239608544559466
 31
0.0
  0
LINE
  5
A0D6
  8
TITLE
 10
183.70133171112039
 20
37.873775737012238
 30
0.0
 11
183.97987964601671
 21
38.152323671915667
 31
0.0
  0
LINE
  5
A0D7
  8
TITLE
 10
183.42328000347609
 20
37.94486351995284
 30
0.0
 11
183.97987964601671
 21
38.501463162497089
 31
0.0
  0
LINE
  5
A0D8
  8
TITLE
 10
183.4916165907085
 20
37.925915234538138
 30
0.0
 11
183.97987964601671
 21
38.414178289853801
 31
0.0
  0
LINE
  5
A0D9
  8
TITLE
 10
183.56072504150649
 20
37.907738812692742
 30
0.0
 11
183.97987964601671
 21
38.326893417206747
 31
0.0
  0
LINE
  5
A0DA
  8
TITLE
 10
183.77287005082221
 20
37.858029204074292
 30
0.0
 11
183.97987964601671
 21
38.065038799268557
 31
0.0
  0
LINE
  5
A0DB
  8
TITLE
 10
183.845260701981
 20
37.843134982585809
 30
0.0
 11
183.97987964601671
 21
37.977753926621411
 31
0.0
  0
LINE
  5
A0DC
  8
TITLE
 10
183.91852724209269
 20
37.82911665005048
 30
0.0
 11
183.97987964601671
 21
37.890469053974527
 31
0.0
  0
LINE
  5
A0DD
  8
TITLE
 10
184.66901274063281
 20
38.317747530649108
 30
0.0
 11
185.32924785034589
 21
38.977982640358562
 31
0.0
  0
LINE
  5
A0DE
  8
TITLE
 10
184.5358391153249
 20
38.446428523282123
 30
0.0
 11
185.06739323240441
 21
38.977982640358562
 31
0.0
  0
LINE
  5
A0DF
  8
TITLE
 10
184.5358391153249
 20
38.359143650635133
 30
0.0
 11
185.15467810505149
 21
38.977982640358562
 31
0.0
  0
LINE
  5
A0E0
  8
TITLE
 10
184.58172786798579
 20
38.317747530649108
 30
0.0
 11
185.2419629776989
 21
38.977982640358562
 31
0.0
  0
LINE
  5
A0E1
  8
TITLE
 10
184.5358391153249
 20
38.62099826857321
 30
0.0
 11
184.89282348711009
 21
38.977982640358562
 31
0.0
  0
LINE
  5
A0E2
  8
TITLE
 10
184.5358391153249
 20
38.533713395926043
 30
0.0
 11
184.98010835975731
 21
38.977982640358562
 31
0.0
  0
LINE
  5
A0E3
  8
TITLE
 10
184.5358391153249
 20
38.708283141220022
 30
0.0
 11
184.80553861446279
 21
38.977982640358562
 31
0.0
  0
LINE
  5
A0E4
  8
TITLE
 10
181.4302861585046
 20
39.006840217613842
 30
0.0
 11
182.0048422895814
 21
39.581396348687122
 31
0.0
  0
LINE
  5
A0E5
  8
TITLE
 10
181.477828375841
 20
38.967097562296154
 30
0.0
 11
182.05259979037211
 21
39.541868976827118
 31
0.0
  0
LINE
  5
A0E6
  8
TITLE
 10
181.5258805350812
 20
38.927864848896213
 30
0.0
 11
182.10103983979329
 21
39.503024153601018
 31
0.0
  0
LINE
  5
A0E7
  8
TITLE
 10
181.57444443055721
 20
38.889143871721778
 30
0.0
 11
182.15016593448351
 21
39.464865375644479
 31
0.0
  0
LINE
  5
A0E8
  8
TITLE
 10
181.623522074758
 20
38.850936643278892
 30
0.0
 11
182.19998210041121
 21
39.42739666893209
 31
0.0
  0
LINE
  5
A0E9
  8
TITLE
 10
181.67311570255799
 20
38.813245398431889
 30
0.0
 11
182.25049290798151
 21
39.390622603855782
 31
0.0
  0
LINE
  5
A0EA
  8
TITLE
 10
181.72322777587419
 20
38.776072599101099
 30
0.0
 11
182.30170348939799
 21
39.354548312624281
 31
0.0
  0
LINE
  5
A0EB
  8
TITLE
 10
181.7738609889189
 20
38.739420939498132
 30
0.0
 11
182.3536195584839
 21
39.319179509063417
 31
0.0
  0
LINE
  5
A0EC
  8
TITLE
 10
182.14316343267899
 20
38.497729274735043
 30
0.0
 11
182.73739955813011
 21
39.091965400186503
 31
0.0
  0
LINE
  5
A0ED
  8
TITLE
 10
182.1980928200565
 20
38.465373789466128
 30
0.0
 11
182.79524385877991
 21
39.062524828189233
 31
0.0
  0
LINE
  5
A0EE
  8
TITLE
 10
182.2535792102249
 20
38.43357530699069
 30
0.0
 11
182.85387601333241
 21
39.033872110094713
 31
0.0
  0
LINE
  5
A0EF
  8
TITLE
 10
181.92891801792149
 20
38.632623350563279
 30
0.0
 11
182.51366704545629
 21
39.217372378097821
 31
0.0
  0
LINE
  5
A0F0
  8
TITLE
 10
181.98166759199799
 20
38.598088051996228
 30
0.0
 11
182.568474682226
 21
39.184895142216881
 31
0.0
  0
LINE
  5
A0F1
  8
TITLE
 10
182.0349554842291
 20
38.56409107157981
 30
0.0
 11
182.6240259897678
 21
39.15316157711846
 31
0.0
  0
LINE
  5
A0F2
  8
TITLE
 10
182.0887859254303
 20
38.530636640134048
 30
0.0
 11
182.68033075128551
 21
39.122181465988717
 31
0.0
  0
LINE
  5
A0F3
  8
TITLE
 10
181.8250182739331
 20
38.703293351865803
 30
0.0
 11
182.4062474331175
 21
39.284522511049943
 31
0.0
  0
LINE
  5
A0F4
  8
TITLE
 10
181.8767028075888
 20
38.667693012874111
 30
0.0
 11
182.45959406049269
 21
39.250584265777611
 31
0.0
  0
LINE
  5
A0F5
  8
TITLE
 10
182.36624510939899
 20
38.371671460866992
 30
0.0
 11
182.9735582541208
 21
38.978984605592302
 31
0.0
  0
LINE
  5
A0F6
  8
TITLE
 10
182.42343652560319
 20
38.34157800442734
 30
0.0
 11
183.03463820121209
 21
38.95277968004013
 31
0.0
  0
LINE
  5
A0F7
  8
TITLE
 10
182.4812087898971
 20
38.312065396074331
 30
0.0
 11
183.0965658840955
 21
38.927422490268839
 31
0.0
  0
LINE
  5
A0F8
  8
TITLE
 10
182.30962804709171
 20
38.402339271206927
 30
0.0
 11
182.91330935425589
 21
39.006020578374489
 31
0.0
  0
LINE
  5
A0F9
  8
TITLE
 10
181.33672544146879
 20
39.08784924586945
 30
0.0
 11
181.91136351827689
 21
39.662487322676903
 31
0.0
  0
LINE
  5
A0FA
  8
TITLE
 10
181.38325230324989
 20
39.047091235002661
 30
0.0
 11
181.95776435715439
 21
39.621603288911047
 31
0.0
  0
LINE
  5
A0FB
  8
TITLE
 10
183.09260805503021
 20
38.050615934739483
 30
0.0
 11
183.7672288749506
 21
38.725236754659882
 31
0.0
  0
LINE
  5
A0FC
  8
TITLE
 10
182.598523774071
 20
38.254810634949877
 30
0.0
 11
183.2230377924059
 21
38.879324653292322
 31
0.0
  0
LINE
  5
A0FD
  8
TITLE
 10
182.65808147510199
 20
38.227083463337181
 30
0.0
 11
183.28762230785651
 21
38.856624296095852
 31
0.0
  0
LINE
  5
A0FE
  8
TITLE
 10
182.53956877960599
 20
38.283140513136061
 30
0.0
 11
183.15935928626121
 21
38.90293101979114
 31
0.0
  0
LINE
  5
A0FF
  8
TITLE
 10
184.5358391153249
 20
35.91516721653273
 30
0.0
 11
185.36061468119999
 21
36.739942782404853
 31
0.0
  0
LINE
  5
A100
  8
TITLE
 10
183.1731908808178
 20
34.290664364088173
 30
0.0
 11
183.68051734324189
 21
34.797990826511978
 31
0.0
  0
LINE
  5
A101
  8
TITLE
 10
183.26047575346499
 20
34.290664364088173
 30
0.0
 11
183.7129087705159
 21
34.743097381139137
 31
0.0
  0
LINE
  5
A102
  8
TITLE
 10
183.34776062611201
 20
34.290664364088173
 30
0.0
 11
183.74530019779749
 21
34.688203935773231
 31
0.0
  0
LINE
  5
A103
  8
TITLE
 10
183.43504549875931
 20
34.290664364088173
 30
0.0
 11
183.77769162507161
 21
34.633310490400497
 31
0.0
  0
LINE
  5
A104
  8
TITLE
 10
183.52233037140641
 20
34.290664364088173
 30
0.0
 11
183.81008305235309
 21
34.578417045031131
 31
0.0
  0
LINE
  5
A105
  8
TITLE
 10
183.609615244054
 20
34.290664364088173
 30
0.0
 11
183.84247447962721
 21
34.523523599661928
 31
0.0
  0
LINE
  5
A106
  8
TITLE
 10
183.69690011670079
 20
34.290664364088173
 30
0.0
 11
183.87486590690179
 21
34.468630154292612
 31
0.0
  0
LINE
  5
A107
  8
TITLE
 10
183.78418498934801
 20
34.290664364088173
 30
0.0
 11
183.90725733418321
 21
34.413736708923132
 31
0.0
  0
LINE
  5
A108
  8
TITLE
 10
183.87146986199519
 20
34.290664364088173
 30
0.0
 11
183.93964876145751
 21
34.358843263554043
 31
0.0
  0
LINE
  5
A109
  8
TITLE
 10
183.95875473464221
 20
34.290664364088173
 30
0.0
 11
183.97204018873191
 21
34.303949818184662
 31
0.0
  0
LINE
  5
A10A
  8
TITLE
 10
183.68308752692721
 20
36.284403845184897
 30
0.0
 11
183.97987964601671
 21
36.58119596427764
 31
0.0
  0
LINE
  5
A10B
  8
TITLE
 10
184.5358391153249
 20
36.089736961823519
 30
0.0
 11
184.97922932033001
 21
36.53312716682882
 31
0.0
  0
LINE
  5
A10C
  8
TITLE
 10
184.5358391153249
 20
36.002452089179769
 30
0.0
 11
185.1425361522725
 21
36.609149126124123
 31
0.0
  0
LINE
  5
A10D
  8
TITLE
 10
183.15937829105161
 20
36.284403845184897
 30
0.0
 11
183.8632280283249
 21
36.988253582461773
 31
0.0
  0
LINE
  5
A10E
  8
TITLE
 10
183.246663163699
 20
36.284403845184897
 30
0.0
 11
183.95051290097209
 21
36.988253582461773
 31
0.0
  0
LINE
  5
A10F
  8
TITLE
 10
183.33394803634619
 20
36.284403845184897
 30
0.0
 11
183.97987964601671
 21
36.93033545486287
 31
0.0
  0
LINE
  5
A110
  8
TITLE
 10
183.42123290898601
 20
36.284403845184897
 30
0.0
 11
183.97987964601671
 21
36.84305058221571
 31
0.0
  0
LINE
  5
A111
  8
TITLE
 10
183.50851778163309
 20
36.284403845184897
 30
0.0
 11
183.97987964601671
 21
36.75576570956872
 31
0.0
  0
LINE
  5
A112
  8
TITLE
 10
183.59580265428039
 20
36.284403845184897
 30
0.0
 11
183.97987964601671
 21
36.668480836921283
 31
0.0
  0
LINE
  5
A113
  8
TITLE
 10
183.77037239957471
 20
36.284403845184897
 30
0.0
 11
183.97987964601671
 21
36.493911091630757
 31
0.0
  0
LINE
  5
A114
  8
TITLE
 10
183.85765727222179
 20
36.284403845184897
 30
0.0
 11
183.97987964601671
 21
36.40662621898349
 31
0.0
  0
LINE
  5
A115
  8
TITLE
 10
184.5358391153249
 20
36.177021834470793
 30
0.0
 11
184.84011984590691
 21
36.481302565057042
 31
0.0
  0
LINE
  5
A116
  8
TITLE
 10
184.5358391153249
 20
36.351591579765
 30
0.0
 11
184.60175585154849
 21
36.417508315989153
 31
0.0
  0
LINE
  5
A117
  8
TITLE
 10
184.5358391153249
 20
36.26430670711779
 30
0.0
 11
184.7157710607693
 21
36.444238652562383
 31
0.0
  0
LINE
  5
A118
  8
TITLE
 10
183.94494214486909
 20
36.284403845184897
 30
0.0
 11
183.97987964601671
 21
36.319341346340138
 31
0.0
  0
LINE
  5
A119
  8
TITLE
 10
181.34020855524889
 20
34.290664364088173
 30
0.0
 11
183.00029737042439
 21
35.950753179270862
 31
0.0
  0
LINE
  5
A11A
  8
TITLE
 10
181.42749342788909
 20
34.290664364088173
 30
0.0
 11
183.03268879769851
 21
35.89585973389768
 31
0.0
  0
LINE
  5
A11B
  8
TITLE
 10
181.51477830053631
 20
34.290664364088173
 30
0.0
 11
183.06508022498019
 21
35.840966288532123
 31
0.0
  0
LINE
  5
A11C
  8
TITLE
 10
181.60206317318321
 20
34.290664364088173
 30
0.0
 11
183.09747165225451
 21
35.786072843159218
 31
0.0
  0
LINE
  5
A11D
  8
TITLE
 10
181.6893480458304
 20
34.290664364088173
 30
0.0
 11
183.12986307953591
 21
35.731179397790129
 31
0.0
  0
LINE
  5
A11E
  8
TITLE
 10
182.2478221248829
 20
35.721987169608383
 30
0.0
 11
182.4974168179275
 21
35.971581862649543
 31
0.0
  0
LINE
  5
A11F
  8
TITLE
 10
182.2802135521641
 20
35.667093724239123
 30
0.0
 11
182.58470169057449
 21
35.971581862649543
 31
0.0
  0
LINE
  5
A120
  8
TITLE
 10
182.27556520902141
 20
35.575160508452711
 30
0.0
 11
182.67198656322159
 21
35.971581862649543
 31
0.0
  0
LINE
  5
A121
  8
TITLE
 10
182.22476657368901
 20
35.437077000469351
 30
0.0
 11
182.7592714358691
 21
35.971581862649543
 31
0.0
  0
LINE
  5
A122
  8
TITLE
 10
182.11825641577849
 20
35.941560951085307
 30
0.0
 11
182.14827732733869
 21
35.971581862649543
 31
0.0
  0
LINE
  5
A123
  8
TITLE
 10
182.15064784305281
 20
35.886667505716332
 30
0.0
 11
182.23556219998571
 21
35.971581862649543
 31
0.0
  0
LINE
  5
A124
  8
TITLE
 10
182.18303927033421
 20
35.831774060346852
 30
0.0
 11
182.3228470726331
 21
35.971581862649543
 31
0.0
  0
LINE
  5
A125
  8
TITLE
 10
182.2154306976085
 20
35.776880614977422
 30
0.0
 11
182.41013194528031
 21
35.971581862649543
 31
0.0
  0
LINE
  5
A126
  8
TITLE
 10
181.8501052013516
 20
36.284403845184897
 30
0.0
 11
182.55395493862491
 21
36.988253582461773
 31
0.0
  0
LINE
  5
A127
  8
TITLE
 10
181.9373900739987
 20
36.284403845184897
 30
0.0
 11
182.6412398112721
 21
36.988253582461773
 31
0.0
  0
LINE
  5
A128
  8
TITLE
 10
182.02467494664609
 20
36.284403845184897
 30
0.0
 11
182.72852468391889
 21
36.988253582461773
 31
0.0
  0
LINE
  5
A129
  8
TITLE
 10
182.11195981929311
 20
36.284403845184897
 30
0.0
 11
182.81580955656619
 21
36.988253582461773
 31
0.0
  0
LINE
  5
A12A
  8
TITLE
 10
182.28652956458731
 20
36.284403845184897
 30
0.0
 11
182.99037930186049
 21
36.988253582461773
 31
0.0
  0
LINE
  5
A12B
  8
TITLE
 10
182.37381443723439
 20
36.284403845184897
 30
0.0
 11
183.0776641745077
 21
36.988253582461773
 31
0.0
  0
LINE
  5
A12C
  8
TITLE
 10
182.19924469194009
 20
36.284403845184897
 30
0.0
 11
182.90309442921341
 21
36.988253582461773
 31
0.0
  0
LINE
  5
A12D
  8
TITLE
 10
181.3263959654756
 20
36.284403845184897
 30
0.0
 11
182.03024570274891
 21
36.988253582461773
 31
0.0
  0
LINE
  5
A12E
  8
TITLE
 10
181.4136808381231
 20
36.284403845184897
 30
0.0
 11
182.11753057539599
 21
36.988253582461773
 31
0.0
  0
LINE
  5
A12F
  8
TITLE
 10
181.50096571077
 20
36.284403845184897
 30
0.0
 11
182.20481544804321
 21
36.988253582461773
 31
0.0
  0
LINE
  5
A130
  8
TITLE
 10
181.58825058341
 20
36.284403845184897
 30
0.0
 11
182.29210032069059
 21
36.988253582461773
 31
0.0
  0
LINE
  5
A131
  8
TITLE
 10
181.67553545605719
 20
36.284403845184897
 30
0.0
 11
182.3793851933379
 21
36.988253582461773
 31
0.0
  0
LINE
  5
A132
  8
TITLE
 10
181.76282032870429
 20
36.284403845184897
 30
0.0
 11
182.46667006598491
 21
36.988253582461773
 31
0.0
  0
LINE
  5
A133
  8
TITLE
 10
182.90983467440731
 20
37.431418190884472
 30
0.0
 11
183.09241455760539
 21
37.613998074085828
 31
0.0
  0
LINE
  5
A134
  8
TITLE
 10
182.82254980176
 20
37.431418190884472
 30
0.0
 11
183.09241455760539
 21
37.701282946733158
 31
0.0
  0
LINE
  5
A135
  8
TITLE
 10
182.9971195470477
 20
37.431418190884472
 30
0.0
 11
183.09241455760539
 21
37.526713201438731
 31
0.0
  0
LINE
  5
A136
  8
TITLE
 10
183.08440441969429
 20
37.431418190884472
 30
0.0
 11
183.09241455760539
 21
37.439428328791742
 31
0.0
  0
LINE
  5
A137
  8
TITLE
 10
181.78684262023111
 20
34.30087406584164
 30
0.0
 11
183.1622545068102
 21
35.676285952420812
 31
0.0
  0
LINE
  5
A138
  8
TITLE
 10
181.89893473208451
 20
34.325681305047802
 30
0.0
 11
183.19464593408449
 21
35.621392507051212
 31
0.0
  0
LINE
  5
A139
  8
TITLE
 10
182.02376031460449
 20
34.363222014924247
 30
0.0
 11
183.2270373613662
 21
35.56649906168218
 31
0.0
  0
LINE
  5
A13A
  8
TITLE
 10
182.16881928277479
 20
34.420996110446772
 30
0.0
 11
183.25942878864021
 21
35.51160561631275
 31
0.0
  0
LINE
  5
A13B
  8
TITLE
 10
182.3563362815627
 20
34.521228236591917
 30
0.0
 11
183.2918202159145
 21
35.456712170943213
 31
0.0
  0
LINE
  5
A13C
  8
TITLE
 10
182.86325924315119
 20
34.679011707588252
 30
0.0
 11
183.4213859250261
 21
35.237138389466452
 31
0.0
  0
LINE
  5
A13D
  8
TITLE
 10
182.8956506704256
 20
34.624118262218701
 30
0.0
 11
183.45377735230031
 21
35.182244944093327
 31
0.0
  0
LINE
  5
A13E
  8
TITLE
 10
182.9280420976998
 20
34.56922481684979
 30
0.0
 11
183.48616877958179
 21
35.127351498727712
 31
0.0
  0
LINE
  5
A13F
  8
TITLE
 10
182.9604335249812
 20
34.514331371480239
 30
0.0
 11
183.51856020685611
 21
35.072458053354808
 31
0.0
  0
LINE
  5
A140
  8
TITLE
 10
182.9928249522556
 20
34.459437926110922
 30
0.0
 11
183.5509516341375
 21
35.01756460798925
 31
0.0
  0
LINE
  5
A141
  8
TITLE
 10
183.02521637953711
 20
34.404544480741777
 30
0.0
 11
183.58334306141191
 21
34.962671162616459
 31
0.0
  0
LINE
  5
A142
  8
TITLE
 10
182.76608496132141
 20
34.843692043696251
 30
0.0
 11
183.32421164319609
 21
35.401818725574628
 31
0.0
  0
LINE
  5
A143
  8
TITLE
 10
182.79847638859579
 20
34.788798598330231
 30
0.0
 11
183.3566030704705
 21
35.3469252802048
 31
0.0
  0
LINE
  5
A144
  8
TITLE
 10
182.83086781586979
 20
34.733905152957789
 30
0.0
 11
183.38899449775181
 21
35.292031834835541
 31
0.0
  0
LINE
  5
A145
  8
TITLE
 10
183.05760780681121
 20
34.34965103537229
 30
0.0
 11
183.615734488686
 21
34.90777771725044
 31
0.0
  0
LINE
  5
A146
  8
TITLE
 10
183.08999923408589
 20
34.29475759000303
 30
0.0
 11
183.6481259159672
 21
34.852884271877429
 31
0.0
  0
LINE
  5
A147
  8
TITLE
 10
182.4610993098816
 20
36.284403845184897
 30
0.0
 11
183.16494904715489
 21
36.988253582461773
 31
0.0
  0
LINE
  5
A148
  8
TITLE
 10
182.89752367311019
 20
36.284403845184897
 30
0.0
 11
183.6013734103833
 21
36.988253582461773
 31
0.0
  0
LINE
  5
A149
  8
TITLE
 10
182.9848085457572
 20
36.284403845184897
 30
0.0
 11
183.68865828303089
 21
36.988253582461773
 31
0.0
  0
LINE
  5
A14A
  8
TITLE
 10
183.07209341840451
 20
36.284403845184897
 30
0.0
 11
183.77594315567771
 21
36.988253582461773
 31
0.0
  0
LINE
  5
A14B
  8
TITLE
 10
182.5483841825216
 20
36.284403845184897
 30
0.0
 11
183.25223391980191
 21
36.988253582461773
 31
0.0
  0
LINE
  5
A14C
  8
TITLE
 10
182.63566905516899
 20
36.284403845184897
 30
0.0
 11
183.3395187924493
 21
36.988253582461773
 31
0.0
  0
LINE
  5
A14D
  8
TITLE
 10
182.72295392781609
 20
36.284403845184897
 30
0.0
 11
183.4268036650893
 21
36.988253582461773
 31
0.0
  0
LINE
  5
A14E
  8
TITLE
 10
182.8102388004632
 20
36.284403845184897
 30
0.0
 11
183.51408853773651
 21
36.988253582461773
 31
0.0
  0
LINE
  5
A14F
  8
TITLE
 10
181.33870696676601
 20
37.431418190884472
 30
0.0
 11
182.1207622304095
 21
38.213473454524369
 31
0.0
  0
LINE
  5
A150
  8
TITLE
 10
181.4259918394132
 20
37.431418190884472
 30
0.0
 11
182.20804710305609
 21
38.213473454524369
 31
0.0
  0
LINE
  5
A151
  8
TITLE
 10
181.51327671205991
 20
37.431418190884472
 30
0.0
 11
182.2953319756962
 21
38.213473454524369
 31
0.0
  0
LINE
  5
A152
  8
TITLE
 10
181.60056158470721
 20
37.431418190884472
 30
0.0
 11
182.3826168483435
 21
38.213473454524369
 31
0.0
  0
LINE
  5
A153
  8
TITLE
 10
181.68784645735451
 20
37.431418190884472
 30
0.0
 11
182.46990172099069
 21
38.213473454524369
 31
0.0
  0
LINE
  5
A154
  8
TITLE
 10
181.7751313300015
 20
37.431418190884472
 30
0.0
 11
182.55718659363791
 21
38.213473454524369
 31
0.0
  0
LINE
  5
A155
  8
TITLE
 10
181.8624162026486
 20
37.431418190884472
 30
0.0
 11
182.64447146628501
 21
38.213473454524369
 31
0.0
  0
LINE
  5
A156
  8
TITLE
 10
182.4734103111717
 20
37.431418190884472
 30
0.0
 11
183.09241455760539
 21
38.050422437314133
 31
0.0
  0
LINE
  5
A157
  8
TITLE
 10
182.56069518381901
 20
37.431418190884472
 30
0.0
 11
183.09241455760539
 21
37.963137564670831
 31
0.0
  0
LINE
  5
A158
  8
TITLE
 10
182.64798005646591
 20
37.431418190884472
 30
0.0
 11
183.09241455760539
 21
37.875852692023898
 31
0.0
  0
LINE
  5
A159
  8
TITLE
 10
182.7352649291133
 20
37.431418190884472
 30
0.0
 11
183.09241455760539
 21
37.788567819380091
 31
0.0
  0
LINE
  5
A15A
  8
TITLE
 10
181.94970107529591
 20
37.431418190884472
 30
0.0
 11
183.3531353932197
 21
38.834852508812219
 31
0.0
  0
LINE
  5
A15B
  8
TITLE
 10
182.03698594794321
 20
37.431418190884472
 30
0.0
 11
183.41960141655619
 21
38.814033659504851
 31
0.0
  0
LINE
  5
A15C
  8
TITLE
 10
182.12427082058309
 20
37.431418190884472
 30
0.0
 11
183.48704672587169
 21
38.794194096169861
 31
0.0
  0
LINE
  5
A15D
  8
TITLE
 10
182.2115556932302
 20
37.431418190884472
 30
0.0
 11
183.5554998451799
 21
38.77536234283054
 31
0.0
  0
LINE
  5
A15E
  8
TITLE
 10
182.2988405658775
 20
37.431418190884472
 30
0.0
 11
183.6249916982602
 21
38.757569323267262
 31
0.0
  0
LINE
  5
A15F
  8
TITLE
 10
182.3861254385244
 20
37.431418190884472
 30
0.0
 11
183.69555586481451
 21
38.740848617178301
 31
0.0
  0
LINE
  5
A160
  8
TITLE
 10
188.25084515361911
 20
39.019179146300758
 30
0.0
 11
189.0869542586768
 21
39.855288251358161
 31
0.0
  0
LINE
  5
A161
  8
TITLE
 10
188.25084515361911
 20
38.931894273653832
 30
0.0
 11
189.1292750556407
 21
39.810324175678879
 31
0.0
  0
LINE
  5
A162
  8
TITLE
 10
188.25084515361911
 20
38.844609401006778
 30
0.0
 11
189.1292750556407
 21
39.723039303031733
 31
0.0
  0
LINE
  5
A163
  8
TITLE
 10
188.25084515361911
 20
38.757324528359511
 30
0.0
 11
189.1292750556407
 21
39.635754430387749
 31
0.0
  0
LINE
  5
A164
  8
TITLE
 10
187.4800643115932
 20
37.724689068395378
 30
0.0
 11
189.1292750556407
 21
39.373899812446332
 31
0.0
  0
LINE
  5
A165
  8
TITLE
 10
187.5673491842403
 20
37.724689068395378
 30
0.0
 11
189.1292750556407
 21
39.286614939799513
 31
0.0
  0
LINE
  5
A166
  8
TITLE
 10
187.6546340568874
 20
37.724689068395378
 30
0.0
 11
189.1292750556407
 21
39.199330067152182
 31
0.0
  0
LINE
  5
A167
  8
TITLE
 10
187.74191892953471
 20
37.724689068395378
 30
0.0
 11
189.1292750556407
 21
39.112045194505242
 31
0.0
  0
LINE
  5
A168
  8
TITLE
 10
187.82920380218169
 20
37.724689068395378
 30
0.0
 11
189.1292750556407
 21
39.024760321858373
 31
0.0
  0
LINE
  5
A169
  8
TITLE
 10
188.25084515361911
 20
38.67003965571223
 30
0.0
 11
189.1292750556407
 21
39.548469557740823
 31
0.0
  0
LINE
  5
A16A
  8
TITLE
 10
188.25084515361911
 20
38.582754783065191
 30
0.0
 11
189.1292750556407
 21
39.461184685093663
 31
0.0
  0
LINE
  5
A16B
  8
TITLE
 10
187.42261117260401
 20
37.929090547344288
 30
0.0
 11
188.07044939141889
 21
38.576928766166247
 31
0.0
  0
LINE
  5
A16C
  8
TITLE
 10
187.42261117260401
 20
37.841805674700772
 30
0.0
 11
188.15773426406571
 21
38.576928766166247
 31
0.0
  0
LINE
  5
A16D
  8
TITLE
 10
187.42261117260401
 20
37.754520802053491
 30
0.0
 11
188.24501913671301
 21
38.576928766166247
 31
0.0
  0
LINE
  5
A16E
  8
TITLE
 10
187.42261117260401
 20
38.016375419991277
 30
0.0
 11
187.98316451877849
 21
38.576928766166247
 31
0.0
  0
LINE
  5
A16F
  8
TITLE
 10
187.42261117260401
 20
38.278230037933099
 30
0.0
 11
187.7213099008371
 21
38.576928766166247
 31
0.0
  0
LINE
  5
A170
  8
TITLE
 10
187.42261117260401
 20
38.190945165285711
 30
0.0
 11
187.8085947734844
 21
38.576928766166247
 31
0.0
  0
LINE
  5
A171
  8
TITLE
 10
187.42261117260401
 20
38.103660292638438
 30
0.0
 11
187.89587964613139
 21
38.576928766166247
 31
0.0
  0
LINE
  5
A172
  8
TITLE
 10
187.42261117260401
 20
38.452799783226851
 30
0.0
 11
187.54674015554269
 21
38.576928766166247
 31
0.0
  0
LINE
  5
A173
  8
TITLE
 10
187.42261117260401
 20
38.365514910579797
 30
0.0
 11
187.63402502819031
 21
38.576928766166247
 31
0.0
  0
LINE
  5
A174
  8
TITLE
 10
188.1783432927632
 20
37.724689068395378
 30
0.0
 11
189.1292750556407
 21
38.675620831276319
 31
0.0
  0
LINE
  5
A175
  8
TITLE
 10
187.42261117260401
 20
38.540084655874118
 30
0.0
 11
187.45945528289579
 21
38.576928766166247
 31
0.0
  0
LINE
  5
A176
  8
TITLE
 10
188.00377354746919
 20
37.724689068395378
 30
0.0
 11
189.1292750556407
 21
38.850190576567293
 31
0.0
  0
LINE
  5
A177
  8
TITLE
 10
188.0910584201161
 20
37.724689068395378
 30
0.0
 11
189.1292750556407
 21
38.762905703920012
 31
0.0
  0
LINE
  5
A178
  8
TITLE
 10
187.91648867482169
 20
37.724689068395378
 30
0.0
 11
189.1292750556407
 21
38.937475449214098
 31
0.0
  0
LINE
  5
A179
  8
TITLE
 10
188.25084515361911
 20
39.106464018947747
 30
0.0
 11
188.9996693860295
 21
39.855288251358161
 31
0.0
  0
LINE
  5
A17A
  8
TITLE
 10
188.25084515361911
 20
39.630173254823951
 30
0.0
 11
188.47596015015381
 21
39.855288251358161
 31
0.0
  0
LINE
  5
A17B
  8
TITLE
 10
188.25084515361911
 20
39.5428883821765
 30
0.0
 11
188.563245022801
 21
39.855288251358161
 31
0.0
  0
LINE
  5
A17C
  8
TITLE
 10
188.25084515361911
 20
39.45560350952934
 30
0.0
 11
188.650529895441
 21
39.855288251358161
 31
0.0
  0
LINE
  5
A17D
  8
TITLE
 10
188.25084515361911
 20
39.368318636885867
 30
0.0
 11
188.7378147680879
 21
39.855288251358161
 31
0.0
  0
LINE
  5
A17E
  8
TITLE
 10
188.25084515361911
 20
39.281033764238828
 30
0.0
 11
188.82509964073489
 21
39.855288251358161
 31
0.0
  0
LINE
  5
A17F
  8
TITLE
 10
188.25084515361911
 20
39.193748891591717
 30
0.0
 11
188.91238451338219
 21
39.855288251358161
 31
0.0
  0
LINE
  5
A180
  8
TITLE
 10
188.25084515361911
 20
39.804743000118101
 30
0.0
 11
188.30139040485921
 21
39.855288251358161
 31
0.0
  0
LINE
  5
A181
  8
TITLE
 10
188.25084515361911
 20
39.717458127470771
 30
0.0
 11
188.38867527750659
 21
39.855288251358161
 31
0.0
  0
LINE
  5
A182
  8
TITLE
 10
188.25084515361911
 20
35.702353985734142
 30
0.0
 11
189.1292750556407
 21
36.580783887759033
 31
0.0
  0
LINE
  5
A183
  8
TITLE
 10
188.25084515361911
 20
35.615069113086811
 30
0.0
 11
189.1292750556407
 21
36.493499015111809
 31
0.0
  0
LINE
  5
A184
  8
TITLE
 10
188.25084515361911
 20
35.527784240439928
 30
0.0
 11
189.1292750556407
 21
36.406214142464769
 31
0.0
  0
LINE
  5
A185
  8
TITLE
 10
188.25084515361911
 20
35.440499367796178
 30
0.0
 11
189.1292750556407
 21
36.318929269817659
 31
0.0
  0
LINE
  5
A186
  8
TITLE
 10
188.25084515361911
 20
35.353214495149359
 30
0.0
 11
189.1292750556407
 21
36.231644397174144
 31
0.0
  0
LINE
  5
A187
  8
TITLE
 10
188.25084515361911
 20
35.265929622501908
 30
0.0
 11
189.1292750556407
 21
36.144359524527317
 31
0.0
  0
LINE
  5
A188
  8
TITLE
 10
188.25084515361911
 20
35.178644749854762
 30
0.0
 11
189.1292750556407
 21
36.057074651879873
 31
0.0
  0
LINE
  5
A189
  8
TITLE
 10
188.25084515361911
 20
35.96420860367175
 30
0.0
 11
189.1292750556407
 21
36.84263850570062
 31
0.0
  0
LINE
  5
A18A
  8
TITLE
 10
188.25084515361911
 20
35.87692373102476
 30
0.0
 11
189.1292750556407
 21
36.755353633053517
 31
0.0
  0
LINE
  5
A18B
  8
TITLE
 10
188.25084515361911
 20
35.789638858377657
 30
0.0
 11
189.1292750556407
 21
36.66806876040647
 31
0.0
  0
LINE
  5
A18C
  8
TITLE
 10
187.27557989520571
 20
34.290664364088173
 30
0.0
 11
188.1278195929722
 21
35.142904061858466
 31
0.0
  0
LINE
  5
A18D
  8
TITLE
 10
187.36286476785239
 20
34.290664364088173
 30
0.0
 11
188.21510446561919
 21
35.142904061858466
 31
0.0
  0
LINE
  5
A18E
  8
TITLE
 10
187.45014964049989
 20
34.290664364088173
 30
0.0
 11
189.1292750556407
 21
35.96978977923618
 31
0.0
  0
LINE
  5
A18F
  8
TITLE
 10
187.53743451314679
 20
34.290664364088173
 30
0.0
 11
189.1292750556407
 21
35.882504906589247
 31
0.0
  0
LINE
  5
A190
  8
TITLE
 10
187.62471938579421
 20
34.290664364088173
 30
0.0
 11
189.1292750556407
 21
35.795220033941924
 31
0.0
  0
LINE
  5
A191
  8
TITLE
 10
187.71200425844111
 20
34.290664364088173
 30
0.0
 11
189.1292750556407
 21
35.70793516129504
 31
0.0
  0
LINE
  5
A192
  8
TITLE
 10
187.799289131081
 20
34.290664364088173
 30
0.0
 11
189.1292750556407
 21
35.620650288647767
 31
0.0
  0
LINE
  5
A193
  8
TITLE
 10
187.88657400372821
 20
34.290664364088173
 30
0.0
 11
189.1292750556407
 21
35.533365416000493
 31
0.0
  0
LINE
  5
A194
  8
TITLE
 10
187.9738588763754
 20
34.290664364088173
 30
0.0
 11
189.1292750556407
 21
35.446080543353048
 31
0.0
  0
LINE
  5
A195
  8
TITLE
 10
188.06114374902239
 20
34.290664364088173
 30
0.0
 11
189.1292750556407
 21
35.358795670706229
 31
0.0
  0
LINE
  5
A196
  8
TITLE
 10
188.14842862166961
 20
34.290664364088173
 30
0.0
 11
189.1292750556407
 21
35.27151079806282
 31
0.0
  0
LINE
  5
A197
  8
TITLE
 10
188.23571349431711
 20
34.290664364088173
 30
0.0
 11
189.1292750556407
 21
35.184225925415717
 31
0.0
  0
LINE
  5
A198
  8
TITLE
 10
188.32299836696399
 20
34.290664364088173
 30
0.0
 11
189.17523806473091
 21
35.142904061858466
 31
0.0
  0
LINE
  5
A199
  8
TITLE
 10
188.4102832396114
 20
34.290664364088173
 30
0.0
 11
189.26252293737809
 21
35.142904061858466
 31
0.0
  0
LINE
  5
A19A
  8
TITLE
 10
188.49756811225851
 20
34.290664364088173
 30
0.0
 11
189.3498078100252
 21
35.142904061858466
 31
0.0
  0
LINE
  5
A19B
  8
TITLE
 10
188.5848529849055
 20
34.290664364088173
 30
0.0
 11
189.43709268267219
 21
35.142904061858466
 31
0.0
  0
LINE
  5
A19C
  8
TITLE
 10
188.25084515361911
 20
36.83705733013619
 30
0.0
 11
189.1292750556407
 21
37.715487232164953
 31
0.0
  0
LINE
  5
A19D
  8
TITLE
 10
188.25084515361911
 20
36.7497724574892
 30
0.0
 11
189.1292750556407
 21
37.6282023595179
 31
0.0
  0
LINE
  5
A19E
  8
TITLE
 10
188.25084515361911
 20
36.66248758484204
 30
0.0
 11
189.1292750556407
 21
37.540917486870804
 31
0.0
  0
LINE
  5
A19F
  8
TITLE
 10
188.25084515361911
 20
36.57520271219812
 30
0.0
 11
189.1292750556407
 21
37.453632614223181
 31
0.0
  0
LINE
  5
A1A0
  8
TITLE
 10
188.25084515361911
 20
36.48791783955113
 30
0.0
 11
189.1292750556407
 21
37.366347741576362
 31
0.0
  0
LINE
  5
A1A1
  8
TITLE
 10
188.25084515361911
 20
36.400632966907892
 30
0.0
 11
189.1292750556407
 21
37.279062868929032
 31
0.0
  0
LINE
  5
A1A2
  8
TITLE
 10
188.25084515361911
 20
36.313348094260448
 30
0.0
 11
189.1292750556407
 21
37.191777996282219
 31
0.0
  0
LINE
  5
A1A3
  8
TITLE
 10
188.25084515361911
 20
36.226063221613231
 30
0.0
 11
189.1292750556407
 21
37.104493123638413
 31
0.0
  0
LINE
  5
A1A4
  8
TITLE
 10
188.25084515361911
 20
36.138778348966298
 30
0.0
 11
189.1292750556407
 21
37.017208250991303
 31
0.0
  0
LINE
  5
A1A5
  8
TITLE
 10
188.25084515361911
 20
36.051493476319081
 30
0.0
 11
189.1292750556407
 21
36.92992337834778
 31
0.0
  0
LINE
  5
A1A6
  8
TITLE
 10
188.25084515361911
 20
37.709906056600801
 30
0.0
 11
189.1292750556407
 21
38.588335958629223
 31
0.0
  0
LINE
  5
A1A7
  8
TITLE
 10
188.25084515361911
 20
37.622621183953747
 30
0.0
 11
189.20515273582441
 21
38.576928766166247
 31
0.0
  0
LINE
  5
A1A8
  8
TITLE
 10
188.25084515361911
 20
37.535336311309827
 30
0.0
 11
189.29243760847169
 21
38.576928766166247
 31
0.0
  0
LINE
  5
A1A9
  8
TITLE
 10
188.25084515361911
 20
37.448051438662851
 30
0.0
 11
189.3797224811187
 21
38.576928766166247
 31
0.0
  0
LINE
  5
A1AA
  8
TITLE
 10
188.25084515361911
 20
37.36076656601557
 30
0.0
 11
189.46700735376569
 21
38.576928766166247
 31
0.0
  0
LINE
  5
A1AB
  8
TITLE
 10
185.45457659445009
 20
38.317747530649108
 30
0.0
 11
186.4151772655442
 21
39.27834820173581
 31
0.0
  0
LINE
  5
A1AC
  8
TITLE
 10
185.54186146709719
 20
38.317747530649108
 30
0.0
 11
186.4151772655442
 21
39.19106332908882
 31
0.0
  0
LINE
  5
A1AD
  8
TITLE
 10
185.62914633974441
 20
38.317747530649108
 30
0.0
 11
186.4151772655442
 21
39.103778456445021
 31
0.0
  0
LINE
  5
A1AE
  8
TITLE
 10
186.22070860472351
 20
38.036461069163813
 30
0.0
 11
187.16223017592171
 21
38.977982640358562
 31
0.0
  0
LINE
  5
A1AF
  8
TITLE
 10
186.19397826814981
 20
37.922445859943309
 30
0.0
 11
187.24951504856901
 21
38.977982640358562
 31
0.0
  0
LINE
  5
A1B0
  8
TITLE
 10
185.71643121239151
 20
38.317747530649108
 30
0.0
 11
186.4151772655442
 21
39.01649358379774
 31
0.0
  0
LINE
  5
A1B1
  8
TITLE
 10
185.80371608503879
 20
38.317747530649108
 30
0.0
 11
186.4639511947444
 21
38.977982640358562
 31
0.0
  0
LINE
  5
A1B2
  8
TITLE
 10
185.891000957686
 20
38.317747530649108
 30
0.0
 11
186.55123606739181
 21
38.977982640358562
 31
0.0
  0
LINE
  5
A1B3
  8
TITLE
 10
185.978285830326
 20
38.317747530649108
 30
0.0
 11
186.6385209400388
 21
38.977982640358562
 31
0.0
  0
LINE
  5
A1B4
  8
TITLE
 10
186.06557070297299
 20
38.317747530649108
 30
0.0
 11
186.72580581268579
 21
38.977982640358562
 31
0.0
  0
LINE
  5
A1B5
  8
TITLE
 10
186.15285557562009
 20
38.317747530649108
 30
0.0
 11
186.81309068533321
 21
38.977982640358562
 31
0.0
  0
LINE
  5
A1B6
  8
TITLE
 10
186.2401404482672
 20
38.317747530649108
 30
0.0
 11
186.90037555798051
 21
38.977982640358562
 31
0.0
  0
LINE
  5
A1B7
  8
TITLE
 10
186.25226829423079
 20
38.242590503958517
 30
0.0
 11
186.98766043062719
 21
38.977982640358562
 31
0.0
  0
LINE
  5
A1B8
  8
TITLE
 10
186.23961074742309
 20
38.142648084510427
 30
0.0
 11
187.07494530327449
 21
38.977982640358562
 31
0.0
  0
LINE
  5
A1B9
  8
TITLE
 10
185.57991604706589
 20
39.141365964434733
 30
0.0
 11
186.29383833398921
 21
39.855288251358161
 31
0.0
  0
LINE
  5
A1BA
  8
TITLE
 10
185.57991604706589
 20
39.054081091787282
 30
0.0
 11
186.38112320663629
 21
39.855288251358161
 31
0.0
  0
LINE
  5
A1BB
  8
TITLE
 10
185.57991604706589
 20
39.665075200310412
 30
0.0
 11
185.77012909811319
 21
39.855288251358161
 31
0.0
  0
LINE
  5
A1BC
  8
TITLE
 10
185.57991604706589
 20
39.577790327663251
 30
0.0
 11
185.85741397076069
 21
39.855288251358161
 31
0.0
  0
LINE
  5
A1BD
  8
TITLE
 10
185.57991604706589
 20
39.490505455016553
 30
0.0
 11
185.94469884340049
 21
39.855288251358161
 31
0.0
  0
LINE
  5
A1BE
  8
TITLE
 10
185.57991604706589
 20
39.403220582372803
 30
0.0
 11
186.0319837160481
 21
39.855288251358161
 31
0.0
  0
LINE
  5
A1BF
  8
TITLE
 10
185.57991604706589
 20
39.315935709725473
 30
0.0
 11
186.11926858869501
 21
39.855288251358161
 31
0.0
  0
LINE
  5
A1C0
  8
TITLE
 10
185.57991604706589
 20
39.228650837078192
 30
0.0
 11
186.2065534613422
 21
39.855288251358161
 31
0.0
  0
LINE
  5
A1C1
  8
TITLE
 10
185.57991604706589
 20
39.839644945604853
 30
0.0
 11
185.59555935281921
 21
39.855288251358161
 31
0.0
  0
LINE
  5
A1C2
  8
TITLE
 10
185.57991604706589
 20
39.752360072957742
 30
0.0
 11
185.68284422546631
 21
39.855288251358161
 31
0.0
  0
LINE
  5
A1C3
  8
TITLE
 10
185.57991604706589
 20
35.475401313283271
 30
0.0
 11
186.4151772655442
 21
36.310662531758169
 31
0.0
  0
LINE
  5
A1C4
  8
TITLE
 10
185.57991604706589
 20
35.388116440635827
 30
0.0
 11
186.4151772655442
 21
36.223377659110902
 31
0.0
  0
LINE
  5
A1C5
  8
TITLE
 10
185.57991604706589
 20
35.300831567988837
 30
0.0
 11
186.4151772655442
 21
36.136092786467088
 31
0.0
  0
LINE
  5
A1C6
  8
TITLE
 10
185.57991604706589
 20
35.213546695341677
 30
0.0
 11
186.4151772655442
 21
36.048807913819822
 31
0.0
  0
LINE
  5
A1C7
  8
TITLE
 10
186.869471556359
 20
35.979392968755178
 30
0.0
 11
187.2504387175247
 21
36.36036012992458
 31
0.0
  0
LINE
  5
A1C8
  8
TITLE
 10
186.91869597919569
 20
35.941332518948514
 30
0.0
 11
187.2504387175247
 21
36.273075257277242
 31
0.0
  0
LINE
  5
A1C9
  8
TITLE
 10
186.96792040203221
 20
35.903272069137763
 30
0.0
 11
187.2504387175247
 21
36.185790384633783
 31
0.0
  0
LINE
  5
A1CA
  8
TITLE
 10
187.01714482486901
 20
35.865211619331149
 30
0.0
 11
187.2504387175247
 21
36.098505511986787
 31
0.0
  0
LINE
  5
A1CB
  8
TITLE
 10
187.06636924771269
 20
35.827151169524321
 30
0.0
 11
187.2504387175247
 21
36.011220639339797
 31
0.0
  0
LINE
  5
A1CC
  8
TITLE
 10
185.57991604706589
 20
35.911825676511228
 30
0.0
 11
186.78427010667991
 21
37.116179736133063
 31
0.0
  0
LINE
  5
A1CD
  8
TITLE
 10
185.57991604706589
 20
35.824540803864117
 30
0.0
 11
186.8267609473088
 21
37.071385704110931
 31
0.0
  0
LINE
  5
A1CE
  8
TITLE
 10
185.57991604706589
 20
35.737255931220723
 30
0.0
 11
186.8692517879372
 21
37.026591672089133
 31
0.0
  0
LINE
  5
A1CF
  8
TITLE
 10
185.57991604706589
 20
35.649971058573897
 30
0.0
 11
186.91174262855881
 21
36.981797640070461
 31
0.0
  0
LINE
  5
A1D0
  8
TITLE
 10
185.57991604706589
 20
35.562686185926452
 30
0.0
 11
186.9542334691875
 21
36.937003608051953
 31
0.0
  0
LINE
  5
A1D1
  8
TITLE
 10
185.57991604706589
 20
34.777122332109343
 30
0.0
 11
186.4151772655442
 21
35.612383550584127
 31
0.0
  0
LINE
  5
A1D2
  8
TITLE
 10
185.57991604706589
 20
34.689837459462183
 30
0.0
 11
186.4151772655442
 21
35.525098677940612
 31
0.0
  0
LINE
  5
A1D3
  8
TITLE
 10
185.57991604706589
 20
34.602552586818831
 30
0.0
 11
186.4151772655442
 21
35.437813805293437
 31
0.0
  0
LINE
  5
A1D4
  8
TITLE
 10
185.57991604706589
 20
34.515267714171387
 30
0.0
 11
186.4151772655442
 21
35.350528932646171
 31
0.0
  0
LINE
  5
A1D5
  8
TITLE
 10
185.57991604706589
 20
34.427982841524511
 30
0.0
 11
186.4151772655442
 21
35.263244060002648
 31
0.0
  0
LINE
  5
A1D6
  8
TITLE
 10
185.57991604706589
 20
34.340697968877073
 30
0.0
 11
186.4151772655442
 21
35.175959187355829
 31
0.0
  0
LINE
  5
A1D7
  8
TITLE
 10
185.6171673149239
 20
34.290664364088173
 30
0.0
 11
186.4151772655442
 21
35.088674314708328
 31
0.0
  0
LINE
  5
A1D8
  8
TITLE
 10
185.70445218757101
 20
34.290664364088173
 30
0.0
 11
186.4151772655442
 21
35.001389442061047
 31
0.0
  0
LINE
  5
A1D9
  8
TITLE
 10
185.57991604706589
 20
34.864407204756787
 30
0.0
 11
186.4151772655442
 21
35.69966842323123
 31
0.0
  0
LINE
  5
A1DA
  8
TITLE
 10
185.791737060218
 20
34.290664364088173
 30
0.0
 11
186.4151772655442
 21
34.914104569414228
 31
0.0
  0
LINE
  5
A1DB
  8
TITLE
 10
185.87902193286519
 20
34.290664364088173
 30
0.0
 11
186.4151772655442
 21
34.826819696767082
 31
0.0
  0
LINE
  5
A1DC
  8
TITLE
 10
185.9663068055055
 20
34.290664364088173
 30
0.0
 11
186.4151772655442
 21
34.73953482411963
 31
0.0
  0
LINE
  5
A1DD
  8
TITLE
 10
186.05359167815229
 20
34.290664364088173
 30
0.0
 11
186.4151772655442
 21
34.652249951472527
 31
0.0
  0
LINE
  5
A1DE
  8
TITLE
 10
186.1408765507995
 20
34.290664364088173
 30
0.0
 11
186.4151772655442
 21
34.564965078828841
 31
0.0
  0
LINE
  5
A1DF
  8
TITLE
 10
186.22816142344669
 20
34.290664364088173
 30
0.0
 11
186.4151772655442
 21
34.477680206182193
 31
0.0
  0
LINE
  5
A1E0
  8
TITLE
 10
186.31544629609391
 20
34.290664364088173
 30
0.0
 11
186.4151772655442
 21
34.390395333534912
 31
0.0
  0
LINE
  5
A1E1
  8
TITLE
 10
186.40273116874079
 20
34.290664364088173
 30
0.0
 11
186.4151772655442
 21
34.303110460891503
 31
0.0
  0
LINE
  5
A1E2
  8
TITLE
 10
185.57991604706589
 20
35.126261822694403
 30
0.0
 11
186.4151772655442
 21
35.961523041172768
 31
0.0
  0
LINE
  5
A1E3
  8
TITLE
 10
185.57991604706589
 20
35.038976950047299
 30
0.0
 11
186.4151772655442
 21
35.874238168525949
 31
0.0
  0
LINE
  5
A1E4
  8
TITLE
 10
185.57991604706589
 20
34.951692077399969
 30
0.0
 11
186.4151772655442
 21
35.786953295878391
 31
0.0
  0
LINE
  5
A1E5
  8
TITLE
 10
187.09633710225069
 20
35.071555170244892
 30
0.0
 11
187.16768599386091
 21
35.142904061858466
 31
0.0
  0
LINE
  5
A1E6
  8
TITLE
 10
187.21404251622269
 20
35.712969820099723
 30
0.0
 11
187.2504387175247
 21
35.749366021401727
 31
0.0
  0
LINE
  5
A1E7
  8
TITLE
 10
187.11559367054909
 20
35.789090719713784
 30
0.0
 11
187.2504387175247
 21
35.923935766696268
 31
0.0
  0
LINE
  5
A1E8
  8
TITLE
 10
187.1648180933858
 20
35.751030269906948
 30
0.0
 11
187.2504387175247
 21
35.836650894049171
 31
0.0
  0
LINE
  5
A1E9
  8
TITLE
 10
185.50798066159189
 20
36.014460036335379
 30
0.0
 11
186.91210568887089
 21
37.418585063610813
 31
0.0
  0
LINE
  5
A1EA
  8
TITLE
 10
185.57991604706589
 20
35.999110549158672
 30
0.0
 11
186.80572262849151
 21
37.224917130584693
 31
0.0
  0
LINE
  5
A1EB
  8
TITLE
 10
186.72179828784169
 20
36.093574318179783
 30
0.0
 11
187.2504387175247
 21
36.62221474786611
 31
0.0
  0
LINE
  5
A1EC
  8
TITLE
 10
186.77102271067849
 20
36.055513868372827
 30
0.0
 11
187.2504387175247
 21
36.534929875218843
 31
0.0
  0
LINE
  5
A1ED
  8
TITLE
 10
186.42645175081441
 20
36.321937017028013
 30
0.0
 11
186.9967243098165
 21
36.892209576033508
 31
0.0
  0
LINE
  5
A1EE
  8
TITLE
 10
186.4756761736511
 20
36.283876567221171
 30
0.0
 11
187.03921515043791
 21
36.847415544011767
 31
0.0
  0
LINE
  5
A1EF
  8
TITLE
 10
186.52490059648801
 20
36.245816117410868
 30
0.0
 11
187.0817059910666
 21
36.802621511989862
 31
0.0
  0
LINE
  5
A1F0
  8
TITLE
 10
186.57412501932441
 20
36.207755667603813
 30
0.0
 11
187.1241968316952
 21
36.757827479971183
 31
0.0
  0
LINE
  5
A1F1
  8
TITLE
 10
186.6233494421613
 20
36.169695217797198
 30
0.0
 11
187.1666876723171
 21
36.713033447952803
 31
0.0
  0
LINE
  5
A1F2
  8
TITLE
 10
186.67257386500521
 20
36.131634767986441
 30
0.0
 11
187.2091785129457
 21
36.668239415930771
 31
0.0
  0
LINE
  5
A1F3
  8
TITLE
 10
186.8202471335149
 20
36.017453418562241
 30
0.0
 11
187.2504387175247
 21
36.447645002571853
 31
0.0
  0
LINE
  5
A1F4
  8
TITLE
 10
186.02906779458809
 20
37.495680768443442
 30
0.0
 11
187.25020409255629
 21
38.716817066415103
 31
0.0
  0
LINE
  5
A1F5
  8
TITLE
 10
185.8982741383077
 20
37.277602239515893
 30
0.0
 11
187.24496104807119
 21
38.624289149279832
 31
0.0
  0
LINE
  5
A1F6
  8
TITLE
 10
187.18829502255821
 20
34.290664364088173
 30
0.0
 11
188.0405347203251
 21
35.142904061858466
 31
0.0
  0
LINE
  5
A1F7
  8
TITLE
 10
187.09633710225069
 20
34.460561061715111
 30
0.0
 11
187.77868010239069
 21
35.142904061858466
 31
0.0
  0
LINE
  5
A1F8
  8
TITLE
 10
187.09633710225069
 20
34.373276189071191
 30
0.0
 11
187.8659649750378
 21
35.142904061858466
 31
0.0
  0
LINE
  5
A1F9
  8
TITLE
 10
187.10101014991119
 20
34.290664364088173
 30
0.0
 11
187.95324984767771
 21
35.142904061858466
 31
0.0
  0
LINE
  5
A1FA
  8
TITLE
 10
187.09633710225069
 20
34.809700552303298
 30
0.0
 11
187.42954061180191
 21
35.142904061858466
 31
0.0
  0
LINE
  5
A1FB
  8
TITLE
 10
187.09633710225069
 20
34.722415679656137
 30
0.0
 11
187.51682548444921
 21
35.142904061858466
 31
0.0
  0
LINE
  5
A1FC
  8
TITLE
 10
187.09633710225069
 20
34.635130807009148
 30
0.0
 11
187.6041103570964
 21
35.142904061858466
 31
0.0
  0
LINE
  5
A1FD
  8
TITLE
 10
187.09633710225069
 20
34.547845934361987
 30
0.0
 11
187.6913952297439
 21
35.142904061858466
 31
0.0
  0
LINE
  5
A1FE
  8
TITLE
 10
187.09633710225069
 20
34.896985424950742
 30
0.0
 11
187.34225573915529
 21
35.142904061858466
 31
0.0
  0
LINE
  5
A1FF
  8
TITLE
 10
187.09633710225069
 20
34.984270297597561
 30
0.0
 11
187.2549708665077
 21
35.142904061858466
 31
0.0
  0
LINE
  5
A200
  8
TITLE
 10
186.1050897538837
 20
37.658987600385899
 30
0.0
 11
187.2527078800843
 21
38.806605726586902
 31
0.0
  0
LINE
  5
A201
  8
TITLE
 10
186.1569143556591
 20
37.798097074801831
 30
0.0
 11
187.25270796529281
 21
38.893890684435242
 31
0.0
  0
LINE
  5
A202
  8
TITLE
 10
189.57490125511049
 20
37.724689068395378
 30
0.0
 11
189.9826071139172
 21
38.13239492720578
 31
0.0
  0
LINE
  5
A203
  8
TITLE
 10
189.66218612775049
 20
37.724689068395378
 30
0.0
 11
189.9826071139172
 21
38.04511005455862
 31
0.0
  0
LINE
  5
A204
  8
TITLE
 10
189.7494710003979
 20
37.724689068395378
 30
0.0
 11
189.9826071139172
 21
37.957825181911801
 31
0.0
  0
LINE
  5
A205
  8
TITLE
 10
189.83675587304469
 20
37.724689068395378
 30
0.0
 11
189.9826071139172
 21
37.870540309264193
 31
0.0
  0
LINE
  5
A206
  8
TITLE
 10
189.92404074569191
 20
37.724689068395378
 30
0.0
 11
189.9826071139172
 21
37.783255436617033
 31
0.0
  0
LINE
  5
A207
  8
TITLE
 10
189.5449865840167
 20
34.290664364088173
 30
0.0
 11
190.23358695249379
 21
34.979264732564957
 31
0.0
  0
LINE
  5
A208
  8
TITLE
 10
189.98141094724579
 20
34.290664364088173
 30
0.0
 11
190.23358695249379
 21
34.542840369336091
 31
0.0
  0
LINE
  5
A209
  8
TITLE
 10
190.06869581989281
 20
34.290664364088173
 30
0.0
 11
190.23358695249379
 21
34.455555496689222
 31
0.0
  0
LINE
  5
A20A
  8
TITLE
 10
189.63227145665689
 20
34.290664364088173
 30
0.0
 11
190.23358695249379
 21
34.891979859917512
 31
0.0
  0
LINE
  5
A20B
  8
TITLE
 10
189.71955632930411
 20
34.290664364088173
 30
0.0
 11
190.23358695249379
 21
34.804694987274161
 31
0.0
  0
LINE
  5
A20C
  8
TITLE
 10
189.80684120195119
 20
34.290664364088173
 30
0.0
 11
190.23358695249379
 21
34.717410114626887
 31
0.0
  0
LINE
  5
A20D
  8
TITLE
 10
189.89412607459829
 20
34.290664364088173
 30
0.0
 11
190.23358695249379
 21
34.630125241983372
 31
0.0
  0
LINE
  5
A20E
  8
TITLE
 10
190.1559806925398
 20
34.290664364088173
 30
0.0
 11
190.23358695249379
 21
34.368270624041941
 31
0.0
  0
LINE
  5
A216
  8
TITLE
 10
127.0465728752535
 20
43.671572875253787
 30
0.0
 11
132.7034271247469
 21
49.328427124746213
 31
0.0
  0
LINE
  5
A81E
  8
MODEL
 10
93.979812535940425
 20
97.328740526364115
 30
0.0
 11
93.979812535940368
 21
103.6949306986515
 31
0.0
  0
ARC
  5
A81F
  8
MODEL
 10
166.97981253594031
 20
112.2535520829633
 30
0.0
 40
75.0
 50
180.0
 51
191.1642143905942
  0
LINE
  5
A820
  8
MODEL
 10
93.889629805585969
 20
97.328740526364115
 30
0.0
 11
93.979812535940368
 21
97.328740526364115
 31
0.0
  0
ARC
  5
A821
  8
MODEL
 10
93.889629805585969
 20
97.828740526364101
 30
0.0
 40
0.5
 50
191.1642143905926
 51
270.0
  0
LINE
  5
A822
  8
MODEL
 10
93.519821459743127
 20
109.8287405263641
 30
0.0
 11
127.27981253594039
 21
109.8287405263641
 31
0.0
  0
LINE
  5
A823
  8
MODEL
 10
94.623222055968526
 20
110.92874052636409
 30
0.0
 11
125.614153141069
 21
110.92874052636409
 31
0.0
  0
ARC
  5
A824
  8
MODEL
 10
93.979812535940368
 20
113.28573469256951
 30
0.0
 40
2.0
 50
88.781124764869929
 51
180.0
  0
ARC
  5
A825
  8
MODEL
 10
166.97981253594031
 20
112.2535520829633
 30
0.0
 40
73.5
 50
181.89056710758979
 51
186.6869098640075
  0
ARC
  5
A826
  8
MODEL
 10
95.879812535940403
 20
114.44558074603781
 30
0.0
 40
0.8
 50
288.10593152565752
 51
88.781124764869929
  0
LINE
  5
A827
  8
MODEL
 10
91.979812535940354
 20
113.28573469256951
 30
0.0
 11
91.979812535940354
 21
112.2535520829632
 31
0.0
  0
LINE
  5
A828
  8
MODEL
 10
94.022356098921477
 20
115.28528215268361
 30
0.0
 11
95.896829961132823
 21
115.24539973008341
 31
0.0
  0
LINE
  5
A829
  8
MODEL
 10
94.280310150208095
 20
113.08092265939121
 30
0.0
 11
96.128432399761564
 21
113.6851938949458
 31
0.0
  0
ARC
  5
A82A
  8
MODEL
 10
94.623222055968526
 20
112.0321500463923
 30
0.0
 40
1.103409520028197
 50
108.1059315256575
 51
270.0
  0
LINE
  5
A82B
  8
MODEL
 10
125.8345348112362
 20
112.2581790998766
 30
0.0
 11
123.68301035760391
 21
112.99165334543299
 31
0.0
  0
LINE
  5
A82C
  8
MODEL
 10
127.8798125359404
 20
112.8287405263641
 30
0.0
 11
123.8766147142768
 21
114.19346705647671
 31
0.0
  0
LINE
  5
A82D
  8
MODEL
 10
123.4798125359404
 20
113.90951400002309
 30
0.0
 11
123.4798125359404
 21
113.27560640188661
 31
0.0
  0
ARC
  5
A82E
  8
MODEL
 10
123.77981253594039
 20
113.90951400002309
 30
0.0
 40
0.3
 50
71.17528998176131
 51
180.0
  0
ARC
  5
A82F
  8
MODEL
 10
123.77981253594039
 20
113.27560640188661
 30
0.0
 40
0.3
 50
180.0
 51
251.1752899817613
  0
ARC
  5
A830
  8
MODEL
 10
125.614153141069
 20
111.6117262007193
 30
0.0
 40
0.6829856743552515
 50
270.0
 51
71.17528998176131
  0
LINE
  5
A831
  8
MODEL
 10
127.8798125359404
 20
112.8287405263641
 30
0.0
 11
127.27981253594039
 21
109.8287405263641
 31
0.0
  0
LINE
  5
A832
  8
MODEL
 10
91.979812535940354
 20
247.54560962892049
 30
0.0
 11
91.979812535940354
 21
147.49999999999989
 31
0.0
  0
LINE
  5
A833
  8
MODEL
 10
127.8798125359403
 20
147.49999999999989
 30
0.0
 11
91.979812535940354
 21
147.49999999999989
 31
0.0
  0
ARC
  5
A834
  8
MODEL
 10
118.80481253594129
 20
266.71475669895432
 30
0.0
 40
21.25
 50
244.9423845816996
 51
295.28104997951971
  0
ARC
  5
A835
  8
MODEL
 10
100.80481253594129
 20
228.21475669895429
 30
0.0
 40
21.25
 50
64.942384581699628
 51
114.5378398359378
  0
LINE
  5
A836
  8
MODEL
 10
127.8798125359404
 20
147.49999999999989
 30
0.0
 11
127.8798125359403
 21
247.4999999999998
 31
0.0
  0
LINE
  5
A838
  8
CENTER
 10
113.0190208584574
 20
112.52874052636341
 30
0.0
 11
113.0190208584574
 21
107.8287405263636
 31
0.0
  0
LINE
  5
A839
  8
ZYUSHI
 10
104.0960402999858
 20
116.428740526364
 30
0.0
 11
106.6839608409858
 21
116.428740526364
 31
0.0
  0
LINE
  5
A83A
  8
ZYUSHI
 10
104.9900005704859
 20
112.428740526364
 30
0.0
 11
100.5900005704858
 21
112.428740526364
 31
0.0
  0
LINE
  5
A83B
  8
ZYUSHI
 10
100.1839608409858
 20
116.428740526364
 30
0.0
 11
96.990000570485876
 21
116.428740526364
 31
0.0
  0
LINE
  5
A83C
  8
ZYUSHI
 10
99.990000570485876
 20
110.928740526364
 30
0.0
 11
94.690000570485864
 21
110.928740526364
 31
0.0
  0
ARC
  5
A83D
  8
ZYUSHI
 10
94.690000570485864
 20
111.928740526364
 30
0.0
 40
1.0
 50
105.2452637187985
 51
270.0
  0
ARC
  5
A83E
  8
ZYUSHI
 10
96.990000570485876
 20
115.328740526364
 30
0.0
 40
1.1000000000000001
 50
90.0
 51
180.0
  0
ARC
  5
A83F
  8
ZYUSHI
 10
95.890000570485924
 20
114.328740526364
 30
0.0
 40
1.0
 50
285.24526371870081
 51
90.0
  0
LINE
  5
A840
  8
ZYUSHI
 10
94.427049109785884
 20
112.893549590064
 30
0.0
 11
96.152952031085903
 21
113.363931462764
 31
0.0
  0
LINE
  5
A841
  8
ZYUSHI
 10
100.2900005704859
 20
112.1287405263639
 30
0.0
 11
100.2900005704859
 21
111.22874052636401
 31
0.0
  0
ARC
  5
A842
  8
ZYUSHI
 10
100.5900005704858
 20
112.1287405263639
 30
0.0
 40
0.3
 50
90.0
 51
180.0
  0
ARC
  5
A843
  8
ZYUSHI
 10
99.990000570485876
 20
111.22874052636401
 30
0.0
 40
0.3
 50
270.0
 51
0.0
  0
LINE
  5
A844
  8
ZYUSHI
 10
100.9806556845695
 20
115.428740526364
 30
0.0
 11
103.29934545640219
 21
115.428740526364
 31
0.0
  0
ARC
  5
A845
  8
ZYUSHI
 10
103.29934545640219
 20
115.72874052636389
 30
0.0
 40
0.3
 50
270.0
 51
338.96248897625588
  0
ARC
  5
A846
  8
ZYUSHI
 10
100.9806556845695
 20
115.72874052636389
 30
0.0
 40
0.3
 50
201.03751102374409
 51
270.0
  0
LINE
  5
A847
  8
ZYUSHI
 10
100.4639645228865
 20
116.2364342501625
 30
0.0
 11
100.7006520027053
 21
115.6210468025795
 31
0.0
  0
ARC
  5
A848
  8
ZYUSHI
 10
100.1839608409858
 20
116.1287405263639
 30
0.0
 40
0.3
 50
21.037511025399041
 51
90.0
  0
ARC
  5
A849
  8
ZYUSHI
 10
104.0960402999858
 20
116.1287405263639
 30
0.0
 40
0.3
 50
90.0
 51
158.9624889745007
  0
LINE
  5
A84A
  8
ZYUSHI
 10
103.57934913826639
 20
115.6210468025795
 30
0.0
 11
103.81603661808521
 21
116.2364342501624
 31
0.0
  0
LINE
  5
A84B
  8
ZYUSHI
 10
119.3900005704858
 20
110.928740526364
 30
0.0
 11
125.19000057048579
 21
110.928740526364
 31
0.0
  0
LINE
  5
A84C
  8
ZYUSHI
 10
118.95964755167211
 20
116.3885000483719
 30
0.0
 11
123.2400838497858
 21
113.91535907606399
 31
0.0
  0
LINE
  5
A84D
  8
ZYUSHI
 10
113.4639645228865
 20
116.2364342501625
 30
0.0
 11
113.7006520027053
 21
115.6210468025795
 31
0.0
  0
LINE
  5
A84E
  8
ZYUSHI
 10
118.7900005704859
 20
112.428740526364
 30
0.0
 11
107.5900005704858
 21
112.428740526364
 31
0.0
  0
LINE
  5
A84F
  8
ZYUSHI
 10
106.9900005704858
 20
110.928740526364
 30
0.0
 11
105.5900005704858
 21
110.928740526364
 31
0.0
  0
LINE
  5
A850
  8
ZYUSHI
 10
105.2900005704859
 20
111.22874052636401
 30
0.0
 11
105.2900005704859
 21
112.1287405263639
 31
0.0
  0
ARC
  5
A851
  8
ZYUSHI
 10
104.9900005704859
 20
112.1287405263639
 30
0.0
 40
0.3
 50
0.0
 51
90.0
  0
ARC
  5
A852
  8
ZYUSHI
 10
105.5900005704858
 20
111.22874052636401
 30
0.0
 40
0.3
 50
180.0
 51
270.0
  0
LINE
  5
A853
  8
ZYUSHI
 10
107.2900005704858
 20
112.1287405263639
 30
0.0
 11
107.2900005704858
 21
111.22874052636401
 31
0.0
  0
ARC
  5
A854
  8
ZYUSHI
 10
106.9900005704858
 20
111.22874052636401
 30
0.0
 40
0.3
 50
270.0
 51
0.0
  0
ARC
  5
A855
  8
ZYUSHI
 10
107.5900005704858
 20
112.1287405263639
 30
0.0
 40
0.3
 50
90.0
 51
180.0
  0
LINE
  5
A856
  8
ZYUSHI
 10
107.4806556845695
 20
115.428740526364
 30
0.0
 11
109.7993454564082
 21
115.428740526364
 31
0.0
  0
ARC
  5
A857
  8
ZYUSHI
 10
109.7993454564082
 20
115.72874052636389
 30
0.0
 40
0.3
 50
270.0
 51
338.96248897527011
  0
ARC
  5
A858
  8
ZYUSHI
 10
107.4806556845695
 20
115.72874052636389
 30
0.0
 40
0.3
 50
201.03751102374409
 51
270.0
  0
LINE
  5
A859
  8
ZYUSHI
 10
106.9639645228864
 20
116.2364342501625
 30
0.0
 11
107.2006520027053
 21
115.6210468025795
 31
0.0
  0
ARC
  5
A85A
  8
ZYUSHI
 10
106.6839608409858
 20
116.1287405263639
 30
0.0
 40
0.3
 50
21.037511025399041
 51
90.0
  0
ARC
  5
A85B
  8
ZYUSHI
 10
113.1839608409858
 20
116.1287405263639
 30
0.0
 40
0.3
 50
21.037511025299612
 51
90.0
  0
LINE
  5
A85C
  8
ZYUSHI
 10
110.0793491382704
 20
115.6210468025747
 30
0.0
 11
110.3160366180998
 21
116.2364342501532
 31
0.0
  0
LINE
  5
A85D
  8
ZYUSHI
 10
113.1839608409858
 20
116.428740526364
 30
0.0
 11
110.596040299962
 21
116.428740526364
 31
0.0
  0
LINE
  5
A85E
  8
ZYUSHI
 10
119.0900005704858
 20
111.22874052636401
 30
0.0
 11
119.0900005704858
 21
112.1287405263639
 31
0.0
  0
ARC
  5
A85F
  8
ZYUSHI
 10
118.7900005704859
 20
112.1287405263639
 30
0.0
 40
0.3
 50
0.0
 51
90.0
  0
ARC
  5
A860
  8
ZYUSHI
 10
119.3900005704858
 20
111.22874052636401
 30
0.0
 40
0.3
 50
180.0
 51
270.0
  0
LINE
  5
A861
  8
ZYUSHI
 10
117.0960402999859
 20
116.428740526364
 30
0.0
 11
118.8095642722859
 21
116.428740526364
 31
0.0
  0
LINE
  5
A862
  8
ZYUSHI
 10
116.57934913826629
 20
115.6210468025795
 30
0.0
 11
116.81603661808531
 21
116.2364342501625
 31
0.0
  0
ARC
  5
A863
  8
ZYUSHI
 10
117.0960402999859
 20
116.1287405263639
 30
0.0
 40
0.3
 50
90.0
 51
158.9624889745007
  0
LINE
  5
A864
  8
ZYUSHI
 10
113.9806556845694
 20
115.428740526364
 30
0.0
 11
116.29934545640231
 21
115.428740526364
 31
0.0
  0
ARC
  5
A865
  8
ZYUSHI
 10
116.29934545640231
 20
115.72874052636389
 30
0.0
 40
0.3
 50
270.0
 51
338.96248897625588
  0
ARC
  5
A866
  8
ZYUSHI
 10
113.9806556845694
 20
115.72874052636389
 30
0.0
 40
0.3
 50
201.03751102374409
 51
270.0
  0
ARC
  5
A867
  8
ZYUSHI
 10
118.8095642722859
 20
116.1287405263639
 30
0.0
 40
0.3
 50
59.981632572402241
 51
90.0
  0
LINE
  5
A868
  8
ZYUSHI
 10
123.3900005704858
 20
112.628740526364
 30
0.0
 11
125.30168551651759
 21
112.31977342922011
 31
0.0
  0
ARC
  5
A869
  8
ZYUSHI
 10
125.19000057048579
 20
111.628740526364
 30
0.0
 40
0.7
 50
270.0
 51
80.819226888502442
  0
ARC
  5
A86A
  8
ZYUSHI
 10
123.0900005704859
 20
113.6555995541639
 30
0.0
 40
0.3
 50
0.0
 51
59.981632572402241
  0
LINE
  5
A86B
  8
ZYUSHI
 10
123.3900005704859
 20
113.6555995541639
 30
0.0
 11
123.3900005704859
 21
112.628740526364
 31
0.0
  0
ARC
  5
A86C
  8
ZYUSHI
 10
110.596040299962
 20
116.1287405263639
 30
0.0
 40
0.3
 50
90.0
 51
158.9624889752711
  0
LINE
  5
A86D
  8
ALUMI
 10
102.14091718544169
 20
114.0037405263639
 30
0.0
 11
115.14091718544169
 21
114.0037405263639
 31
0.0
  0
LINE
  5
A86E
  8
ALUMI
 10
115.14091718544169
 20
114.0037405263639
 30
0.0
 11
115.14091718544169
 21
113.85374052636389
 31
0.0
  0
LINE
  5
A86F
  8
ALUMI
 10
115.14091718544169
 20
113.85374052636389
 30
0.0
 11
102.14091718544169
 21
113.85374052636389
 31
0.0
  0
LINE
  5
A870
  8
ALUMI
 10
102.14091718544169
 20
113.85374052636389
 30
0.0
 11
102.14091718544169
 21
114.0037405263639
 31
0.0
  0
LINE
  5
A871
  8
ZYUSHI
 10
123.5893678383099
 20
147.49999999999989
 30
0.0
 11
123.5893678383099
 21
246.01039651665019
 31
0.0
  0
LINE
  5
A872
  8
ZYUSHI
 10
123.3900005704859
 20
147.49999999999989
 30
0.0
 11
123.3900005704859
 21
245.965333798838
 31
0.0
  0
LINE
  5
A873
  8
ZYUSHI
 10
118.8900005705338
 20
147.49999999999989
 30
0.0
 11
118.8900005705338
 21
245.4649274526106
 31
0.0
  0
LINE
  5
A874
  8
ZYUSHI
 10
116.890000570464
 20
147.49999999999989
 30
0.0
 11
116.890000570464
 21
245.55120323700311
 31
0.0
  0
LINE
  5
A875
  8
ZYUSHI
 10
116.5053851858822
 20
147.49999999999989
 30
0.0
 11
116.5053851858822
 21
245.58953163833539
 31
0.0
  0
LINE
  5
A876
  8
ZYUSHI
 10
113.39000057050779
 20
147.49999999999989
 30
0.0
 11
113.39000057050779
 21
246.16622119447129
 31
0.0
  0
LINE
  5
A877
  8
ZYUSHI
 10
113.7746159550895
 20
147.49999999999989
 30
0.0
 11
113.7746159550895
 21
246.06870084419151
 31
0.0
  0
LINE
  5
A878
  8
ZYUSHI
 10
110.3900005704859
 20
147.49999999999989
 30
0.0
 11
110.3900005704859
 21
247.2018522614793
 31
0.0
  0
LINE
  5
A879
  8
ZYUSHI
 10
110.00538518588429
 20
147.49999999999989
 30
0.0
 11
110.00538518588441
 21
247.3722496662279
 31
0.0
  0
LINE
  5
A87A
  8
ZYUSHI
 10
107.2746159550895
 20
147.49999999999989
 30
0.0
 11
107.2746159550895
 21
248.45590646169211
 31
0.0
  0
LINE
  5
A87B
  8
ZYUSHI
 10
106.89000057050769
 20
147.49999999999989
 30
0.0
 11
106.89000057050769
 21
248.5748398663672
 31
0.0
  0
LINE
  5
A87C
  8
ZYUSHI
 10
103.890000570464
 20
147.49999999999989
 30
0.0
 11
103.890000570464
 21
249.20220516957019
 31
0.0
  0
LINE
  5
A87D
  8
ZYUSHI
 10
103.5053851858823
 20
147.49999999999989
 30
0.0
 11
103.5053851858823
 21
249.2652613910906
 31
0.0
  0
LINE
  5
A87E
  8
ZYUSHI
 10
100.7746159550894
 20
147.49999999999989
 30
0.0
 11
100.7746159550894
 21
249.46473524403771
 31
0.0
  0
LINE
  5
A87F
  8
ZYUSHI
 10
100.39000057050769
 20
147.49999999999989
 30
0.0
 11
100.39000057050769
 21
249.4607076316222
 31
0.0
  0
LINE
  5
A880
  8
ZYUSHI
 10
95.890000570485881
 20
147.49999999999989
 30
0.0
 11
95.890000570485896
 21
248.88858371148919
 31
0.0
  0
TEXT
  5
ABB3
  8
TEXT
 62
     7
 10
122.64546394087709
 20
133.55374052636409
 30
0.0
 40
2.5
  1
アルミ箔
  0
SOLID
  5
ABB5
  8
TEXT
 62
     1
 10
115.1319721978619
 20
115.8186031869233
 30
0.0
 11
114.2278789314239
 21
114.0037405263639
 31
0.0
 12
114.49449818544061
 22
116.0137219403324
 32
0.0
 13
114.49449818544061
 23
116.0137219403324
 33
0.0
1001
ACAD
1000
DSTYLE
1002
{
1070
     5
1000

1002
}
  0
POLYLINE
  5
ABB6
  8
TEXT
 62
     1
 66
     1
 10
0.0
 20
0.0
 30
0.0
1001
ACAD
1000
DSTYLE
1002
{
1070
     5
1000

1002
}
  0
VERTEX
  5
AC72
  8
TEXT
 62
     1
 10
114.8132351916513
 20
115.91616256362791
 30
0.0
  0
VERTEX
  5
AC73
  8
TEXT
 62
     1
 10
120.02046394087709
 20
132.92874052636409
 30
0.0
  0
VERTEX
  5
AC74
  8
TEXT
 62
     1
 10
134.38286631916679
 20
132.92874052636409
 30
0.0
  0
SEQEND
  5
AC75
  8
TEXT
 62
     1
  0
LINE
  5
ABB7
  8
DIMS
 10
92.019020858457452
 20
108.5787405263642
 30
0.0
 11
92.019020858457452
 21
103.5787405263636
 31
0.0
  0
LINE
  5
ABB8
  8
DIMS
 10
113.0190208584574
 20
106.61456518215491
 30
0.0
 11
113.0190208584574
 21
103.5787405263636
 31
0.0
  0
LINE
  5
ABB9
  8
DIMS
 10
94.019020858457466
 20
104.8287405263636
 30
0.0
 11
111.0190208584574
 21
104.8287405263636
 31
0.0
  0
SOLID
  5
ABBA
  8
DIMS
 10
94.019020858457466
 20
105.1620738596969
 30
0.0
 11
94.019020858457466
 21
104.4954071930302
 31
0.0
 12
92.019020858457452
 22
104.8287405263636
 32
0.0
 13
92.019020858457452
 23
104.8287405263636
 33
0.0
  0
SOLID
  5
ABBB
  8
DIMS
 10
111.0190208584574
 20
105.1620738596969
 30
0.0
 11
111.0190208584574
 21
104.4954071930302
 31
0.0
 12
113.0190208584574
 22
104.8287405263636
 32
0.0
 13
113.0190208584574
 23
104.8287405263636
 33
0.0
  0
INSERT
  5
ABBC
  8
0
  2
*U17
 10
0.0
 20
0.0
 30
0.0
  0
LINE
  5
ABBD
  8
DIMS
 10
120.11923722377981
 20
116.42874052626409
 30
0.0
 11
145.80000000000021
 21
116.42874052626409
 31
0.0
  0
LINE
  5
ABBE
  8
DIMS
 10
138.80000000000021
 20
109.8287405263641
 30
0.0
 11
145.80000000000021
 21
109.8287405263641
 31
0.0
  0
LINE
  5
ABBF
  8
DIMS
 10
144.55000000000021
 20
114.42874052626409
 30
0.0
 11
144.55000000000021
 21
111.8287405263641
 31
0.0
  0
SOLID
  5
ABC0
  8
DIMS
 10
144.2166666666669
 20
114.42874052626409
 30
0.0
 11
144.88333333333361
 21
114.42874052626409
 31
0.0
 12
144.55000000000021
 22
116.42874052626409
 32
0.0
 13
144.55000000000021
 23
116.42874052626409
 33
0.0
  0
SOLID
  5
ABC1
  8
DIMS
 10
144.2166666666669
 20
111.8287405263641
 30
0.0
 11
144.88333333333361
 21
111.8287405263641
 31
0.0
 12
144.55000000000021
 22
109.8287405263641
 32
0.0
 13
144.55000000000021
 23
109.8287405263641
 33
0.0
  0
INSERT
  5
ABC2
  8
0
  2
*U18
 10
0.0
 20
0.0
 30
0.0
  0
LINE
  5
ABC3
  8
DIMS
 10
129.12981253594029
 20
112.8287405263641
 30
0.0
 11
138.80000000000021
 21
112.8287405263641
 31
0.0
  0
LINE
  5
ABC4
  8
DIMS
 10
128.52981253594041
 20
109.8287405263641
 30
0.0
 11
138.80000000000021
 21
109.8287405263641
 31
0.0
  0
LINE
  5
ABC5
  8
DIMS
 10
137.55000000000021
 20
114.8287405263641
 30
0.0
 11
137.55000000000021
 21
116.8287405263641
 31
0.0
  0
LINE
  5
ABC6
  8
DIMS
 10
137.55000000000021
 20
107.8287405263641
 30
0.0
 11
137.55000000000021
 21
105.8287405263641
 31
0.0
  0
LINE
  5
ABC7
  8
DIMS
 10
137.55000000000021
 20
112.8287405263641
 30
0.0
 11
137.55000000000021
 21
109.8287405263641
 31
0.0
  0
SOLID
  5
ABC8
  8
DIMS
 10
137.2166666666669
 20
114.8287405263641
 30
0.0
 11
137.88333333333361
 21
114.8287405263641
 31
0.0
 12
137.55000000000021
 22
112.8287405263641
 32
0.0
 13
137.55000000000021
 23
112.8287405263641
 33
0.0
  0
SOLID
  5
ABC9
  8
DIMS
 10
137.2166666666669
 20
107.8287405263641
 30
0.0
 11
137.88333333333361
 21
107.8287405263641
 31
0.0
 12
137.55000000000021
 22
109.8287405263641
 32
0.0
 13
137.55000000000021
 23
109.8287405263641
 33
0.0
  0
INSERT
  5
ABCA
  8
0
  2
*U19
 10
0.0
 20
0.0
 30
0.0
  0
LINE
  5
ABCB
  8
DIMS
 10
92.799999996897029
 20
115.3287405263641
 30
0.0
 11
80.799999996897014
 21
115.3287405263641
 31
0.0
  0
LINE
  5
ABCC
  8
DIMS
 10
92.339208319414155
 20
109.8287405263641
 30
0.0
 11
80.799999996897014
 21
109.8287405263641
 31
0.0
  0
LINE
  5
ABCD
  8
DIMS
 10
82.050000000000239
 20
113.3287405213989
 30
0.0
 11
82.050000000000239
 21
111.8287405313292
 31
0.0
  0
SOLID
  5
ABCE
  8
DIMS
 10
81.716666665839384
 20
113.3287405213989
 30
0.0
 11
82.383333334161094
 21
113.3287405213989
 31
0.0
 12
82.050000000000239
 22
115.3287405263641
 32
0.0
 13
82.050000000000239
 23
115.3287405263641
 33
0.0
  0
SOLID
  5
ABCF
  8
DIMS
 10
81.716666665839384
 20
111.8287405313292
 30
0.0
 11
82.383333334161094
 21
111.8287405313292
 31
0.0
 12
82.050000000000239
 22
109.8287405263641
 32
0.0
 13
82.050000000000239
 23
109.8287405263641
 33
0.0
  0
INSERT
  5
ABD0
  8
0
  2
*U20
 10
0.0
 20
0.0
 30
0.0
  0
LINE
  5
ABD1
  8
DIMS
 10
91.979812535940354
 20
114.5357346956727
 30
0.0
 11
91.979812535940354
 21
127.17874052946731
 31
0.0
  0
LINE
  5
ABD2
  8
DIMS
 10
127.8798125359404
 20
114.0787405294673
 30
0.0
 11
127.8798125359404
 21
127.17874052946731
 31
0.0
  0
LINE
  5
ABD3
  8
DIMS
 10
93.979812540905499
 20
125.92874052636409
 30
0.0
 11
125.8798125309752
 21
125.92874052636409
 31
0.0
  0
SOLID
  5
ABD4
  8
DIMS
 10
93.979812540905499
 20
126.26207386052489
 30
0.0
 11
93.979812540905499
 21
125.5954071922032
 31
0.0
 12
91.979812535940354
 22
125.92874052636409
 32
0.0
 13
91.979812535940354
 23
125.92874052636409
 33
0.0
  0
SOLID
  5
ABD5
  8
DIMS
 10
125.8798125309752
 20
126.26207386052489
 30
0.0
 11
125.8798125309752
 21
125.5954071922032
 31
0.0
 12
127.8798125359404
 22
125.92874052636409
 32
0.0
 13
127.8798125359404
 23
125.92874052636409
 33
0.0
  0
INSERT
  5
ABD6
  8
0
  2
*U21
 10
0.0
 20
0.0
 30
0.0
  0
LINE
  5
ABD7
  8
DIMS
 10
92.799999996897029
 20
97.328740526364115
 30
0.0
 11
80.799999996896943
 21
97.328740526364115
 31
0.0
  0
LINE
  5
ABD8
  8
DIMS
 10
82.050000000000168
 20
107.8287405213989
 30
0.0
 11
82.050000000000168
 21
99.328740531329245
 31
0.0
  0
SOLID
  5
ABD9
  8
DIMS
 10
81.716666665839327
 20
107.8287405213989
 30
0.0
 11
82.383333334161037
 21
107.8287405213989
 31
0.0
 12
82.050000000000168
 22
109.8287405263641
 32
0.0
 13
82.050000000000168
 23
109.8287405263641
 33
0.0
  0
SOLID
  5
ABDA
  8
DIMS
 10
81.716666665839327
 20
99.328740531329245
 30
0.0
 11
82.383333334161037
 21
99.328740531329245
 31
0.0
 12
82.050000000000168
 22
97.328740526364115
 32
0.0
 13
82.050000000000168
 23
97.328740526364115
 33
0.0
  0
INSERT
  5
ABDB
  8
0
  2
*U22
 10
0.0
 20
0.0
 30
0.0
  0
LINE
  5
ABDC
  8
DIMS
 10
80.799999996897014
 20
115.3287405263641
 30
0.0
 11
73.799999996896958
 21
115.3287405263641
 31
0.0
  0
LINE
  5
ABDD
  8
DIMS
 10
80.799999996896972
 20
97.328740526364115
 30
0.0
 11
73.799999996896958
 21
97.328740526364115
 31
0.0
  0
LINE
  5
ABDE
  8
DIMS
 10
75.050000000000182
 20
113.3287405213989
 30
0.0
 11
75.050000000000182
 21
99.328740531329245
 31
0.0
  0
SOLID
  5
ABDF
  8
DIMS
 10
74.716666665839327
 20
113.3287405213989
 30
0.0
 11
75.383333334161037
 21
113.3287405213989
 31
0.0
 12
75.050000000000182
 22
115.3287405263641
 32
0.0
 13
75.050000000000182
 23
115.3287405263641
 33
0.0
  0
SOLID
  5
ABE0
  8
DIMS
 10
74.716666665839327
 20
99.328740531329245
 30
0.0
 11
75.383333334161037
 21
99.328740531329245
 31
0.0
 12
75.050000000000182
 22
97.328740526364115
 32
0.0
 13
75.050000000000182
 23
97.328740526364115
 33
0.0
  0
INSERT
  5
ABE1
  8
0
  2
*U23
 10
0.0
 20
0.0
 30
0.0
  0
TEXT
  5
ABE2
  8
TITLE
 10
171.43452380952399
 20
44.24404761904762
 30
0.0
 40
2.5
  1
2019．１０．２８
  0
TEXT
  5
ABE3
  8
TITLE
 10
131.6200937914131
 20
43.221572875253813
 30
0.0
 40
2.5
  1
１
  0
TEXT
  5
ABE4
  8
TITLE
 10
125.9632395419207
 20
47.27842712474618
 30
0.0
 40
2.5
  1
１
  0
TEXT
  5
ABE5
  8
TITLE
 10
113.7916666666669
 20
56.25
 30
0.0
 40
2.5
  1
ＹＭＡ－１１５（アニール）
  0
TEXT
  5
ABE6
  8
TITLE
 10
166.95833333333351
 20
56.25
 30
0.0
 40
2.5
  1
１Ｓ－０２２５
  0
TEXT
  5
ABE7
  8
TITLE
 10
33.666666666666892
 20
56.25
 30
0.0
 40
2.5
  1
ノンスリップ
  0
TEXT
  5
ABE8
  8
TITLE
 10
81.708333333333556
 20
58.333333333333329
 30
0.0
 40
2.5
  1
アルミ製
  0
TEXT
  5
ABE9
  8
TITLE
 10
78.541666666666899
 20
54.166666666666671
 30
0.0
 40
2.5
  1
タイヤ入れ式
  0
LINE
  5
ABEA
  8
DEFPOINTS
 10
0.0
 20
0.0
 30
0.0
 11
210.0
 21
0.0
 31
0.0
  0
LINE
  5
ABEB
  8
DEFPOINTS
 10
210.0
 20
0.0
 30
0.0
 11
210.0
 21
297.0
 31
0.0
  0
LINE
  5
ABEC
  8
DEFPOINTS
 10
210.0
 20
297.0
 30
0.0
 11
0.0
 21
297.0
 31
0.0
  0
LINE
  5
ABED
  8
DEFPOINTS
 10
0.0
 20
297.0
 30
0.0
 11
0.0
 21
0.0
 31
0.0
  0
TEXT
  5
ABEE
  8
TITLE
 10
122.0416666666669
 20
63.675497065706622
 30
0.0
 40
2.5
  1
タ    イ    プ
  0
TEXT
  5
ABEF
  8
TITLE
 10
140.85331854688329
 20
48.828796392541342
 30
0.0
 40
2.5
  1
仕上
  0
TEXT
  5
ABF0
  8
TITLE
 10
110.8533185468833
 20
48.828796392541342
 30
0.0
 40
2.5
  1
縮尺
  0
TEXT
  5
ABF1
  8
TITLE
 10
167.1250000000002
 20
63.675497065706679
 30
0.0
 40
2.5
  1
図  面  番  号
  0
TEXT
  5
ABF2
  8
TITLE
 10
170.51998521355
 20
48.828796392541342
 30
0.0
 40
2.5
  1
日付
  0
TEXT
  5
ABF3
  8
TITLE
 10
77.291666666666899
 20
63.675497065706622
 30
0.0
 40
2.5
  1
群          別
  0
TEXT
  5
ABF4
  8
TITLE
 10
66.903959893265665
 20
47.93739991761003
 30
0.0
 40
2.5
  1
材質
  0
TEXT
  5
ABF5
  8
TITLE
 10
66.903959893265665
 20
41.270733250943351
 30
0.0
 40
2.5
  1
規格
  0
TEXT
  5
ABF6
  8
TITLE
 10
66.903959893265665
 20
34.604066584276673
 30
0.0
 40
2.5
  1
重量
  0
TEXT
  5
ABF7
  8
TITLE
 10
23.223482582534128
 20
38.677403026748948
 30
0.0
 40
2.0
  1
2
  0
TEXT
  5
ABF8
  8
TITLE
 10
23.252145405404558
 20
43.677403026748948
 30
0.0
 40
2.0
  1
1
  0
TEXT
  5
ABF9
  8
TITLE
 10
23.223482582534128
 20
33.677403026748948
 30
0.0
 40
2.0
  1
3
  0
LINE
  5
ABFA
  8
TITLE
 10
24.375000000000231
 20
47.0
 30
0.0
 11
22.209936490539121
 21
43.25
 31
0.0
  0
LINE
  5
ABFB
  8
TITLE
 10
22.209936490539121
 20
43.25
 30
0.0
 11
26.540063509461309
 21
43.25
 31
0.0
  0
LINE
  5
ABFC
  8
TITLE
 10
26.540063509461309
 20
43.25
 30
0.0
 11
24.375000000000231
 21
47.0
 31
0.0
  0
LINE
  5
ABFD
  8
TITLE
 10
24.375000000000231
 20
37.0
 30
0.0
 11
22.209936490539121
 21
33.25
 31
0.0
  0
LINE
  5
ABFE
  8
TITLE
 10
22.209936490539121
 20
33.25
 30
0.0
 11
26.540063509461309
 21
33.25
 31
0.0
  0
LINE
  5
ABFF
  8
TITLE
 10
26.540063509461309
 20
33.25
 30
0.0
 11
24.375000000000231
 21
37.0
 31
0.0
  0
LINE
  5
AC00
  8
TITLE
 10
24.375000000000231
 20
42.0
 30
0.0
 11
22.209936490539121
 21
38.25
 31
0.0
  0
LINE
  5
AC01
  8
TITLE
 10
22.209936490539121
 20
38.25
 30
0.0
 11
26.540063509461309
 21
38.25
 31
0.0
  0
LINE
  5
AC02
  8
TITLE
 10
26.540063509461309
 20
38.25
 30
0.0
 11
24.375000000000231
 21
42.0
 31
0.0
  0
TEXT
  5
AC03
  8
TITLE
 10
21.165553196916111
 20
28.739356149794158
 30
0.0
 40
2.5
  1
特記事項
  0
TEXT
  5
AC04
  8
TITLE
 10
32.416666666666892
 20
63.675497065706622
 30
0.0
 40
2.5
  1
品          名
  0
TEXT
  5
AC05
  8
TITLE
 10
32.333333333333563
 20
48.675497065706622
 30
0.0
 40
2.5
  1
経          歴
  0
LINE
  5
AC06
  8
TITLE
 10
20.000000000000231
 20
12.625
 30
0.0
 11
199.7500000000002
 21
12.625
 31
0.0
  0
LINE
  5
AC07
  8
TITLE
 10
199.7500000000002
 20
12.625
 30
0.0
 11
199.7500000000002
 21
284.37499999999989
 31
0.0
  0
LINE
  5
AC08
  8
TITLE
 10
199.7500000000002
 20
284.37499999999989
 30
0.0
 11
20.000000000000231
 21
284.37499999999989
 31
0.0
  0
LINE
  5
AC09
  8
TITLE
 10
20.000000000000231
 20
284.37499999999989
 30
0.0
 11
20.000000000000231
 21
12.625
 31
0.0
  0
VIEWPORT
  5
4277
 67
     1
  8
0
 10
128.5
 20
97.5
 30
0.0
 40
402.99952267303098
 41
222.18000000000001
 68
     1
 69
     1
1001
ACAD
1000
MVIEW
1002
{
1070
    16
1010
0.0
1020
0.0
1030
0.0
1010
0.0
1020
0.0
1030
1.0
1040
0.0
1040
222.18000000000001
1040
128.5
1040
97.5
1040
50.0
1040
0.0
1040
0.0
1070
     0
1070
   100
1070
     1
1070
     1
1070
     0
1070
     0
1070
     0
1070
     0
1040
0.0
1040
0.0
1040
0.0
1040
10.0
1040
10.0
1040
10.0
1040
10.0
1070
     0
1002
{
1002
}
1002
}
  0
VIEWPORT
  5
427C
 67
     1
  8
0
 10
128.5
 20
97.5
 30
0.0
 40
205.59999999999999
 41
156.0
 68
     2
 69
     2
1001
ACAD
1000
MVIEW
1002
{
1070
    16
1010
0.0
1020
0.0
1030
0.0
1010
0.0
1020
0.0
1030
1.0
1040
0.0
1040
277.29591836734681
1040
89.875
1040
135.87499999999989
1040
50.0
1040
0.0
1040
0.0
1070
     0
1070
   100
1070
     1
1070
     3
1070
     0
1070
     0
1070
     0
1070
     0
1040
0.0
1040
0.0
1040
0.0
1040
10.0
1040
10.0
1040
10.0
1040
10.0
1070
     0
1002
{
1002
}
1002
}
  0
ENDSEC
  0
EOF
