  0
SECTION
  2
HEADER
  9
$ACADVER
  1
AC1009
  9
$INSBASE
 10
0.0
 20
0.0
 30
0.0
  9
$EXTMIN
 10
0.0
 20
0.0
 30
0.0
  9
$EXTMAX
 10
210.0
 20
297.0
 30
0.0
  9
$LIMMIN
 10
0.0
 20
0.0
  9
$LIMMAX
 10
420.0
 20
297.0
  9
$ORTHOMODE
 70
     0
  9
$REGENMODE
 70
     1
  9
$FILLMODE
 70
     1
  9
$QTEXTMODE
 70
     0
  9
$MIRRTEXT
 70
     1
  9
$DRAGMODE
 70
     2
  9
$LTSCALE
 40
0.4
  9
$OSMODE
 70
    37
  9
$ATTMODE
 70
     1
  9
$TEXTSIZE
 40
2.5
  9
$TRACEWID
 40
1.0
  9
$TEXTSTYLE
  7
STANDARD
  9
$CLAYER
  8
0
  9
$CELTYPE
  6
BYLAYER
  9
$CECOLOR
 62
   256
  9
$DIMSCALE
 40
0.0
  9
$DIMASZ
 40
2.0
  9
$DIMEXO
 40
0.625
  9
$DIMDLI
 40
3.75
  9
$DIMRND
 40
0.0
  9
$DIMDLE
 40
0.0
  9
$DIMEXE
 40
1.25
  9
$DIMTP
 40
0.0
  9
$DIMTM
 40
0.0
  9
$DIMTXT
 40
2.5
  9
$DIMCEN
 40
0.0
  9
$DIMTSZ
 40
0.0
  9
$DIMTOL
 70
     0
  9
$DIMLIM
 70
     0
  9
$DIMTIH
 70
     0
  9
$DIMTOH
 70
     0
  9
$DIMSE1
 70
     0
  9
$DIMSE2
 70
     0
  9
$DIMTAD
 70
     1
  9
$DIMZIN
 70
     8
  9
$DIMBLK
  1

  9
$DIMASO
 70
     1
  9
$DIMSHO
 70
     1
  9
$DIMPOST
  1

  9
$DIMAPOST
  1

  9
$DIMALT
 70
     0
  9
$DIMALTD
 70
     3
  9
$DIMALTF
 40
0.03937007874016
  9
$DIMLFAC
 40
1.0
  9
$DIMTOFL
 70
     1
  9
$DIMTVP
 40
0.0
  9
$DIMTIX
 70
     0
  9
$DIMSOXD
 70
     0
  9
$DIMSAH
 70
     0
  9
$DIMBLK1
  1

  9
$DIMBLK2
  1

  9
$DIMSTYLE
  2
DIMS
  9
$DIMCLRD
 70
     0
  9
$DIMCLRE
 70
     0
  9
$DIMCLRT
 70
     7
  9
$DIMTFAC
 40
1.0
  9
$DIMGAP
 40
0.625
  9
$LUNITS
 70
     2
  9
$LUPREC
 70
     4
  9
$SKETCHINC
 40
1.0
  9
$FILLETRAD
 40
0.0
  9
$AUNITS
 70
     0
  9
$AUPREC
 70
     0
  9
$MENU
  1
.
  9
$ELEVATION
 40
0.0
  9
$PELEVATION
 40
0.0
  9
$THICKNESS
 40
0.0
  9
$LIMCHECK
 70
     0
  9
$BLIPMODE
 70
     0
  9
$CHAMFERA
 40
10.0
  9
$CHAMFERB
 40
10.0
  9
$SKPOLY
 70
     0
  9
$TDCREATE
 40
2451639.7154166670516133
  9
$TDUPDATE
 40
2459713.6610532412305474
  9
$TDINDWG
 40
0.1662219676
  9
$TDUSRTIMER
 40
0.1662218519
  9
$USRTIMER
 70
     1
  9
$ANGBASE
 50
0.0
  9
$ANGDIR
 70
     0
  9
$PDMODE
 70
     0
  9
$PDSIZE
 40
0.0
  9
$PLINEWID
 40
0.0
  9
$COORDS
 70
     1
  9
$SPLFRAME
 70
     0
  9
$SPLINETYPE
 70
     6
  9
$SPLINESEGS
 70
     8
  9
$ATTDIA
 70
     1
  9
$ATTREQ
 70
     1
  9
$HANDLING
 70
     1
  9
$HANDSEED
  5
4E7C
  9
$SURFTAB1
 70
     6
  9
$SURFTAB2
 70
     6
  9
$SURFTYPE
 70
     6
  9
$SURFU
 70
     6
  9
$SURFV
 70
     6
  9
$UCSNAME
  2

  9
$UCSORG
 10
0.0
 20
0.0
 30
0.0
  9
$UCSXDIR
 10
1.0
 20
0.0
 30
0.0
  9
$UCSYDIR
 10
0.0
 20
1.0
 30
0.0
  9
$PUCSNAME
  2

  9
$PUCSORG
 10
0.0
 20
0.0
 30
0.0
  9
$PUCSXDIR
 10
1.0
 20
0.0
 30
0.0
  9
$PUCSYDIR
 10
0.0
 20
1.0
 30
0.0
  9
$USERI1
 70
     0
  9
$USERI2
 70
     0
  9
$USERI3
 70
     0
  9
$USERI4
 70
     0
  9
$USERI5
 70
     0
  9
$USERR1
 40
0.0
  9
$USERR2
 40
0.0
  9
$USERR3
 40
0.0
  9
$USERR4
 40
0.0
  9
$USERR5
 40
0.0
  9
$WORLDVIEW
 70
     1
  9
$SHADEDGE
 70
     3
  9
$SHADEDIF
 70
    70
  9
$TILEMODE
 70
     1
  9
$MAXACTVP
 70
    48
  9
$PLIMCHECK
 70
     0
  9
$PEXTMIN
 10
0.0
 20
0.0
 30
0.0
  9
$PEXTMAX
 10
0.0
 20
0.0
 30
0.0
  9
$PLIMMIN
 10
0.0
 20
0.0
  9
$PLIMMAX
 10
12.0
 20
9.0
  9
$UNITMODE
 70
     0
  9
$VISRETAIN
 70
     1
  9
$PLINEGEN
 70
     0
  9
$PSLTSCALE
 70
     0
  0
ENDSEC
  0
SECTION
  2
TABLES
  0
TABLE
  2
VPORT
 70
     1
  0
VPORT
  2
*ACTIVE
 70
     0
 10
0.0
 20
0.0
 11
1.0
 21
1.0
 12
105.0016086514013978
 22
148.4954721160879103
 13
0.0
 23
0.0
 14
10.0
 24
10.0
 15
10.0
 25
10.0
 16
0.0
 26
0.0
 36
1.0
 17
0.0
 27
0.0
 37
0.0
 40
299.5244332736522779
 41
1.684636118598382
 42
50.0
 43
0.0
 44
0.0
 50
0.0
 51
0.0
 71
     0
 72
   100
 73
     1
 74
     3
 75
     0
 76
     0
 77
     0
 78
     0
  0
ENDTAB
  0
TABLE
  2
LTYPE
 70
     3
  0
LTYPE
  2
CONTINUOUS
 70
     0
  3
Solid line
 72
    65
 73
     0
 40
0.0
  0
LTYPE
  2
CENTER2
 70
     0
  3
Center (.5x) ___ _ ___ _ ___ _ ___ _ ___ _ ___
 72
    65
 73
     4
 40
28.5749999999999993
 49
19.0500000000000007
 49
-3.1749999999999989
 49
3.1749999999999989
 49
-3.1749999999999989
  0
LTYPE
  2
HIDDEN2
 70
     0
  3
Hidden (.5x) _ _ _ _ _ _ _ _ _ _ _ _ _ _ _ _ _
 72
    65
 73
     2
 40
4.7624999999999993
 49
3.1749999999999989
 49
-1.587499999999999
  0
ENDTAB
  0
TABLE
  2
LAYER
 70
     7
  0
LAYER
  2
0
 70
     0
 62
     7
  6
CONTINUOUS
  0
LAYER
  2
TITLE
 70
     0
 62
     7
  6
CONTINUOUS
  0
LAYER
  2
DEFPOINTS
 70
     0
 62
     7
  6
CONTINUOUS
  0
LAYER
  2
DIMS
 70
     0
 62
     1
  6
CONTINUOUS
  0
LAYER
  2
CENTER
 70
     0
 62
     6
  6
CENTER2
  0
LAYER
  2
MODEL
 70
     0
 62
     7
  6
CONTINUOUS
  0
LAYER
  2
HIDDEN
 70
     0
 62
     9
  6
HIDDEN2
  0
ENDTAB
  0
TABLE
  2
STYLE
 70
     2
  0
STYLE
  2
STANDARD
 70
     0
 40
0.0
 41
1.0
 50
0.0
 71
     0
 42
2.5
  3
romans.shx
  4
bigfont.shx
  0
STYLE
  2
DIMS
 70
     0
 40
0.0
 41
0.75
 50
0.0
 71
     0
 42
2.5
  3
romans.shx
  4
bigfont.shx
  0
ENDTAB
  0
TABLE
  2
VIEW
 70
     1
  0
VIEW
  2
PRINT
 70
     1
 40
128.5
 10
98.8758666020023611
 20
145.2422655388058104
 41
88.0
 11
0.0
 21
0.0
 31
1.0
 12
0.0
 22
0.0
 32
0.0
 42
50.0
 43
0.0
 44
0.0
 50
0.0
 71
     0
  0
ENDTAB
  0
TABLE
  2
UCS
 70
     0
  0
ENDTAB
  0
TABLE
  2
APPID
 70
    10
  0
APPID
  2
ACAD
 70
     0
  0
APPID
  2
ACAD_EXEMPT_FROM_CAD_STANDARDS
 70
     0
  0
APPID
  2
ACAD_MLEADERVER
 70
     0
  0
APPID
  2
ACAD_PSEXT
 70
     0
  0
APPID
  2
ACAD_NAV_VCDISPLAY
 70
     0
  0
APPID
  2
ACAECLAYERSTANDARD
 70
     0
  0
APPID
  2
ACCMTRANSPARENCY
 70
     0
  0
APPID
  2
ACAD_DSTYLE_DIMRADIAL_EXTENSION
 70
     0
  0
APPID
  2
ACAD_DSTYLE_DIMTALN
 70
     0
  0
APPID
  2
ACLAYERTOOLS
 70
     0
  0
ENDTAB
  0
TABLE
  2
DIMSTYLE
 70
     2
  0
DIMSTYLE
  2
DIMS
 70
     0
  3

  4

  5

  6

  7

 40
0.0
 41
2.0
 42
0.625
 43
3.75
 44
1.25
 45
0.0
 46
0.0
 47
0.0
 48
0.0
140
2.5
141
0.0
142
0.0
143
0.03937007874016
144
1.0
145
0.0
146
1.0
147
0.625
 71
     0
 72
     0
 73
     0
 74
     0
 75
     0
 76
     0
 77
     1
 78
     8
170
     0
171
     3
172
     1
173
     0
174
     0
175
     0
176
     0
177
     0
178
     7
  0
DIMSTYLE
  2
STANDARD
 70
     0
  3

  4

  5

  6

  7

 40
1.0
 41
0.18
 42
0.0625
 43
0.38
 44
0.18
 45
0.0
 46
0.0
 47
0.0
 48
0.0
140
0.18
141
0.09
142
0.0
143
25.3999999999999986
144
1.0
145
0.0
146
1.0
147
0.09
 71
     0
 72
     0
 73
     1
 74
     1
 75
     0
 76
     0
 77
     0
 78
     0
170
     0
171
     2
172
     0
173
     0
174
     0
175
     0
176
     0
177
     0
178
     0
  0
ENDTAB
  0
ENDSEC
  0
SECTION
  2
BLOCKS
  0
BLOCK
  8
0
  2
$MODEL_SPACE
 70
     0
 10
0.0
 20
0.0
 30
0.0
  3
$MODEL_SPACE
  1

  0
ENDBLK
  5
21
  8
0
  0
BLOCK
 67
     1
  8
0
  2
$PAPER_SPACE
 70
     0
 10
0.0
 20
0.0
 30
0.0
  3
$PAPER_SPACE
  1

  0
ENDBLK
  5
1960
 67
     1
  8
0
  0
BLOCK
  8
0
  2
*D0
 70
     1
 10
0.0
 20
0.0
 30
0.0
  3
*D0
  1

  0
LINE
  5
4BD8
  8
DIMS
 62
     0
 10
92.3749999999999432
 20
147.6211163952023924
 30
0.0
 11
92.3749999999999432
 21
161.193080353897102
 31
0.0
  0
LINE
  5
4BD9
  8
DIMS
 62
     0
 10
127.375
 20
147.6211163952023924
 30
0.0
 11
127.375
 21
161.193080353897102
 31
0.0
  0
LINE
  5
4BDA
  8
DIMS
 62
     0
 10
94.3750000028164067
 20
159.9430803521368034
 30
0.0
 11
125.3749999971835933
 21
159.9430803521368034
 31
0.0
  0
SOLID
  5
4BDB
  8
DIMS
 62
     0
 10
94.3750000028164067
 20
160.2764136859395023
 30
0.0
 11
94.3750000028164067
 21
159.6097470183339908
 31
0.0
 12
92.3749999999999432
 22
159.9430803521368034
 32
0.0
 13
92.3749999999999432
 23
159.9430803521368034
 33
0.0
  0
SOLID
  5
4BDC
  8
DIMS
 62
     0
 10
125.3749999971835933
 20
160.2764136859395023
 30
0.0
 11
125.3749999971835933
 21
159.6097470183339908
 31
0.0
 12
127.375
 22
159.9430803521368034
 32
0.0
 13
127.375
 23
159.9430803521368034
 33
0.0
  0
INSERT
  5
4BDD
  8
0
  2
*U6
 10
0.0
 20
0.0
 30
0.0
  0
POINT
  5
4BDE
  8
DEFPOINTS
 62
     0
 10
92.3749999999999432
 20
146.9961163943223141
 30
0.0
  0
POINT
  5
4BDF
  8
DEFPOINTS
 62
     0
 10
127.375
 20
146.9961163943223141
 30
0.0
  0
POINT
  5
4BE0
  8
DEFPOINTS
 62
     0
 10
127.375
 20
159.9430803521368034
 30
0.0
  0
ENDBLK
  5
4B94
  8
0
  0
BLOCK
  8
0
  2
*D1
 70
     1
 10
0.0
 20
0.0
 30
0.0
  3
*D1
  1

  0
LINE
  5
4BE1
  8
DIMS
 62
     0
 10
90.8749999999998863
 20
147.6211163952023924
 30
0.0
 11
90.8749999999998863
 21
167.3855284935964107
 31
0.0
  0
LINE
  5
4BE2
  8
DIMS
 62
     0
 10
128.8750000000001137
 20
147.6211163952023924
 30
0.0
 11
128.8750000000001137
 21
167.3855284935964107
 31
0.0
  0
LINE
  5
4BE3
  8
DIMS
 62
     0
 10
92.8750000028163498
 20
166.1355284918361122
 30
0.0
 11
126.8749999971835933
 21
166.1355284918361122
 31
0.0
  0
SOLID
  5
4BE4
  8
DIMS
 62
     0
 10
92.8750000028163498
 20
166.4688618256388111
 30
0.0
 11
92.8750000028163498
 21
165.8021951580332995
 31
0.0
 12
90.8749999999998863
 22
166.1355284918361122
 32
0.0
 13
90.8749999999998863
 23
166.1355284918361122
 33
0.0
  0
SOLID
  5
4BE5
  8
DIMS
 62
     0
 10
126.8749999971835933
 20
166.4688618256388111
 30
0.0
 11
126.8749999971835933
 21
165.8021951580332995
 31
0.0
 12
128.8750000000001137
 22
166.1355284918361122
 32
0.0
 13
128.8750000000001137
 23
166.1355284918361122
 33
0.0
  0
INSERT
  5
4BE6
  8
0
  2
*U7
 10
0.0
 20
0.0
 30
0.0
  0
POINT
  5
4BE7
  8
DEFPOINTS
 62
     0
 10
90.8749999999998863
 20
146.9961163943223141
 30
0.0
  0
POINT
  5
4BE8
  8
DEFPOINTS
 62
     0
 10
128.8750000000001137
 20
146.9961163943223141
 30
0.0
  0
POINT
  5
4BE9
  8
DEFPOINTS
 62
     0
 10
128.8750000000001137
 20
166.1355284918361122
 30
0.0
  0
ENDBLK
  5
4BA0
  8
0
  0
BLOCK
  8
0
  2
*D2
 70
     1
 10
0.0
 20
0.0
 30
0.0
  3
*D2
  1

  0
LINE
  5
4BEA
  8
DIMS
 62
     0
 10
70.375
 20
95.3711163934420938
 30
0.0
 11
70.375
 21
78.776829725639999
 31
0.0
  0
LINE
  5
4BEB
  8
DIMS
 62
     0
 10
149.375
 20
95.3711163934421364
 30
0.0
 11
149.375
 21
78.776829725639999
 31
0.0
  0
LINE
  5
4BEC
  8
DIMS
 62
     0
 10
72.3750000028164635
 20
80.0268297274002975
 30
0.0
 11
147.3749999971834939
 21
80.0268297274002975
 31
0.0
  0
SOLID
  5
4BED
  8
DIMS
 62
     0
 10
72.3750000028164635
 20
80.3601630612030391
 30
0.0
 11
72.3750000028164635
 21
79.693496393597556
 31
0.0
 12
70.375
 22
80.0268297274002975
 32
0.0
 13
70.375
 23
80.0268297274002975
 33
0.0
  0
SOLID
  5
4BEE
  8
DIMS
 62
     0
 10
147.3749999971834939
 20
80.3601630612030391
 30
0.0
 11
147.3749999971834939
 21
79.693496393597556
 31
0.0
 12
149.375
 22
80.0268297274002975
 32
0.0
 13
149.375
 23
80.0268297274002975
 33
0.0
  0
INSERT
  5
4BEF
  8
0
  2
*U8
 10
0.0
 20
0.0
 30
0.0
  0
POINT
  5
4BF0
  8
DEFPOINTS
 62
     0
 10
70.375
 20
95.9961163943222431
 30
0.0
  0
POINT
  5
4BF1
  8
DEFPOINTS
 62
     0
 10
149.375
 20
95.9961163943222857
 30
0.0
  0
POINT
  5
4BF2
  8
DEFPOINTS
 62
     0
 10
149.375
 20
80.0268297274002975
 30
0.0
  0
ENDBLK
  5
4BAC
  8
0
  0
BLOCK
  8
0
  2
*D3
 70
     1
 10
0.0
 20
0.0
 30
0.0
  3
*D3
  1

  0
LINE
  5
4BF3
  8
DIMS
 62
     0
 10
129.5000000008803056
 20
146.9961163943223141
 30
0.0
 11
165.2253621320793116
 21
146.9961163943223141
 31
0.0
  0
LINE
  5
4BF4
  8
DIMS
 62
     0
 10
150.0000000008801919
 20
95.9961163943223141
 30
0.0
 11
165.2253621320793116
 21
95.9961163943223141
 31
0.0
  0
LINE
  5
4BF5
  8
DIMS
 62
     0
 10
163.975362130319013
 20
144.9961163915058933
 30
0.0
 11
163.975362130319013
 21
97.9961163971388061
 31
0.0
  0
SOLID
  5
4BF6
  8
DIMS
 62
     0
 10
163.6420287965162004
 20
144.9961163915058933
 30
0.0
 11
164.3086954641217119
 21
144.9961163915058933
 31
0.0
 12
163.975362130319013
 22
146.9961163943223141
 32
0.0
 13
163.975362130319013
 23
146.9961163943223141
 33
0.0
  0
SOLID
  5
4BF7
  8
DIMS
 62
     0
 10
163.6420287965162004
 20
97.9961163971388061
 30
0.0
 11
164.3086954641217119
 21
97.9961163971388061
 31
0.0
 12
163.975362130319013
 22
95.9961163943223141
 32
0.0
 13
163.975362130319013
 23
95.9961163943223141
 33
0.0
  0
INSERT
  5
4BF8
  8
0
  2
*U9
 10
0.0
 20
0.0
 30
0.0
  0
POINT
  5
4BF9
  8
DEFPOINTS
 62
     0
 10
128.875000000000199
 20
146.9961163943223141
 30
0.0
  0
POINT
  5
4BFA
  8
DEFPOINTS
 62
     0
 10
149.375
 20
95.9961163943223141
 30
0.0
  0
POINT
  5
4BFB
  8
DEFPOINTS
 62
     0
 10
163.975362130319013
 20
95.9961163943223141
 30
0.0
  0
ENDBLK
  5
4BB8
  8
0
  0
BLOCK
  8
0
  2
*D4
 70
     1
 10
0.0
 20
0.0
 30
0.0
  3
*D4
  1

  0
LINE
  5
4BFC
  8
DIMS
 62
     0
 10
150.0000000008801919
 20
95.9961163943223141
 30
0.0
 11
159.7551447785976961
 21
95.9961163943223141
 31
0.0
  0
LINE
  5
4BFD
  8
DIMS
 62
     0
 10
149.0000000008801067
 20
98.996116394322371
 30
0.0
 11
159.7551447785976961
 21
98.996116394322371
 31
0.0
  0
LINE
  5
4BFE
  8
DIMS
 62
     0
 10
158.5051447768373976
 20
93.9961163915058506
 30
0.0
 11
158.5051447768373976
 21
91.9961163886893729
 31
0.0
  0
LINE
  5
4BFF
  8
DIMS
 62
     0
 10
158.5051447768373976
 20
100.9961163971388061
 30
0.0
 11
158.5051447768373976
 21
102.996116399955298
 31
0.0
  0
LINE
  5
4C00
  8
DIMS
 62
     0
 10
158.5051447768373976
 20
95.9961163943223141
 30
0.0
 11
158.5051447768373976
 21
98.996116394322371
 31
0.0
  0
SOLID
  5
4C01
  8
DIMS
 62
     0
 10
158.1718114430346986
 20
93.9961163915058506
 30
0.0
 11
158.8384781106402102
 21
93.9961163915058506
 31
0.0
 12
158.5051447768373976
 22
95.9961163943223141
 32
0.0
 13
158.5051447768373976
 23
95.9961163943223141
 33
0.0
  0
SOLID
  5
4C02
  8
DIMS
 62
     0
 10
158.1718114430346986
 20
100.9961163971388061
 30
0.0
 11
158.8384781106402102
 21
100.9961163971388061
 31
0.0
 12
158.5051447768373976
 22
98.996116394322371
 32
0.0
 13
158.5051447768373976
 23
98.996116394322371
 33
0.0
  0
INSERT
  5
4C03
  8
0
  2
*U10
 10
0.0
 20
0.0
 30
0.0
  0
POINT
  5
4C04
  8
DEFPOINTS
 62
     0
 10
149.375
 20
95.9961163943223141
 30
0.0
  0
POINT
  5
4C05
  8
DEFPOINTS
 62
     0
 10
148.375
 20
98.996116394322371
 30
0.0
  0
POINT
  5
4C06
  8
DEFPOINTS
 62
     0
 10
158.5051447768373976
 20
98.996116394322371
 30
0.0
  0
ENDBLK
  5
4BC4
  8
0
  0
BLOCK
  8
0
  2
*D5
 70
     1
 10
0.0
 20
0.0
 30
0.0
  3
*D5
  1

  0
LINE
  5
4C07
  8
DIMS
 62
     0
 10
114.8985224681271973
 20
230.4355397283540867
 30
0.0
 11
131.2308127281008012
 21
244.868828508952987
 31
0.0
  0
INSERT
  5
4C08
  8
0
  2
*U11
 10
0.0
 20
0.0
 30
0.0
  0
SOLID
  5
4C09
  8
DIMS
 62
     0
 10
131.0100792527431963
 20
245.118604096792609
 30
0.0
 11
131.4515462034584061
 21
244.6190529211135072
 31
0.0
 12
132.7294662551383908
 22
246.1932293610985027
 32
0.0
 13
132.7294662551383908
 23
246.1932293610985027
 33
0.0
  0
POINT
  5
4C0A
  8
DEFPOINTS
 62
     0
 10
132.7294662551383908
 20
246.1932293610985027
 30
0.0
  0
POINT
  5
4C0B
  8
DEFPOINTS
 62
     0
 10
87.0205337448614955
 20
205.7990034275460118
 30
0.0
  0
ENDBLK
  5
4BD2
  8
0
  0
BLOCK
  8
0
  2
*U6
 70
     1
 10
0.0
 20
0.0
 30
0.0
  3
*U6
  1

  0
TEXT
  5
4E49
  8
DIMS
 62
     7
 10
106.9107142815398959
 20
160.5680803530169101
 30
0.0
 40
2.5000000035205852
  1
φ35
 41
0.75
  7
DIMS
  0
ENDBLK
  5
4E4B
  8
0
  0
BLOCK
  8
0
  2
*U7
 70
     1
 10
0.0
 20
0.0
 30
0.0
  3
*U7
  1

  0
TEXT
  5
4E4D
  8
DIMS
 62
     7
 10
106.9107142815398959
 20
166.7605284927161904
 30
0.0
 40
2.5000000035205852
  1
φ38
 41
0.75
  7
DIMS
  0
ENDBLK
  5
4E4F
  8
0
  0
BLOCK
  8
0
  2
*U8
 70
     1
 10
0.0
 20
0.0
 30
0.0
  3
*U8
  1

  0
TEXT
  5
4E51
  8
DIMS
 62
     7
 10
106.9553571387455975
 20
80.6518297282804468
 30
0.0
 40
2.5000000035205852
  1
φ79
 41
0.75
  7
DIMS
  0
ENDBLK
  5
4E53
  8
0
  0
BLOCK
  8
0
  2
*U9
 70
     1
 10
0.0
 20
0.0
 30
0.0
  3
*U9
  1

  0
TEXT
  5
4E55
  8
DIMS
 62
     7
 10
163.3503621294387926
 20
119.978259249327607
 30
0.0
 40
2.5000000035205852
  1
51
 50
90.0
 41
0.75
  7
DIMS
  0
ENDBLK
  5
4E57
  8
0
  0
BLOCK
  8
0
  2
*U10
 70
     1
 10
0.0
 20
0.0
 30
0.0
  3
*U10
  1

  0
TEXT
  5
4E59
  8
DIMS
 62
     7
 10
157.8801447759572909
 20
96.6032592502077847
 30
0.0
 40
2.5000000035205852
  1
3
 50
90.0
 41
0.75
  7
DIMS
  0
ENDBLK
  5
4E5B
  8
0
  0
BLOCK
  8
0
  2
*U11
 70
     1
 10
0.0
 20
0.0
 30
0.0
  3
*U11
  1

  0
TEXT
  5
4E5D
  8
DIMS
 62
     7
 10
114.7522639030885045
 20
231.1403691077221936
 30
0.0
 40
2.5000000035205852
  1
\U+220561
 50
41.467906411702657
 41
0.75
  7
DIMS
  0
ENDBLK
  5
4E5F
  8
0
  0
BLOCK
  8
0
  2
*U12
 70
     1
 10
0.0
 20
0.0
 30
0.0
  3
*U12
  1

  0
TEXT
  5
4E61
  8
DIMS
 62
     7
 10
106.9107142815398959
 20
160.5680803530169101
 30
0.0
 40
2.5000000035205852
  1
φ35
 41
0.75
  7
DIMS
  0
ENDBLK
  5
4E63
  8
0
  0
BLOCK
  8
0
  2
*U13
 70
     1
 10
0.0
 20
0.0
 30
0.0
  3
*U13
  1

  0
TEXT
  5
4E65
  8
DIMS
 62
     7
 10
106.9107142815398959
 20
166.7605284927161904
 30
0.0
 40
2.5000000035205852
  1
φ38
 41
0.75
  7
DIMS
  0
ENDBLK
  5
4E67
  8
0
  0
BLOCK
  8
0
  2
*U14
 70
     1
 10
0.0
 20
0.0
 30
0.0
  3
*U14
  1

  0
TEXT
  5
4E69
  8
DIMS
 62
     7
 10
106.9553571387455975
 20
80.6518297282804468
 30
0.0
 40
2.5000000035205852
  1
φ79
 41
0.75
  7
DIMS
  0
ENDBLK
  5
4E6B
  8
0
  0
BLOCK
  8
0
  2
*U15
 70
     1
 10
0.0
 20
0.0
 30
0.0
  3
*U15
  1

  0
TEXT
  5
4E6D
  8
DIMS
 62
     7
 10
163.3503621294387926
 20
119.978259249327607
 30
0.0
 40
2.5000000035205852
  1
51
 50
90.0
 41
0.75
  7
DIMS
  0
ENDBLK
  5
4E6F
  8
0
  0
BLOCK
  8
0
  2
*U16
 70
     1
 10
0.0
 20
0.0
 30
0.0
  3
*U16
  1

  0
TEXT
  5
4E71
  8
DIMS
 62
     7
 10
157.8801447759572909
 20
96.6032592502077847
 30
0.0
 40
2.5000000035205852
  1
3
 50
90.0
 41
0.75
  7
DIMS
  0
ENDBLK
  5
4E73
  8
0
  0
BLOCK
  8
0
  2
*U17
 70
     1
 10
0.0
 20
0.0
 30
0.0
  3
*U17
  1

  0
TEXT
  5
4E75
  8
DIMS
 62
     7
 10
114.7522639030885045
 20
231.1403691077221936
 30
0.0
 40
2.5000000035205852
  1
\U+220561
 50
41.467906411702657
 41
0.75
  7
DIMS
  0
ENDBLK
  5
4E77
  8
0
  0
ENDSEC
  0
SECTION
  2
ENTITIES
  0
LINE
  5
1055
  8
TITLE
 10
20.0
 20
32.5
 30
0.0
 11
199.75
 21
32.5
 31
0.0
  0
LINE
  5
1056
  8
TITLE
 10
20.0
 20
52.5
 30
0.0
 11
199.75
 21
52.5
 31
0.0
  0
LINE
  5
1057
  8
TITLE
 10
20.0
 20
62.5
 30
0.0
 11
199.75
 21
62.5
 31
0.0
  0
LINE
  5
1058
  8
TITLE
 10
64.875
 20
39.1666666666666501
 30
0.0
 11
109.8749999999999005
 21
39.1666666666666501
 31
0.0
  0
LINE
  5
1059
  8
TITLE
 10
64.875
 20
45.8333333333333073
 30
0.0
 11
109.8749999999999005
 21
45.8333333333333073
 31
0.0
  0
LINE
  5
105A
  8
TITLE
 10
20.0
 20
67.5
 30
0.0
 11
199.75
 21
67.5
 31
0.0
  0
LINE
  5
105E
  8
TITLE
 10
20.0
 20
47.5
 30
0.0
 11
64.875
 21
47.5
 31
0.0
  0
LINE
  5
105F
  8
TITLE
 10
20.0
 20
42.5
 30
0.0
 11
64.875
 21
42.5
 31
0.0
  0
LINE
  5
1061
  8
TITLE
 10
20.0
 20
37.5
 30
0.0
 11
64.875
 21
37.5
 31
0.0
  0
LINE
  5
1069
  8
TITLE
 10
64.875
 20
67.5
 30
0.0
 11
64.875
 21
32.5
 31
0.0
  0
LINE
  5
106E
  8
TITLE
 10
172.4675524978169108
 20
38.4234543309819614
 30
0.0
 11
173.1718691979666005
 21
39.1277710311311395
 31
0.0
  0
LINE
  5
106F
  8
TITLE
 10
172.5548373704640142
 20
38.4234543309819614
 30
0.0
 11
173.2591540706139028
 21
39.1277710311311395
 31
0.0
  0
LINE
  5
1070
  8
TITLE
 10
172.6421222431112028
 20
38.4234543309819614
 30
0.0
 11
173.3464389432606936
 21
39.1277710311311395
 31
0.0
  0
LINE
  5
1071
  8
TITLE
 10
172.7294071157512008
 20
38.4234543309819614
 30
0.0
 11
173.4337238159079959
 21
39.1277710311311395
 31
0.0
  0
LINE
  5
1072
  8
TITLE
 10
172.8166919883985031
 20
38.4234543309819614
 30
0.0
 11
173.5210086885479086
 21
39.1277710311311395
 31
0.0
  0
LINE
  5
1073
  8
TITLE
 10
172.9039768610454928
 20
38.4234543309819614
 30
0.0
 11
173.6082935611954099
 21
39.1277710311311395
 31
0.0
  0
LINE
  5
1074
  8
TITLE
 10
172.9912617336927951
 20
38.4234543309819614
 30
0.0
 11
173.6955784338422006
 21
39.1277710311311395
 31
0.0
  0
LINE
  5
1075
  8
TITLE
 10
173.0785466063398985
 20
38.4234543309819614
 30
0.0
 11
173.782863306489503
 21
39.1277710311311395
 31
0.0
  0
LINE
  5
1076
  8
TITLE
 10
172.2947538600434996
 20
34.3228364241222295
 30
0.0
 11
173.1567077417059863
 21
35.1847903057847589
 31
0.0
  0
LINE
  5
1077
  8
TITLE
 10
172.3507909155167113
 20
34.2915886069480678
 30
0.0
 11
173.2526103016095931
 21
35.1934079930342278
 31
0.0
  0
LINE
  5
1078
  8
TITLE
 10
172.4401466895484134
 20
34.2936595083290428
 30
0.0
 11
173.3492241826178883
 21
35.2027370014024399
 31
0.0
  0
LINE
  5
1079
  8
TITLE
 10
172.5302638594369
 20
34.2964918055778725
 30
0.0
 11
173.4465668746759093
 21
35.2127948208132011
 31
0.0
  0
LINE
  5
107A
  8
TITLE
 10
172.6211628459440135
 20
34.3001059194343014
 30
0.0
 11
173.5446566986433936
 21
35.2235997721337881
 31
0.0
  0
LINE
  5
107B
  8
TITLE
 10
172.7128651691706978
 20
34.3045233700173213
 30
0.0
 11
174.3581739212137904
 21
35.9498321220567121
 31
0.0
  0
LINE
  5
107C
  8
TITLE
 10
172.8053935330017055
 20
34.3097668611975877
 30
0.0
 11
174.3581739212137904
 21
35.862547249409289
 31
0.0
  0
LINE
  5
107D
  8
TITLE
 10
172.8987719179964131
 20
34.3158603735520202
 30
0.0
 11
174.3581739212137904
 21
35.7752623767620008
 31
0.0
  0
LINE
  5
107E
  8
TITLE
 10
172.9930256840495986
 20
34.3228292669581805
 30
0.0
 11
174.3581739212137904
 21
35.6879775041151532
 31
0.0
  0
LINE
  5
107F
  8
TITLE
 10
173.0881816838927136
 20
34.3307003941467173
 30
0.0
 11
174.3581739212137904
 21
35.6006926314712118
 31
0.0
  0
LINE
  5
1080
  8
TITLE
 10
172.451469381625202
 20
37.0108132524499212
 30
0.0
 11
173.1597936370914965
 21
37.7191375079163294
 31
0.0
  0
LINE
  5
1081
  8
TITLE
 10
172.4905901703010898
 20
36.9626491684790182
 30
0.0
 11
173.247078509738401
 21
37.7191375079163294
 31
0.0
  0
LINE
  5
1082
  8
TITLE
 10
172.5778750429483068
 20
36.9626491684790182
 30
0.0
 11
173.3343633823857033
 21
37.7191375079163294
 31
0.0
  0
LINE
  5
1083
  8
TITLE
 10
172.6651599155956944
 20
36.9626491684790182
 30
0.0
 11
173.4216482550328919
 21
37.7191375079163294
 31
0.0
  0
LINE
  5
1084
  8
TITLE
 10
172.7524447882429968
 20
36.9626491684790182
 30
0.0
 11
173.5089331276730036
 21
37.7191375079163294
 31
0.0
  0
LINE
  5
1085
  8
TITLE
 10
172.8397296608899012
 20
36.9626491684790182
 30
0.0
 11
173.596218000319908
 21
37.7191375079163294
 31
0.0
  0
LINE
  5
1086
  8
TITLE
 10
172.9270145335300128
 20
36.9626491684790182
 30
0.0
 11
173.6835028729672104
 21
37.7191375079163294
 31
0.0
  0
LINE
  5
1087
  8
TITLE
 10
173.0142994061770878
 20
36.9626491684790182
 30
0.0
 11
173.770787745614598
 21
37.7191375079163294
 31
0.0
  0
LINE
  5
1088
  8
TITLE
 10
173.1015842788241912
 20
36.9626491684790182
 30
0.0
 11
173.8580726182617013
 21
37.7191375079163294
 31
0.0
  0
LINE
  5
108D
  8
TITLE
 10
109.8749999999999005
 20
42.5
 30
0.0
 11
199.75
 21
42.5
 31
0.0
  0
LINE
  5
108E
  8
TITLE
 10
154.8749999999998863
 20
67.5
 30
0.0
 11
154.8749999999998863
 21
52.5
 31
0.0
  0
LINE
  5
108F
  8
TITLE
 10
109.8749999999999005
 20
67.5
 30
0.0
 11
109.875
 21
32.5
 31
0.0
  0
LINE
  5
1091
  8
TITLE
 10
139.9462940002561027
 20
38.2848835852642111
 30
0.0
 11
141.3601337483821112
 21
39.6987233333900988
 31
0.0
  0
LINE
  5
1092
  8
TITLE
 10
140.093316295526904
 20
38.3446210078877883
 30
0.0
 11
141.3601337483821112
 21
39.611438460742832
 31
0.0
  0
LINE
  5
1093
  8
TITLE
 10
140.2335037822170989
 20
38.3975236219272773
 30
0.0
 11
141.3601337483821112
 21
39.524153588095821
 31
0.0
  0
LINE
  5
1094
  8
TITLE
 10
139.6256263884739042
 20
38.1387857187756367
 30
0.0
 11
141.3266014247060127
 21
39.8397607550083279
 31
0.0
  0
LINE
  5
1095
  8
TITLE
 10
139.7910497123031064
 20
38.21692416995824
 30
0.0
 11
141.3601337483821112
 21
39.7860082060372733
 31
0.0
  0
LINE
  5
1096
  8
TITLE
 10
138.0822591989285968
 20
37.2064126377534521
 30
0.0
 11
140.5272332402117001
 21
39.6513866790407832
 31
0.0
  0
LINE
  5
1097
  8
TITLE
 10
138.1783584674892893
 20
37.2152270336631403
 30
0.0
 11
140.6512119091331101
 21
39.6880804753110397
 31
0.0
  0
LINE
  5
1098
  8
TITLE
 10
138.1783584674892893
 20
37.1279421610196181
 30
0.0
 11
140.7713804755155991
 21
39.7209641690462476
 31
0.0
  0
LINE
  5
1099
  8
TITLE
 10
138.1783584674892893
 20
37.0406572883727776
 30
0.0
 11
140.8881251627419999
 21
39.7504239836258577
 31
0.0
  0
LINE
  5
109A
  8
TITLE
 10
138.1783584674892893
 20
36.9533724157254895
 30
0.0
 11
141.0017675703865905
 21
39.776781518622748
 31
0.0
  0
LINE
  5
109B
  8
TITLE
 10
138.1783584674892893
 20
36.8660875430784998
 30
0.0
 11
141.1125789192385866
 21
39.8003079948350305
 31
0.0
  0
LINE
  5
109C
  8
TITLE
 10
138.1783584674892893
 20
36.7788026704312188
 30
0.0
 11
141.2207904891041039
 21
39.8212346920538494
 31
0.0
  0
LINE
  5
109D
  8
TITLE
 10
137.9246858038360983
 20
37.1361241153047104
 30
0.0
 11
140.398973717368591
 21
39.6104120288405426
 31
0.0
  0
LINE
  5
109E
  8
TITLE
 10
125.3382304828229934
 20
41.1040791205721803
 30
0.0
 11
122.419370187060693
 21
38.1852188248097519
 31
0.0
  0
LINE
  5
109F
  8
TITLE
 10
123.3844791373512066
 20
33.4512629015345482
 30
0.0
 11
127.1533261103359962
 21
37.2201098745172274
 31
0.0
  0
LINE
  5
10A0
  8
TITLE
 10
123.2968840985491994
 20
33.4509527353788201
 30
0.0
 11
127.1536362764915964
 21
37.3077049133202507
 31
0.0
  0
LINE
  5
10A1
  8
TITLE
 10
123.2112351791919025
 20
33.4525886886602422
 30
0.0
 11
127.1608025945805025
 21
37.4021561040494106
 31
0.0
  0
LINE
  5
10A2
  8
TITLE
 10
123.1274103954688002
 20
33.4560487775839874
 30
0.0
 11
127.1485402342861022
 21
37.4771786164090983
 31
0.0
  0
LINE
  5
10A3
  8
TITLE
 10
123.0453024283687
 20
33.4612256831428709
 30
0.0
 11
127.1433633287280003
 21
37.5592865834950089
 31
0.0
  0
LINE
  5
10A4
  8
TITLE
 10
122.9648162964985971
 20
33.4680244239090996
 30
0.0
 11
127.1365645879614021
 21
37.6397727153714001
 31
0.0
  0
LINE
  5
10A5
  8
TITLE
 10
122.860340177943101
 20
33.4508331780009129
 30
0.0
 11
127.1282285247257988
 21
37.7187215247901904
 31
0.0
  0
LINE
  5
10A6
  8
TITLE
 10
123.5660872270090067
 20
33.4583012458954414
 30
0.0
 11
127.1462877659750035
 21
37.0385017848622127
 31
0.0
  0
LINE
  5
10A7
  8
TITLE
 10
123.4741598753208933
 20
33.4536587668537777
 30
0.0
 11
127.1509302450165961
 21
37.1304291365517329
 31
0.0
  0
LINE
  5
10A8
  8
TITLE
 10
123.8573909979947985
 20
33.4877503989408822
 30
0.0
 11
127.1168386129294987
 21
36.747198013875483
 31
0.0
  0
LINE
  5
10A9
  8
TITLE
 10
123.6604482791110939
 20
33.4653774253514911
 30
0.0
 11
127.1392115865190959
 21
36.9441407327591378
 31
0.0
  0
LINE
  5
10AA
  8
TITLE
 10
123.7574626493615995
 20
33.4751069229547511
 30
0.0
 11
127.1294820889155943
 21
36.8471263625087389
 31
0.0
  0
LINE
  5
10AB
  8
TITLE
 10
122.7730553052956992
 20
33.4508331780006287
 30
0.0
 11
127.118430699486396
 21
37.7962085721912615
 31
0.0
  0
LINE
  5
10AC
  8
TITLE
 10
122.6857704326452989
 20
33.4508331780006287
 30
0.0
 11
127.1072389624086014
 21
37.8723017077641799
 31
0.0
  0
LINE
  5
10AD
  8
TITLE
 10
122.5984855600017056
 20
33.4508331780006287
 30
0.0
 11
127.0947144793160959
 21
37.9470620973149622
 31
0.0
  0
LINE
  5
10AE
  8
TITLE
 10
122.5112006873545027
 20
33.4508331780006287
 30
0.0
 11
127.0809125858308022
 21
38.0205450764768784
 31
0.0
  0
LINE
  5
10AF
  8
TITLE
 10
122.4239158147075983
 20
33.4508331780006287
 30
0.0
 11
127.065883503616007
 21
38.0928008669095703
 31
0.0
  0
LINE
  5
10B0
  8
TITLE
 10
122.3366309420577949
 20
33.4508331780006287
 30
0.0
 11
127.0496729449464937
 21
38.1638751808833732
 31
0.0
  0
LINE
  5
10B1
  8
TITLE
 10
122.2493460694105067
 20
33.4508331780006287
 30
0.0
 11
127.0323226261435963
 21
38.2338097347278705
 31
0.0
  0
LINE
  5
10B2
  8
TITLE
 10
122.1620611967731946
 20
33.4508331780006287
 30
0.0
 11
127.0138707060766023
 21
38.302642687304072
 31
0.0
  0
LINE
  5
10B3
  8
TITLE
 10
122.0747763241256933
 20
33.4508331780006287
 30
0.0
 11
126.9943521626071004
 21
38.3704090164819007
 31
0.0
  0
LINE
  5
10B4
  8
TITLE
 10
121.9874914514786042
 20
33.4508331780009129
 30
0.0
 11
126.9737991173360996
 21
38.4371408438579394
 31
0.0
  0
LINE
  5
10B5
  8
TITLE
 10
121.9002065788322966
 20
33.4508331780006287
 30
0.0
 11
126.9365361668489953
 21
38.4871627660177325
 31
0.0
  0
LINE
  5
10B6
  8
TITLE
 10
121.8129217061844969
 20
33.4508331780006287
 30
0.0
 11
126.8492512942022046
 21
38.4871627660177325
 31
0.0
  0
LINE
  5
10B7
  8
TITLE
 10
121.7256368335371945
 20
33.4508331780009129
 30
0.0
 11
126.7619664215549022
 21
38.4871627660174624
 31
0.0
  0
LINE
  5
10B8
  8
TITLE
 10
121.6383519608911996
 20
33.4508331780006287
 30
0.0
 11
126.6746815489069036
 21
38.4871627660177325
 31
0.0
  0
LINE
  5
10B9
  8
TITLE
 10
119.8506890949839061
 20
35.6782744538283794
 30
0.0
 11
125.2764937617291992
 21
41.1040791205721803
 31
0.0
  0
LINE
  5
10BA
  8
TITLE
 10
119.8236175319745058
 20
35.7384877634651374
 30
0.0
 11
125.1892088890813994
 21
41.1040791205721803
 31
0.0
  0
LINE
  5
10BB
  8
TITLE
 10
119.7974161969318061
 20
35.7995713010692498
 30
0.0
 11
125.1019240164335002
 21
41.1040791205721803
 31
0.0
  0
LINE
  5
10BC
  8
TITLE
 10
119.7721034095351058
 20
35.8615433863208821
 30
0.0
 11
125.0146391437876048
 21
41.1040791205721803
 31
0.0
  0
LINE
  5
10BD
  8
TITLE
 10
119.7476989814177983
 20
35.9244238308503228
 30
0.0
 11
124.9273542711399045
 21
41.1040791205721803
 31
0.0
  0
LINE
  5
10BE
  8
TITLE
 10
119.5593590319394934
 20
36.6089326078287911
 30
0.0
 11
124.0545055446686007
 21
41.1040791205721803
 31
0.0
  0
LINE
  5
10BF
  8
TITLE
 10
119.5468535995330939
 20
36.6837120480767283
 30
0.0
 11
123.9672206720286027
 21
41.1040791205721803
 31
0.0
  0
LINE
  5
10C0
  8
TITLE
 10
119.6401178100718994
 20
36.2532670227461722
 30
0.0
 11
124.4909299079117062
 21
41.1040791205721803
 31
0.0
  0
LINE
  5
10C1
  8
TITLE
 10
119.6216817176947984
 20
36.322115803015933
 30
0.0
 11
124.4036450352644039
 21
41.1040791205721803
 31
0.0
  0
LINE
  5
10C2
  8
TITLE
 10
119.6043477600806995
 20
36.3920667180454203
 30
0.0
 11
124.3163601626205974
 21
41.1040791205721803
 31
0.0
  0
LINE
  5
10C3
  8
TITLE
 10
119.5881541451999936
 20
36.4631579758122513
 30
0.0
 11
124.229075289973693
 21
41.1040791205721803
 31
0.0
  0
LINE
  5
10C4
  8
TITLE
 10
119.5731426444102965
 20
36.5354313476600581
 30
0.0
 11
124.1417904173156046
 21
41.1040791205721803
 31
0.0
  0
LINE
  5
10C5
  8
TITLE
 10
119.7242243448935994
 20
35.988234066972538
 30
0.0
 11
124.8400693984926022
 21
41.1040791205721803
 31
0.0
  0
LINE
  5
10C6
  8
TITLE
 10
119.701702698547507
 20
36.0529972932741387
 30
0.0
 11
124.7527845258454988
 21
41.1040791205721803
 31
0.0
  0
LINE
  5
10C7
  8
TITLE
 10
119.6801591723345979
 20
36.1187386397086527
 30
0.0
 11
124.665499653198907
 21
41.1040791205721803
 31
0.0
  0
LINE
  5
10C8
  8
TITLE
 10
119.6596210153477955
 20
36.1854853553753202
 30
0.0
 11
124.5782147805599038
 21
41.1040791205721803
 31
0.0
  0
LINE
  5
10C9
  8
TITLE
 10
121.2892124703229939
 20
33.4508331780006287
 30
0.0
 11
124.066020825100793
 21
36.2276415327977332
 31
0.0
  0
LINE
  5
10CA
  8
TITLE
 10
121.5510670882431015
 20
33.4508331780006287
 30
0.0
 11
126.5873966762604965
 21
38.4871627660177325
 31
0.0
  0
LINE
  5
10CB
  8
TITLE
 10
121.4637822155965949
 20
33.4508331780006287
 30
0.0
 11
126.5001118036121994
 21
38.4871627660174624
 31
0.0
  0
LINE
  5
10CC
  8
TITLE
 10
121.3764973429488947
 20
33.4508331780006287
 30
0.0
 11
126.4128269309655934
 21
38.4871627660177325
 31
0.0
  0
LINE
  5
10CD
  8
TITLE
 10
121.2019275976620065
 20
33.4508331780009129
 30
0.0
 11
123.8610965150265031
 21
36.1100020953658003
 31
0.0
  0
LINE
  5
10CE
  8
TITLE
 10
121.1146427250139936
 20
33.4508331780009129
 30
0.0
 11
123.7186552097545018
 21
36.0548456627405898
 31
0.0
  0
LINE
  5
10CF
  8
TITLE
 10
121.027357852366805
 20
33.4508331780006287
 30
0.0
 11
123.5994184705410959
 21
36.0228937961747988
 31
0.0
  0
LINE
  5
10D0
  8
TITLE
 10
120.9400729797203979
 20
33.4508331780006287
 30
0.0
 11
123.4937891012031059
 21
36.0045492994835286
 31
0.0
  0
LINE
  5
10D1
  8
TITLE
 10
120.8527881070724987
 20
33.4508331780006287
 30
0.0
 11
123.3975748664183953
 21
35.9956199373458077
 31
0.0
  0
LINE
  5
10D2
  8
TITLE
 10
120.7655032344256938
 20
33.4508331780005079
 30
0.0
 11
123.3084912726901052
 21
35.993821216265097
 31
0.0
  0
LINE
  5
10D3
  8
TITLE
 10
120.6782183617790025
 20
33.4508331780006287
 30
0.0
 11
123.2251298298500046
 21
35.9977446460721495
 31
0.0
  0
LINE
  5
10D4
  8
TITLE
 10
120.5909334891316007
 20
33.4508331780006287
 30
0.0
 11
123.146550496881801
 21
36.0064501857507508
 31
0.0
  0
LINE
  5
10D5
  8
TITLE
 10
120.5036486164840994
 20
33.4508331780006287
 30
0.0
 11
123.0720905350867014
 21
36.0192750966032875
 31
0.0
  0
LINE
  5
10D6
  8
TITLE
 10
120.4163637438227994
 20
33.4508331780009129
 30
0.0
 11
123.0012638936956932
 21
36.0357333278557306
 31
0.0
  0
LINE
  5
10D7
  8
TITLE
 10
120.3290788711966997
 20
33.4508331780009129
 30
0.0
 11
122.9337036430669059
 21
36.0554579498702097
 31
0.0
  0
LINE
  5
10D8
  8
TITLE
 10
120.2417939985499942
 20
33.4508331780006287
 30
0.0
 11
122.8691268949387023
 21
36.0781660743891877
 31
0.0
  0
LINE
  5
10D9
  8
TITLE
 10
120.1545091259022939
 20
33.4508331780006287
 30
0.0
 11
122.8073123541471006
 21
36.1036364062448101
 31
0.0
  0
LINE
  5
10DA
  8
TITLE
 10
120.0672242532564979
 20
33.4508331780006287
 30
0.0
 11
122.7480853919863932
 21
36.131694316731199
 31
0.0
  0
LINE
  5
10DB
  8
TITLE
 10
119.9799393806087977
 20
33.4508331780006287
 30
0.0
 11
122.6913078215825976
 21
36.1622016189745565
 31
0.0
  0
LINE
  5
10DC
  8
TITLE
 10
119.892654507960998
 20
33.4508331780006287
 30
0.0
 11
122.6368707391245039
 21
36.1950494091637793
 31
0.0
  0
LINE
  5
10DD
  8
TITLE
 10
119.8053696353135962
 20
33.4508331780006287
 30
0.0
 11
122.5846894423361988
 21
36.2301529850227482
 31
0.0
  0
LINE
  5
10DE
  8
TITLE
 10
119.630799890019702
 20
33.4508331780006287
 30
0.0
 11
122.4868557481594991
 21
36.3068890361401131
 31
0.0
  0
LINE
  5
10DF
  8
TITLE
 10
119.5435150174032941
 20
33.4508331780006287
 30
0.0
 11
122.4411274560398937
 21
36.3484456166651597
 31
0.0
  0
LINE
  5
10E0
  8
TITLE
 10
119.7180847626670044
 20
33.4508331780005079
 30
0.0
 11
122.5346998097586066
 21
36.267448225091961
 31
0.0
  0
LINE
  5
10E2
  8
TITLE
 10
119.6991955842627959
 20
38.4944666130628619
 30
0.0
 11
122.3088080917392944
 21
41.1040791205721803
 31
0.0
  0
LINE
  5
10E3
  8
TITLE
 10
119.5356817625027048
 20
36.7598250836938973
 30
0.0
 11
123.8799357993811014
 21
41.1040791205721803
 31
0.0
  0
LINE
  5
10E4
  8
TITLE
 10
119.5259047777623067
 20
36.8373329716001834
 30
0.0
 11
123.7926509267340975
 21
41.1040791205721803
 31
0.0
  0
LINE
  5
10E5
  8
TITLE
 10
119.5175906002246933
 20
36.9163036667097586
 30
0.0
 11
123.7053660540866957
 21
41.1040791205721803
 31
0.0
  0
LINE
  5
10E6
  8
TITLE
 10
119.5108149115577021
 20
36.9968128506897926
 30
0.0
 11
123.6180811814396066
 21
41.1040791205721803
 31
0.0
  0
LINE
  5
10E7
  8
TITLE
 10
119.5056623657136043
 20
37.0789451774928835
 30
0.0
 11
123.5307963087926026
 21
41.1040791205721803
 31
0.0
  0
LINE
  5
10E8
  8
TITLE
 10
119.5022281098660955
 20
37.1627957942833476
 30
0.0
 11
123.4435114361453998
 21
41.1040791205721803
 31
0.0
  0
LINE
  5
10E9
  8
TITLE
 10
119.5006196591574934
 20
37.2484722162225879
 30
0.0
 11
123.3562265634982964
 21
41.1040791205721803
 31
0.0
  0
LINE
  5
10EA
  8
TITLE
 10
119.5009592315622058
 20
37.3360966612737784
 30
0.0
 11
123.2689416908509941
 21
41.1040791205721803
 31
0.0
  0
LINE
  5
10EB
  8
TITLE
 10
119.5033866891867973
 20
37.4258089915360586
 30
0.0
 11
123.1816568182037059
 21
41.1040791205721803
 31
0.0
  0
LINE
  5
10EC
  8
TITLE
 10
119.508063290866005
 20
37.5177704658614104
 30
0.0
 11
123.094371945556702
 21
41.1040791205721803
 31
0.0
  0
LINE
  5
10ED
  8
TITLE
 10
119.5151765482412003
 20
37.6121685958958167
 30
0.0
 11
123.0070870729167041
 21
41.1040791205721803
 31
0.0
  0
LINE
  5
10EE
  8
TITLE
 10
119.5249466109307974
 20
37.7092235312328867
 30
0.0
 11
122.9198022002698991
 21
41.1040791205721803
 31
0.0
  0
LINE
  5
10EF
  8
TITLE
 10
119.5376348155600965
 20
37.8091966085092466
 30
0.0
 11
122.8325173276223978
 21
41.1040791205721803
 31
0.0
  0
LINE
  5
10F0
  8
TITLE
 10
119.5535553710680006
 20
37.9124020366634511
 30
0.0
 11
122.7452324549750955
 21
41.1040791205721803
 31
0.0
  0
LINE
  5
10F1
  8
TITLE
 10
119.5730917166422955
 20
38.0192232548854605
 30
0.0
 11
122.6579475823283047
 21
41.1040791205721803
 31
0.0
  0
LINE
  5
10F2
  8
TITLE
 10
119.5967200676726065
 20
38.1301364785627968
 30
0.0
 11
122.5706627096809029
 21
41.1040791205721803
 31
0.0
  0
LINE
  5
10F3
  8
TITLE
 10
119.6250444443590055
 20
38.2457457278827988
 30
0.0
 11
122.4833778370337001
 21
41.1040791205721803
 31
0.0
  0
LINE
  5
10F4
  8
TITLE
 10
119.6588508908734951
 20
38.3668370470433686
 30
0.0
 11
122.3960929643865967
 21
41.1040791205721803
 31
0.0
  0
LINE
  5
10F5
  8
TITLE
 10
119.747557063040702
 20
38.630112964483331
 30
0.0
 11
122.2215232190926031
 21
41.1040791205721803
 31
0.0
  0
LINE
  5
10F6
  8
TITLE
 10
123.7842161662909035
 20
38.4770981807352399
 30
0.0
 11
123.794280751573595
 21
38.4871627660177325
 31
0.0
  0
LINE
  5
10F7
  8
TITLE
 10
123.846069687747999
 20
38.4516668295457364
 30
0.0
 11
123.8815656242203005
 21
38.4871627660177325
 31
0.0
  0
LINE
  5
10F8
  8
TITLE
 10
119.8783747168682936
 20
38.9355003636342332
 30
0.0
 11
122.0469534738053028
 21
41.1040791205721803
 31
0.0
  0
LINE
  5
10F9
  8
TITLE
 10
119.8061210691302989
 20
38.7759618432137501
 30
0.0
 11
122.1342383464454997
 21
41.1040791205721803
 31
0.0
  0
LINE
  5
10FA
  8
TITLE
 10
119.998550217961693
 20
35.3897112135784582
 30
0.0
 11
122.0544190242496967
 21
37.4455800198651616
 31
0.0
  0
LINE
  5
10FB
  8
TITLE
 10
119.9673574068532957
 20
35.4458032751197294
 30
0.0
 11
122.0729252477288043
 21
37.5513711159919907
 31
0.0
  0
LINE
  5
10FC
  8
TITLE
 10
119.9369620260147968
 20
35.5026927669595622
 30
0.0
 11
122.1051251839025014
 21
37.6708559248196408
 31
0.0
  0
LINE
  5
10FD
  8
TITLE
 10
119.9073764141266025
 20
35.5603920277095114
 30
0.0
 11
122.1607584701225022
 21
37.8137740836838603
 31
0.0
  0
LINE
  5
10FE
  8
TITLE
 10
119.8786139441455987
 20
35.6189144303217802
 30
0.0
 11
122.2803928826204043
 21
38.0206933688146975
 31
0.0
  0
LINE
  5
10FF
  8
TITLE
 10
120.0305290909705036
 20
35.3344052139381901
 30
0.0
 11
122.0453715232072938
 21
37.349247646174959
 31
0.0
  0
LINE
  5
1100
  8
TITLE
 10
120.472567555228494
 20
34.7290252064481919
 30
0.0
 11
122.2793011790284936
 21
36.535758830238251
 31
0.0
  0
LINE
  5
1101
  8
TITLE
 10
120.5992525161100986
 20
34.5938555494032869
 30
0.0
 11
122.3975003441045004
 21
36.392103377374923
 31
0.0
  0
LINE
  5
1102
  8
TITLE
 10
120.5563192463168036
 20
34.6382071522645418
 30
0.0
 11
122.3559745190458017
 21
36.43786242496342
 31
0.0
  0
LINE
  5
1103
  8
TITLE
 10
120.514090557312997
 20
34.6832633358802198
 30
0.0
 11
122.3165647872935011
 21
36.4857375658558496
 31
0.0
  0
LINE
  5
1104
  8
TITLE
 10
120.391645825555301
 20
34.8226732220585475
 30
0.0
 11
122.211415761101307
 21
36.6424431576041769
 31
0.0
  0
LINE
  5
1105
  8
TITLE
 10
120.3522521212293981
 20
34.8705643903802098
 30
0.0
 11
122.1809433794771991
 21
36.69925564862789
 31
0.0
  0
LINE
  5
1106
  8
TITLE
 10
120.313574170372604
 20
34.9191713121703913
 30
0.0
 11
122.1529221823248008
 21
36.7585193241226307
 31
0.0
  0
LINE
  5
1107
  8
TITLE
 10
120.2756159502571052
 20
34.9684979647026921
 30
0.0
 11
122.127490831135006
 21
36.8203728455801595
 31
0.0
  0
LINE
  5
1108
  8
TITLE
 10
120.1661087571427942
 20
35.1208453895079131
 30
0.0
 11
122.0687373688609938
 21
37.023474001244189
 31
0.0
  0
LINE
  5
1109
  8
TITLE
 10
120.2383820510444963
 20
35.0185489381362487
 30
0.0
 11
122.1048245534630041
 21
36.8849914405547779
 31
0.0
  0
LINE
  5
110A
  8
TITLE
 10
120.2018776947477932
 20
35.0693294544868905
 30
0.0
 11
122.0851454223888055
 21
36.9525971821278532
 31
0.0
  0
LINE
  5
110B
  8
TITLE
 10
120.1310817927648031
 20
35.173103297818642
 30
0.0
 11
122.0559687700523028
 21
37.0979902750811235
 31
0.0
  0
LINE
  5
110C
  8
TITLE
 10
120.0968040634873972
 20
35.2261104411962407
 30
0.0
 11
122.0473277703136006
 21
37.1766341479900078
 31
0.0
  0
LINE
  5
110D
  8
TITLE
 10
120.0632835705831951
 20
35.2798748209099529
 30
0.0
 11
122.0434802906087981
 21
37.260071540929232
 31
0.0
  0
LINE
  5
110E
  8
TITLE
 10
120.4317519027409986
 20
34.7754944266074801
 30
0.0
 11
122.2442300364996015
 21
36.5879725603561567
 31
0.0
  0
LINE
  5
110F
  8
TITLE
 10
121.7420937297891044
 20
41.1040791205721803
 30
0.0
 11
120.6213018105437982
 21
39.9832872013266396
 31
0.0
  0
LINE
  5
1110
  8
TITLE
 10
120.302360185312196
 20
39.6213404500151398
 30
0.0
 11
121.7850988558637937
 21
41.1040791205721803
 31
0.0
  0
LINE
  5
1111
  8
TITLE
 10
120.0962783141605996
 20
39.3279737062227213
 30
0.0
 11
121.8723837285109965
 21
41.1040791205721803
 31
0.0
  0
LINE
  5
1112
  8
TITLE
 10
119.9705590381835947
 20
39.1149695575978171
 30
0.0
 11
121.9596686011580999
 21
41.1040791205721803
 31
0.0
  0
LINE
  5
1113
  8
TITLE
 10
124.5422261388137031
 20
33.6488763038878602
 30
0.0
 11
126.9557127079825989
 21
36.0623628730565713
 31
0.0
  0
LINE
  5
1114
  8
TITLE
 10
124.2936969420906053
 20
33.5749168524552388
 30
0.0
 11
127.0296721594150995
 21
36.3108920697798183
 31
0.0
  0
LINE
  5
1115
  8
TITLE
 10
124.414701406819006
 20
33.6086364445362591
 30
0.0
 11
126.9959525673341005
 21
36.1898876050515028
 31
0.0
  0
LINE
  5
1116
  8
TITLE
 10
124.1781613964545983
 20
33.5466661794662997
 30
0.0
 11
127.057922832404202
 21
36.4264276154160669
 31
0.0
  0
LINE
  5
1117
  8
TITLE
 10
124.067311909579999
 20
33.5231015652387896
 30
0.0
 11
127.0814874466307032
 21
36.5372771022856
 31
0.0
  0
LINE
  5
1118
  8
TITLE
 10
123.960546657946594
 20
33.5036211862526017
 30
0.0
 11
127.1009678256167064
 21
36.6440423539190903
 31
0.0
  0
LINE
  5
1119
  8
TITLE
 10
124.8234209858054982
 20
33.755501405585413
 30
0.0
 11
126.8490876062874975
 21
35.7811680260703895
 31
0.0
  0
LINE
  5
111A
  8
TITLE
 10
124.677741913563807
 20
33.697107205987173
 30
0.0
 11
126.9074818058827958
 21
35.9268470983057711
 31
0.0
  0
LINE
  5
111B
  8
TITLE
 10
124.982724336843205
 20
33.8275198839721511
 30
0.0
 11
126.7770691278983008
 21
35.6218646750266288
 31
0.0
  0
LINE
  5
111C
  8
TITLE
 10
125.1618332045706978
 20
33.9193438790539474
 30
0.0
 11
126.6852451328142024
 21
35.4427558072957893
 31
0.0
  0
LINE
  5
111F
  8
TITLE
 10
131.6227650762467078
 20
38.689841925901888
 30
0.0
 11
132.7781583346720993
 21
39.8452351843308605
 31
0.0
  0
LINE
  5
1120
  8
TITLE
 10
131.7100499488940102
 20
38.689841925901888
 30
0.0
 11
132.8654432073194869
 21
39.8452351843308605
 31
0.0
  0
LINE
  5
1121
  8
TITLE
 10
131.7973348215408862
 20
38.689841925901888
 30
0.0
 11
132.9527280799665903
 21
39.8452351843308605
 31
0.0
  0
LINE
  5
1122
  8
TITLE
 10
131.8846196941881885
 20
38.689841925901888
 30
0.0
 11
133.0400129526136084
 21
39.8452351843308605
 31
0.0
  0
LINE
  5
1123
  8
TITLE
 10
131.9719045668356046
 20
38.689841925901888
 30
0.0
 11
133.127297825260996
 21
39.8452351843308605
 31
0.0
  0
LINE
  5
1124
  8
TITLE
 10
132.059189439482509
 20
38.689841925901888
 30
0.0
 11
133.2145826979075878
 21
39.8452351843308605
 31
0.0
  0
LINE
  5
1125
  8
TITLE
 10
131.0117709677240896
 20
38.689841925901888
 30
0.0
 11
132.1671642261491115
 21
39.8452351843308605
 31
0.0
  0
LINE
  5
1126
  8
TITLE
 10
131.099055840371193
 20
38.689841925901888
 30
0.0
 11
132.2544490987961012
 21
39.8452351843308605
 31
0.0
  0
LINE
  5
1127
  8
TITLE
 10
131.1863407130180121
 20
38.689841925901888
 30
0.0
 11
132.3417339714436025
 21
39.8452351843308605
 31
0.0
  0
LINE
  5
1128
  8
TITLE
 10
131.2736255856653997
 20
38.689841925901888
 30
0.0
 11
132.4290188440905922
 21
39.8452351843308605
 31
0.0
  0
LINE
  5
1129
  8
TITLE
 10
131.3609104583053124
 20
38.689841925901888
 30
0.0
 11
132.5163037167380082
 21
39.8452351843308605
 31
0.0
  0
LINE
  5
112A
  8
TITLE
 10
131.4481953309523874
 20
38.689841925901888
 30
0.0
 11
132.603588589384799
 21
39.8452351843308605
 31
0.0
  0
LINE
  5
112B
  8
TITLE
 10
131.5354802035996045
 20
38.689841925901888
 30
0.0
 11
132.6908734620319876
 21
39.8452351843308605
 31
0.0
  0
LINE
  5
112C
  8
TITLE
 10
131.5878311467587878
 20
34.2906643640881867
 30
0.0
 11
132.7688108498348072
 21
35.4716440671647604
 31
0.0
  0
LINE
  5
112D
  8
TITLE
 10
131.6751160194056069
 20
34.2906643640881867
 30
0.0
 11
132.9332571018236138
 21
35.5488054465062078
 31
0.0
  0
LINE
  5
112E
  8
TITLE
 10
131.7624008920527956
 20
34.2906643640881867
 30
0.0
 11
133.1906916098286899
 21
35.7189550818638679
 31
0.0
  0
LINE
  5
112F
  8
TITLE
 10
131.0641219108827045
 20
34.2906643640881867
 30
0.0
 11
132.121546663705999
 21
35.3480891169113107
 31
0.0
  0
LINE
  5
1130
  8
TITLE
 10
131.1514067835300068
 20
34.2906643640881867
 30
0.0
 11
132.2105322659878084
 21
35.3497898465462299
 31
0.0
  0
LINE
  5
1131
  8
TITLE
 10
131.2386916561769965
 20
34.2906643640881867
 30
0.0
 11
132.3046877111443109
 21
35.3566604190628624
 31
0.0
  0
LINE
  5
1132
  8
TITLE
 10
131.3259765288171081
 20
34.2906643640881867
 30
0.0
 11
132.4051965951246075
 21
35.3698844303957927
 31
0.0
  0
LINE
  5
1133
  8
TITLE
 10
131.4132614014642115
 20
34.2906643640881867
 30
0.0
 11
132.5137681585486007
 21
35.391171121172853
 31
0.0
  0
LINE
  5
1134
  8
TITLE
 10
131.5005462741114002
 20
34.2906643640881867
 30
0.0
 11
132.6332124734231002
 21
35.4233305633999578
 31
0.0
  0
LINE
  5
1135
  8
TITLE
 10
131.8496857647000127
 20
34.2906643640881867
 30
0.0
 11
135.1387854337799013
 21
37.5797640331680896
 31
0.0
  0
LINE
  5
1136
  8
TITLE
 10
131.9369706373470024
 20
34.2906643640881867
 30
0.0
 11
135.1387854337799013
 21
37.4924791605207801
 31
0.0
  0
LINE
  5
1137
  8
TITLE
 10
132.0242555099941058
 20
34.2906643640881867
 30
0.0
 11
135.1387854337799013
 21
37.4051942878739467
 31
0.0
  0
LINE
  5
113A
  8
TITLE
 10
124.3744360268480023
 20
38.0198995695338979
 30
0.0
 11
124.8416992233320997
 21
38.4871627660177325
 31
0.0
  0
LINE
  5
113B
  8
TITLE
 10
124.4423873928958955
 20
37.9132811902881386
 30
0.0
 11
125.0162689686256954
 21
38.4871627660177325
 31
0.0
  0
LINE
  5
113C
  8
TITLE
 10
124.5009526056256988
 20
37.7972766577231809
 30
0.0
 11
125.1908387139205985
 21
38.4871627660177325
 31
0.0
  0
LINE
  5
113D
  8
TITLE
 10
124.5264229374813993
 20
37.7354621169317497
 30
0.0
 11
125.2781235865676024
 21
38.4871627660177325
 31
0.0
  0
LINE
  5
113E
  8
TITLE
 10
124.4728946951391038
 20
37.8565036198843501
 30
0.0
 11
125.1035538412727988
 21
38.4871627660177325
 31
0.0
  0
LINE
  5
113F
  8
TITLE
 10
124.4095396027069995
 20
37.9677182727458913
 30
0.0
 11
124.9289840959786062
 21
38.4871627660177325
 31
0.0
  0
LINE
  5
1140
  8
TITLE
 10
124.3371407867786047
 20
38.0698892021118525
 30
0.0
 11
124.7544143506845984
 21
38.4871627660177325
 31
0.0
  0
LINE
  5
1141
  8
TITLE
 10
124.2124856345074022
 20
38.2070886677547605
 30
0.0
 11
124.4925597327744953
 21
38.4871627660177325
 31
0.0
  0
LINE
  5
1142
  8
TITLE
 10
124.2561433951965029
 20
38.1634615558397883
 30
0.0
 11
124.5798446053719033
 21
38.4871627660177325
 31
0.0
  0
LINE
  5
1143
  8
TITLE
 10
124.2976999757304952
 20
38.1177332637104129
 30
0.0
 11
124.667129478037495
 21
38.4871627660177325
 31
0.0
  0
LINE
  5
1144
  8
TITLE
 10
124.166726586923005
 20
38.2486144928106313
 30
0.0
 11
124.4052748601340994
 21
38.4871627660179101
 31
0.0
  0
LINE
  5
1145
  8
TITLE
 10
124.0688301816379067
 20
38.3252878328378017
 30
0.0
 11
124.2307051148190027
 21
38.4871627660179101
 31
0.0
  0
LINE
  5
1146
  8
TITLE
 10
124.1188514460176009
 20
38.28802422457494
 30
0.0
 11
124.3179899874610044
 21
38.4871627660177325
 31
0.0
  0
LINE
  5
1147
  8
TITLE
 10
123.9621458542658985
 20
38.3931732507695216
 30
0.0
 11
124.056135369514493
 21
38.4871627660177325
 31
0.0
  0
LINE
  5
1148
  8
TITLE
 10
123.9053333632425051
 20
38.4236456323930469
 30
0.0
 11
123.9688504968671054
 21
38.4871627660177325
 31
0.0
  0
LINE
  5
1149
  8
TITLE
 10
124.0166164515204059
 20
38.3603589753671415
 30
0.0
 11
124.1434202421718993
 21
38.4871627660179101
 31
0.0
  0
LINE
  5
114A
  8
TITLE
 10
125.665391936211094
 20
34.2483328654019417
 30
0.0
 11
126.3562561464685956
 21
34.9391970756590666
 31
0.0
  0
LINE
  5
114B
  8
TITLE
 10
125.3741686879833992
 20
34.0443944898214426
 30
0.0
 11
126.5601945220491018
 21
35.2304203238872731
 31
0.0
  0
LINE
  5
114C
  8
TITLE
 10
124.5491310620001997
 20
37.6708853688031695
 30
0.0
 11
125.3654084592151037
 21
38.4871627660174624
 31
0.0
  0
LINE
  5
114D
  8
TITLE
 10
124.5688556840168957
 20
37.603325118166147
 30
0.0
 11
125.4526933318745989
 21
38.4871627660174624
 31
0.0
  0
LINE
  5
114E
  8
TITLE
 10
124.5853139152670934
 20
37.5324984767835517
 30
0.0
 11
125.5399782045017929
 21
38.4871627660177325
 31
0.0
  0
LINE
  5
114F
  8
TITLE
 10
124.5981388261197935
 20
37.4580385149887931
 30
0.0
 11
125.6272630771488963
 21
38.4871627660177325
 31
0.0
  0
LINE
  5
1150
  8
TITLE
 10
124.6068443657982954
 20
37.3794591820208097
 30
0.0
 11
125.7145479497955023
 21
38.4871627660177325
 31
0.0
  0
LINE
  5
1151
  8
TITLE
 10
124.6089690745243956
 20
37.2070141454520424
 30
0.0
 11
125.8891176950902064
 21
38.4871627660177325
 31
0.0
  0
LINE
  5
1152
  8
TITLE
 10
124.6000397123870016
 20
37.1107999106674598
 30
0.0
 11
125.9764025677371961
 21
38.4871627660177325
 31
0.0
  0
LINE
  5
1153
  8
TITLE
 10
124.5816952156959019
 20
37.0051705413290293
 30
0.0
 11
126.0636874403849959
 21
38.4871627660177325
 31
0.0
  0
LINE
  5
1154
  8
TITLE
 10
124.6107677956051987
 20
37.296097739180162
 30
0.0
 11
125.8018328224427052
 21
38.4871627660177325
 31
0.0
  0
LINE
  5
1155
  8
TITLE
 10
124.5497433491296988
 20
36.8859338021159289
 30
0.0
 11
126.1509723130322982
 21
38.4871627660174624
 31
0.0
  0
LINE
  5
1156
  8
TITLE
 10
124.4945869165047014
 20
36.7434924968438423
 30
0.0
 11
126.2382571856786058
 21
38.4871627660174624
 31
0.0
  0
LINE
  5
1157
  8
TITLE
 10
124.3769474790778986
 20
36.5385681867767005
 30
0.0
 11
126.3255420583059987
 21
38.4871627660177325
 31
0.0
  0
LINE
  5
1158
  8
TITLE
 10
130.9244860950769862
 20
38.689841925901888
 30
0.0
 11
132.0798793535020081
 21
39.8452351843308605
 31
0.0
  0
LINE
  5
1159
  8
TITLE
 10
130.7149824202940067
 20
34.2906643640881867
 30
0.0
 11
131.7724071731169886
 21
35.3480891169113107
 31
0.0
  0
LINE
  5
115A
  8
TITLE
 10
130.8022672929413091
 20
34.2906643640881867
 30
0.0
 11
131.8596920457644046
 21
35.3480891169113107
 31
0.0
  0
LINE
  5
115B
  8
TITLE
 10
130.8895521655884977
 20
34.2906643640881867
 30
0.0
 11
131.9469769184117069
 21
35.3480891169113107
 31
0.0
  0
LINE
  5
115C
  8
TITLE
 10
130.1617067820934039
 20
34.8720920702933199
 30
0.0
 11
130.6377038287116079
 21
35.3480891169113107
 31
0.0
  0
LINE
  5
115D
  8
TITLE
 10
130.1617067820934039
 20
34.7848071976461668
 30
0.0
 11
130.7249887013587966
 21
35.3480891169113107
 31
0.0
  0
LINE
  5
115E
  8
TITLE
 10
130.1617067820934039
 20
34.6975223249993334
 30
0.0
 11
130.8122735740057863
 21
35.3480891169113107
 31
0.0
  0
LINE
  5
115F
  8
TITLE
 10
130.1617067820934039
 20
34.6102374523519103
 30
0.0
 11
130.8995584466528896
 21
35.3480891169113107
 31
0.0
  0
LINE
  5
1160
  8
TITLE
 10
130.1617067820934039
 20
34.522952579704743
 30
0.0
 11
130.9868433192999078
 21
35.3480891169113107
 31
0.0
  0
LINE
  5
1161
  8
TITLE
 10
130.1617067820934039
 20
34.4356677070574833
 30
0.0
 11
131.0741281919470964
 21
35.3480891169113107
 31
0.0
  0
LINE
  5
1162
  8
TITLE
 10
130.1617067820934039
 20
34.3483828344106001
 30
0.0
 11
131.1614130645943135
 21
35.3480891169113107
 31
0.0
  0
LINE
  5
1163
  8
TITLE
 10
130.1912731844186055
 20
34.2906643640881867
 30
0.0
 11
131.2486979372415874
 21
35.3480891169113107
 31
0.0
  0
LINE
  5
1164
  8
TITLE
 10
130.2785580570653963
 20
34.2906643640881867
 30
0.0
 11
131.3359828098888045
 21
35.3480891169113107
 31
0.0
  0
LINE
  5
1165
  8
TITLE
 10
130.3658429297053942
 20
34.2906643640881867
 30
0.0
 11
131.4232676825357942
 21
35.3480891169113107
 31
0.0
  0
LINE
  5
1166
  8
TITLE
 10
130.4531278023526966
 20
34.2906643640881867
 30
0.0
 11
131.5105525551759911
 21
35.3480891169113107
 31
0.0
  0
LINE
  5
1167
  8
TITLE
 10
130.5404126749997999
 20
34.2906643640881867
 30
0.0
 11
131.5978374278230092
 21
35.3480891169113107
 31
0.0
  0
LINE
  5
1168
  8
TITLE
 10
130.6276975476469886
 20
34.2906643640881867
 30
0.0
 11
131.6851223004699989
 21
35.3480891169113107
 31
0.0
  0
LINE
  5
1169
  8
TITLE
 10
130.9768370382354874
 20
34.2906643640881867
 30
0.0
 11
132.0342617910590093
 21
35.3480891169113107
 31
0.0
  0
LINE
  5
116A
  8
TITLE
 10
130.1617067820934039
 20
35.13394668823112
 30
0.0
 11
130.3758492107772895
 21
35.3480891169113107
 31
0.0
  0
LINE
  5
116B
  8
TITLE
 10
130.1617067820934039
 20
35.0466618155841019
 30
0.0
 11
130.4631340834245066
 21
35.3480891169113107
 31
0.0
  0
LINE
  5
116C
  8
TITLE
 10
130.1617067820934039
 20
34.9593769429368209
 30
0.0
 11
130.5504189560641919
 21
35.3480891169113107
 31
0.0
  0
LINE
  5
116D
  8
TITLE
 10
130.1617067820934039
 20
35.3085164335221791
 30
0.0
 11
130.2012794654827985
 21
35.3480891169113107
 31
0.0
  0
LINE
  5
116E
  8
TITLE
 10
130.1617067820934039
 20
35.2212315608750686
 30
0.0
 11
130.2885643381301009
 21
35.3480891169113107
 31
0.0
  0
LINE
  5
116F
  8
TITLE
 10
130.7552278064694065
 20
37.0367408023038607
 30
0.0
 11
130.8727180180497953
 21
37.1542310138841714
 31
0.0
  0
LINE
  5
1170
  8
TITLE
 10
130.8425126791169077
 20
37.0367408023038607
 30
0.0
 11
130.8727180180497953
 21
37.0669461412370111
 31
0.0
  0
LINE
  5
1171
  8
TITLE
 10
130.4933731885276984
 20
37.0367408023038607
 30
0.0
 11
130.8727180180497953
 21
37.4160856318222415
 31
0.0
  0
LINE
  5
1172
  8
TITLE
 10
130.5806580611751997
 20
37.0367408023038607
 30
0.0
 11
130.8727180180497953
 21
37.3288007591751168
 31
0.0
  0
LINE
  5
1173
  8
TITLE
 10
130.6679429338223883
 20
37.0367408023038607
 30
0.0
 11
130.8727180180497953
 21
37.2415158865311398
 31
0.0
  0
LINE
  5
1174
  8
TITLE
 10
130.2315185705940053
 20
37.0367408023038607
 30
0.0
 11
130.8727180180497953
 21
37.6779402497598994
 31
0.0
  0
LINE
  5
1175
  8
TITLE
 10
130.3188034432405971
 20
37.0367408023038607
 30
0.0
 11
130.8727180180497953
 21
37.5906553771127321
 31
0.0
  0
LINE
  5
1176
  8
TITLE
 10
130.4060883158880131
 20
37.0367408023038607
 30
0.0
 11
130.8727180180497953
 21
37.5033705044692525
 31
0.0
  0
LINE
  5
1177
  8
TITLE
 10
129.8823790800053075
 20
37.0367408023038607
 30
0.0
 11
130.8727180180497953
 21
38.027079740348583
 31
0.0
  0
LINE
  5
1178
  8
TITLE
 10
129.9696639526522119
 20
37.0367408023038607
 30
0.0
 11
130.8727180180497953
 21
37.9397948677014725
 31
0.0
  0
LINE
  5
1179
  8
TITLE
 10
130.0569488252994859
 20
37.0367408023038607
 30
0.0
 11
130.8727180180497953
 21
37.8525099950541701
 31
0.0
  0
LINE
  5
117A
  8
TITLE
 10
130.1442336979467882
 20
37.0367408023038607
 30
0.0
 11
130.8727180180497953
 21
37.7652251224071804
 31
0.0
  0
LINE
  5
117B
  8
TITLE
 10
129.5928977933286035
 20
39.6276603129618508
 30
0.0
 11
129.8104726646974996
 21
39.8452351843308605
 31
0.0
  0
LINE
  5
117C
  8
TITLE
 10
129.5928977933286035
 20
39.8022300582561073
 30
0.0
 11
129.6359029194032075
 21
39.8452351843308605
 31
0.0
  0
LINE
  5
117D
  8
TITLE
 10
129.5928977933286035
 20
39.7149451856091318
 30
0.0
 11
129.7231877920503962
 21
39.8452351843308605
 31
0.0
  0
LINE
  5
117E
  8
TITLE
 10
129.5928977933286035
 20
39.0166662044388701
 30
0.0
 11
130.421466773220402
 21
39.8452351843308605
 31
0.0
  0
LINE
  5
117F
  8
TITLE
 10
129.5928977933286035
 20
38.9293813317917028
 30
0.0
 11
130.5087516458677896
 21
39.8452351843308605
 31
0.0
  0
LINE
  5
1180
  8
TITLE
 10
129.5928977933286035
 20
38.8420964591444005
 30
0.0
 11
130.5960365185146088
 21
39.8452351843308605
 31
0.0
  0
LINE
  5
1181
  8
TITLE
 10
129.5928977933286035
 20
38.7548115864977021
 30
0.0
 11
130.6833213911617122
 21
39.8452351843308605
 31
0.0
  0
LINE
  5
1182
  8
TITLE
 10
129.5928977933286035
 20
38.0565326053274333
 30
0.0
 11
131.3816003723318886
 21
39.8452351843308605
 31
0.0
  0
LINE
  5
1183
  8
TITLE
 10
129.5928977933286035
 20
37.9692477326802376
 30
0.0
 11
131.4688852449791057
 21
39.8452351843308605
 31
0.0
  0
LINE
  5
1184
  8
TITLE
 10
129.5928977933286035
 20
37.8819628600331413
 30
0.0
 11
131.5561701176260954
 21
39.8452351843308605
 31
0.0
  0
LINE
  5
1185
  8
TITLE
 10
129.5928977933286035
 20
37.7946779873858532
 30
0.0
 11
131.6434549902735114
 21
39.8452351843308605
 31
0.0
  0
LINE
  5
1186
  8
TITLE
 10
129.5928977933286035
 20
37.7073931147388208
 30
0.0
 11
131.7307398629207
 21
39.8452351843308605
 31
0.0
  0
LINE
  5
1187
  8
TITLE
 10
129.5928977933286035
 20
37.6201082420915682
 30
0.0
 11
131.8180247355678034
 21
39.8452351843308605
 31
0.0
  0
LINE
  5
1188
  8
TITLE
 10
129.5928977933286035
 20
37.532823369444273
 30
0.0
 11
131.9053096082078014
 21
39.8452351843308605
 31
0.0
  0
LINE
  5
1189
  8
TITLE
 10
129.5928977933286035
 20
37.4455384968008929
 30
0.0
 11
131.99259448085499
 21
39.8452351843308605
 31
0.0
  0
LINE
  5
118A
  8
TITLE
 10
129.5928977933286035
 20
38.492956968555859
 30
0.0
 11
130.9451760090962011
 21
39.8452351843308605
 31
0.0
  0
LINE
  5
118B
  8
TITLE
 10
129.5928977933286035
 20
38.4056720959088196
 30
0.0
 11
131.0324608817431908
 21
39.8452351843308605
 31
0.0
  0
LINE
  5
118C
  8
TITLE
 10
129.5928977933286035
 20
38.3183872232652192
 30
0.0
 11
131.1197457543904079
 21
39.8452351843308605
 31
0.0
  0
LINE
  5
118D
  8
TITLE
 10
129.5928977933286035
 20
38.2311023506180589
 30
0.0
 11
131.2070306270375113
 21
39.8452351843308605
 31
0.0
  0
LINE
  5
118E
  8
TITLE
 10
129.5928977933286035
 20
38.1438174779707708
 30
0.0
 11
131.294315499684501
 21
39.8452351843308605
 31
0.0
  0
LINE
  5
118F
  8
TITLE
 10
129.5928977933286035
 20
38.6675267138502505
 30
0.0
 11
130.7706062638090998
 21
39.8452351843308605
 31
0.0
  0
LINE
  5
1190
  8
TITLE
 10
129.5928977933286035
 20
38.5802418412029766
 30
0.0
 11
130.8578911364562032
 21
39.8452351843308605
 31
0.0
  0
LINE
  5
1191
  8
TITLE
 10
129.5928977933286035
 20
37.3582536241537682
 30
0.0
 11
130.8727180180497953
 21
38.6380738488711586
 31
0.0
  0
LINE
  5
1192
  8
TITLE
 10
129.5928977933286035
 20
37.2709687515067714
 30
0.0
 11
130.8727180180497953
 21
38.5507889762242968
 31
0.0
  0
LINE
  5
1193
  8
TITLE
 10
129.6205244620635995
 20
37.0367408023038607
 30
0.0
 11
130.8727180180497953
 21
38.2889343582862409
 31
0.0
  0
LINE
  5
1194
  8
TITLE
 10
129.7078093347105892
 20
37.0367408023038607
 30
0.0
 11
130.8727180180497953
 21
38.2016494856427116
 31
0.0
  0
LINE
  5
1195
  8
TITLE
 10
129.7950942073576925
 20
37.0367408023038607
 30
0.0
 11
130.8727180180497953
 21
38.1143646129958782
 31
0.0
  0
LINE
  5
1196
  8
TITLE
 10
129.5928977933286035
 20
37.1836838788632775
 30
0.0
 11
130.8727180180497953
 21
38.4635041035808314
 31
0.0
  0
LINE
  5
1197
  8
TITLE
 10
129.5928977933286035
 20
37.0963990062161173
 30
0.0
 11
130.8727180180497953
 21
38.3762192309339625
 31
0.0
  0
LINE
  5
1198
  8
TITLE
 10
129.5928977933286035
 20
39.1039510770824705
 30
0.0
 11
130.3341819005732134
 21
39.8452351843308605
 31
0.0
  0
LINE
  5
1199
  8
TITLE
 10
129.5928977933286035
 20
39.1912359497297729
 30
0.0
 11
130.2468970279259963
 21
39.8452351843308605
 31
0.0
  0
LINE
  5
119A
  8
TITLE
 10
129.5928977933286035
 20
39.3658056950204127
 30
0.0
 11
130.0723272826319885
 21
39.8452351843308605
 31
0.0
  0
LINE
  5
119B
  8
TITLE
 10
129.5928977933286035
 20
39.2785208223737001
 30
0.0
 11
130.1596121552788077
 21
39.8452351843308605
 31
0.0
  0
LINE
  5
119C
  8
TITLE
 10
129.5928977933286035
 20
39.540375440314719
 30
0.0
 11
129.897757537344603
 21
39.8452351843308605
 31
0.0
  0
LINE
  5
119D
  8
TITLE
 10
129.5928977933286035
 20
39.4530905676675587
 30
0.0
 11
129.9850424099846009
 21
39.8452351843308605
 31
0.0
  0
LINE
  5
119E
  8
TITLE
 10
139.8749999999998863
 20
52.5
 30
0.0
 11
139.8749999999998863
 21
42.5
 31
0.0
  0
LINE
  5
119F
  8
TITLE
 10
135.9790954826380016
 20
36.674376629097722
 30
0.0
 11
137.4008501537917937
 21
38.0961313002514572
 31
0.0
  0
LINE
  5
11A0
  8
TITLE
 10
136.0728856406410898
 20
36.6808819144606417
 30
0.0
 11
137.5316075596385019
 21
38.1396038334543519
 31
0.0
  0
LINE
  5
11A1
  8
TITLE
 10
136.1683507421203103
 20
36.6890621432927375
 30
0.0
 11
137.6678888718004998
 21
38.1886002729657505
 31
0.0
  0
LINE
  5
11A2
  8
TITLE
 10
135.600942737151712
 20
36.9945028647808414
 30
0.0
 11
136.4901525553235899
 21
37.8837126829602084
 31
0.0
  0
LINE
  5
11A3
  8
TITLE
 10
135.600942737151712
 20
36.9072179921338517
 30
0.0
 11
136.5939931766023108
 21
37.9002684315883727
 31
0.0
  0
LINE
  5
11A4
  8
TITLE
 10
135.600942737151712
 20
36.8199331194868194
 30
0.0
 11
136.7002008248238099
 21
37.9191912071664916
 31
0.0
  0
LINE
  5
11A5
  8
TITLE
 10
135.600942737151712
 20
36.7326482468428992
 30
0.0
 11
136.808971269226106
 21
37.9406767789212296
 31
0.0
  0
LINE
  5
11A6
  8
TITLE
 10
135.6190041263662067
 20
36.6634247634141204
 30
0.0
 11
136.9205319582557081
 21
37.9649525953004385
 31
0.0
  0
LINE
  5
11A7
  8
TITLE
 10
135.7069144947095936
 20
36.6640502591102901
 30
0.0
 11
137.035149736203806
 21
37.9922855006048081
 31
0.0
  0
LINE
  5
11A8
  8
TITLE
 10
135.7961874517285139
 20
36.6660383434854396
 30
0.0
 11
137.1531411700750027
 21
38.0229920618290507
 31
0.0
  0
LINE
  5
11A9
  8
TITLE
 10
135.8868898937078029
 20
36.6694559128181226
 30
0.0
 11
137.2748866563501053
 21
38.0574526754569078
 31
0.0
  0
LINE
  5
11AA
  8
TITLE
 10
135.600942737151712
 20
37.1690726100750979
 30
0.0
 11
136.2889138196796068
 21
37.8570436926038028
 31
0.0
  0
LINE
  5
11AB
  8
TITLE
 10
135.600942737151712
 20
37.0817877374278595
 30
0.0
 11
136.3885090000156026
 21
37.8693540002922617
 31
0.0
  0
LINE
  5
11AC
  8
TITLE
 10
135.600942737151712
 20
37.7800667185981425
 30
0.0
 11
135.6397224244618087
 21
37.818846405915977
 31
0.0
  0
LINE
  5
11AD
  8
TITLE
 10
132.1464743121298113
 20
38.689841925901888
 30
0.0
 11
133.3018675705550891
 21
39.8452351843308605
 31
0.0
  0
LINE
  5
11AE
  8
TITLE
 10
132.233759184777
 20
38.689841925901888
 30
0.0
 11
133.3891524432025051
 21
39.8452351843308605
 31
0.0
  0
LINE
  5
11AF
  8
TITLE
 10
132.3210440574169979
 20
38.689841925901888
 30
0.0
 11
133.4764373158492106
 21
39.8452351843308605
 31
0.0
  0
LINE
  5
11B0
  8
TITLE
 10
132.4083289300639876
 20
38.689841925901888
 30
0.0
 11
133.5637221884963139
 21
39.8452351843308605
 31
0.0
  0
LINE
  5
11B1
  8
TITLE
 10
132.4956138027112047
 20
38.689841925901888
 30
0.0
 11
133.6510070611365109
 21
39.8452351843308605
 31
0.0
  0
LINE
  5
11B2
  8
TITLE
 10
132.5828986753581944
 20
38.689841925901888
 30
0.0
 11
133.7382919337838985
 21
39.8452351843308605
 31
0.0
  0
LINE
  5
11B3
  8
TITLE
 10
132.6701835480056104
 20
38.689841925901888
 30
0.0
 11
133.8255768064306892
 21
39.8452351843308605
 31
0.0
  0
LINE
  5
11B4
  8
TITLE
 10
132.7574684206524864
 20
38.689841925901888
 30
0.0
 11
133.9128616790777073
 21
39.8452351843308605
 31
0.0
  0
LINE
  5
11B5
  8
TITLE
 10
133.8234146472609041
 20
38.0100906995814967
 30
0.0
 11
135.1387854337799013
 21
39.3254614860967777
 31
0.0
  0
LINE
  5
11B6
  8
TITLE
 10
133.8234146472609041
 20
37.9228058269342085
 30
0.0
 11
135.1387854337799013
 21
39.2381766134499372
 31
0.0
  0
LINE
  5
11B7
  8
TITLE
 10
133.8234146472609041
 20
37.835520954290601
 30
0.0
 11
135.1387854337799013
 21
39.1508917408026491
 31
0.0
  0
LINE
  5
11B8
  8
TITLE
 10
133.8234146472609041
 20
37.7482360816434266
 30
0.0
 11
135.1387854337799013
 21
39.0636068681591766
 31
0.0
  0
LINE
  5
11B9
  8
TITLE
 10
133.8234146472609041
 20
38.4465150628137309
 30
0.0
 11
135.1387854337799013
 21
39.7618858493325007
 31
0.0
  0
LINE
  5
11BA
  8
TITLE
 10
133.8234146472609041
 20
38.3592301901664712
 30
0.0
 11
135.1387854337799013
 21
39.6746009766852126
 31
0.0
  0
LINE
  5
11BB
  8
TITLE
 10
133.8234146472609041
 20
38.2719453175194388
 30
0.0
 11
135.1387854337799013
 21
39.5873161040382229
 31
0.0
  0
LINE
  5
11BC
  8
TITLE
 10
133.8234146472609041
 20
38.1846604448721507
 30
0.0
 11
135.1387854337799013
 21
39.5000312313913682
 31
0.0
  0
LINE
  5
11BD
  8
TITLE
 10
133.8234146472609041
 20
38.0973755722249123
 30
0.0
 11
135.1387854337799013
 21
39.4127463587440729
 31
0.0
  0
LINE
  5
11BE
  8
TITLE
 10
132.8447532932997035
 20
38.689841925901888
 30
0.0
 11
134.0001465517250949
 21
39.8452351843308605
 31
0.0
  0
LINE
  5
11BF
  8
TITLE
 10
132.9320381659468069
 20
38.689841925901888
 30
0.0
 11
134.0874314243721983
 21
39.8452351843308605
 31
0.0
  0
LINE
  5
11C0
  8
TITLE
 10
133.0193230385941092
 20
38.689841925901888
 30
0.0
 11
134.174716297019387
 21
39.8452351843308605
 31
0.0
  0
LINE
  5
11C1
  8
TITLE
 10
133.1066079112412126
 20
38.689841925901888
 30
0.0
 11
134.262001169666803
 21
39.8452351843308605
 31
0.0
  0
LINE
  5
11C2
  8
TITLE
 10
133.1938927838812106
 20
38.689841925901888
 30
0.0
 11
134.3492860423139064
 21
39.8452351843308605
 31
0.0
  0
LINE
  5
11C3
  8
TITLE
 10
133.2811776565285982
 20
38.689841925901888
 30
0.0
 11
134.4365709149610097
 21
39.8452351843308605
 31
0.0
  0
LINE
  5
11C4
  8
TITLE
 10
133.3684625291755879
 20
38.689841925901888
 30
0.0
 11
134.5238557876079994
 21
39.8452351843308605
 31
0.0
  0
LINE
  5
11C5
  8
TITLE
 10
133.4557474018224923
 20
38.689841925901888
 30
0.0
 11
134.6111406602479121
 21
39.8452351843308605
 31
0.0
  0
LINE
  5
11C6
  8
TITLE
 10
133.8234146472609041
 20
38.5337999354608911
 30
0.0
 11
135.1348498961307882
 21
39.8452351843308605
 31
0.0
  0
LINE
  5
11C7
  8
TITLE
 10
133.5430322744701073
 20
38.689841925901888
 30
0.0
 11
134.6984255328949018
 21
39.8452351843308605
 31
0.0
  0
LINE
  5
11C8
  8
TITLE
 10
133.6303171471170117
 20
38.689841925901888
 30
0.0
 11
134.7857104055422042
 21
39.8452351843308605
 31
0.0
  0
LINE
  5
11C9
  8
TITLE
 10
133.7176020197640867
 20
38.689841925901888
 30
0.0
 11
134.8729952781897055
 21
39.8452351843308605
 31
0.0
  0
LINE
  5
11CA
  8
TITLE
 10
133.8048868924111048
 20
38.689841925901888
 30
0.0
 11
134.9602801508364109
 21
39.8452351843308605
 31
0.0
  0
LINE
  5
11CB
  8
TITLE
 10
133.8234146472609041
 20
38.6210848081083213
 30
0.0
 11
135.0475650234837985
 21
39.8452351843308605
 31
0.0
  0
LINE
  5
11CC
  8
TITLE
 10
133.9649085022253985
 20
34.7474745213319167
 30
0.0
 11
134.6819752765360079
 21
35.4645412956428672
 31
0.0
  0
LINE
  5
11CD
  8
TITLE
 10
132.1115403826414081
 20
34.2906643640881867
 30
0.0
 11
135.1387854337799013
 21
37.3179094152265094
 31
0.0
  0
LINE
  5
11CE
  8
TITLE
 10
132.198825255281406
 20
34.2906643640881867
 30
0.0
 11
135.1387854337799013
 21
37.23062454258298
 31
0.0
  0
LINE
  5
11CF
  8
TITLE
 10
132.2861101279287936
 20
34.2906643640881867
 30
0.0
 11
135.1387854337799013
 21
37.1433396699358269
 31
0.0
  0
LINE
  5
11D0
  8
TITLE
 10
132.3733950005758118
 20
34.2906643640881867
 30
0.0
 11
135.1387854337799013
 21
37.0560547972924894
 31
0.0
  0
LINE
  5
11D1
  8
TITLE
 10
132.4606798732228015
 20
34.2906643640881867
 30
0.0
 11
135.1387854337799013
 21
36.9687699246451871
 31
0.0
  0
LINE
  5
11D2
  8
TITLE
 10
132.5490644665310072
 20
34.2917640847493388
 30
0.0
 11
135.1376857131187137
 21
36.8803853313369316
 31
0.0
  0
LINE
  5
11D3
  8
TITLE
 10
132.6405512872148051
 20
34.2959660327891669
 30
0.0
 11
135.1334837650751126
 21
36.7888985106498012
 31
0.0
  0
LINE
  5
11D4
  8
TITLE
 10
132.7355420371121113
 20
34.3036719100362717
 30
0.0
 11
135.1257778878319868
 21
36.6939077607557209
 31
0.0
  0
LINE
  5
11D5
  8
TITLE
 10
132.8345101801197075
 20
34.315355180399969
 30
0.0
 11
135.1140946174645876
 21
36.59493961774821
 31
0.0
  0
LINE
  5
11D6
  8
TITLE
 10
132.9380668681808118
 20
34.3316269958102822
 30
0.0
 11
135.0978228020574932
 21
36.4913829296868499
 31
0.0
  0
LINE
  5
11D7
  8
TITLE
 10
133.0470246953906042
 20
34.3532999503801904
 30
0.0
 11
135.0761498474880966
 21
36.382425102474123
 31
0.0
  0
LINE
  5
11D8
  8
TITLE
 10
133.1625056264686862
 20
34.3814960088074812
 30
0.0
 11
135.0479537890572033
 21
36.2669441713995298
 31
0.0
  0
LINE
  5
11D9
  8
TITLE
 10
133.2861376300602103
 20
34.417843139748193
 30
0.0
 11
135.011606658119689
 21
36.1433121678080695
 31
0.0
  0
LINE
  5
11DA
  8
TITLE
 10
133.4204500329497023
 20
34.4648706699982412
 30
0.0
 11
134.964579127869996
 21
36.0089997649183005
 31
0.0
  0
LINE
  5
11DB
  8
TITLE
 10
133.4525486823081906
 20
35.9808121543472481
 30
0.0
 11
135.1387854337799013
 21
37.6670489058152
 31
0.0
  0
LINE
  5
11DC
  8
TITLE
 10
133.7429555842747959
 20
34.6128064760282115
 30
0.0
 11
134.8166433218393081
 21
35.6864942135932921
 31
0.0
  0
LINE
  5
11DD
  8
TITLE
 10
133.5697883764943867
 20
34.5269241408957512
 30
0.0
 11
134.9025256569726139
 21
35.8596614213731897
 31
0.0
  0
LINE
  5
11DE
  8
TITLE
 10
133.8234146472609041
 20
37.3990965910548923
 30
0.0
 11
135.1387854337799013
 21
38.71446737757379
 31
0.0
  0
LINE
  5
11DF
  8
TITLE
 10
133.8234146472609041
 20
37.311811718408201
 30
0.0
 11
135.1387854337799013
 21
38.6271825049266369
 31
0.0
  0
LINE
  5
11E0
  8
TITLE
 10
133.8234146472609041
 20
37.2245268457608915
 30
0.0
 11
135.1387854337799013
 21
38.5398976322797893
 31
0.0
  0
LINE
  5
11E1
  8
TITLE
 10
133.8217139176261128
 20
36.9609714981881723
 30
0.0
 11
135.1387854337799013
 21
38.2780430143382233
 31
0.0
  0
LINE
  5
11E2
  8
TITLE
 10
133.8148433451096082
 20
36.8668160530276197
 30
0.0
 11
135.1387854337799013
 21
38.1907581416943032
 31
0.0
  0
LINE
  5
11E3
  8
TITLE
 10
133.8016193337836057
 20
36.7663071690475292
 30
0.0
 11
135.1387854337799013
 21
38.1034732690476119
 31
0.0
  0
LINE
  5
11E4
  8
TITLE
 10
133.8234146472609041
 20
37.1372419731170993
 30
0.0
 11
135.1387854337799013
 21
38.4526127596325011
 31
0.0
  0
LINE
  5
11E5
  8
TITLE
 10
133.8234146472609041
 20
37.0499571004698112
 30
0.0
 11
135.1387854337799013
 21
38.3653278869851988
 31
0.0
  0
LINE
  5
11E6
  8
TITLE
 10
133.7803326429996957
 20
36.6577356056239481
 30
0.0
 11
135.1387854337799013
 21
38.0161883964003025
 31
0.0
  0
LINE
  5
11E7
  8
TITLE
 10
133.7481732007790924
 20
36.5382912907524116
 30
0.0
 11
135.1387854337799013
 21
37.9289035237569081
 31
0.0
  0
LINE
  5
11E8
  8
TITLE
 10
133.699859697007696
 20
36.4026929143372726
 30
0.0
 11
135.1387854337799013
 21
37.8416186511094708
 31
0.0
  0
LINE
  5
11E9
  8
TITLE
 10
133.6226983176657939
 20
36.2382466623520685
 30
0.0
 11
135.1387854337799013
 21
37.7543337784620405
 31
0.0
  0
LINE
  5
11EA
  8
TITLE
 10
135.600942737151712
 20
37.5182121006600724
 30
0.0
 11
135.9086073855345091
 21
37.8258767490467704
 31
0.0
  0
LINE
  5
11EB
  8
TITLE
 10
135.600942737151712
 20
37.430927228016543
 30
0.0
 11
136.0011809038101092
 21
37.8311653946754021
 31
0.0
  0
LINE
  5
11EC
  8
TITLE
 10
135.600942737151712
 20
37.3436423553694112
 30
0.0
 11
136.0953595547036912
 21
37.8380591729222715
 31
0.0
  0
LINE
  5
11ED
  8
TITLE
 10
135.600942737151712
 20
37.2563574827221373
 30
0.0
 11
136.1912360352961002
 21
37.8466507808666535
 31
0.0
  0
LINE
  5
11EE
  8
TITLE
 10
135.600942737151712
 20
37.692781845951302
 30
0.0
 11
135.7279500578383136
 21
37.8197891666448029
 31
0.0
  0
LINE
  5
11EF
  8
TITLE
 10
135.600942737151712
 20
37.6054969733071687
 30
0.0
 11
135.8175555718339069
 21
37.8221098079934208
 31
0.0
  0
LINE
  5
11F0
  8
TITLE
 10
133.8234146472609041
 20
37.486381463702017
 30
0.0
 11
135.1387854337799013
 21
38.8017522502207797
 31
0.0
  0
LINE
  5
11F1
  8
TITLE
 10
133.8234146472609041
 20
37.6609512089964582
 30
0.0
 11
135.1387854337799013
 21
38.9763219955118672
 31
0.0
  0
LINE
  5
11F2
  8
TITLE
 10
133.8234146472609041
 20
37.573666336349298
 30
0.0
 11
135.1387854337799013
 21
38.8890371228680678
 31
0.0
  0
LINE
  5
11F3
  8
TITLE
 10
138.1783584674892893
 20
35.9059539439669422
 30
0.0
 11
139.4937292540008116
 21
37.2213247304856978
 31
0.0
  0
LINE
  5
11F4
  8
TITLE
 10
138.1783584674892893
 20
35.8186690713196327
 30
0.0
 11
139.4937292540008116
 21
37.1340398578384026
 31
0.0
  0
LINE
  5
11F5
  8
TITLE
 10
138.1783584674892893
 20
35.7313841986727923
 30
0.0
 11
139.4937292540008116
 21
37.0467549851913702
 31
0.0
  0
LINE
  5
11F6
  8
TITLE
 10
138.1783584674892893
 20
35.6440993260256391
 30
0.0
 11
139.4937292540008116
 21
36.9594701125442597
 31
0.0
  0
LINE
  5
11F7
  8
TITLE
 10
138.1783584674892893
 20
35.5568144533816977
 30
0.0
 11
139.4937292540008116
 21
36.8721852398972487
 31
0.0
  0
LINE
  5
11F8
  8
TITLE
 10
138.1783584674892893
 20
35.4695295807347293
 30
0.0
 11
139.4937292540008116
 21
36.7849003672501169
 31
0.0
  0
LINE
  5
11F9
  8
TITLE
 10
138.1783584674892893
 20
35.382244708090937
 30
0.0
 11
139.4937292540008116
 21
36.6976154946028288
 31
0.0
  0
LINE
  5
11FA
  8
TITLE
 10
138.1783584674892893
 20
34.7712505995610783
 30
0.0
 11
139.4937292540008116
 21
36.0866213860798126
 31
0.0
  0
LINE
  5
11FB
  8
TITLE
 10
138.1783584674892893
 20
34.6839657269172932
 30
0.0
 11
139.4937292540008116
 21
35.9993365134327021
 31
0.0
  0
LINE
  5
11FC
  8
TITLE
 10
138.1783584674892893
 20
35.2949598354436276
 30
0.0
 11
139.4937292540008116
 21
36.6103306219590294
 31
0.0
  0
LINE
  5
11FD
  8
TITLE
 10
138.1783584674892893
 20
35.2076749627967871
 30
0.0
 11
139.4937292540008116
 21
36.523045749312061
 31
0.0
  0
LINE
  5
11FE
  8
TITLE
 10
138.1783584674892893
 20
35.120390090149499
 30
0.0
 11
139.4937292540008116
 21
36.4357608766649008
 31
0.0
  0
LINE
  5
11FF
  8
TITLE
 10
138.1783584674892893
 20
35.0331052175021966
 30
0.0
 11
139.4937292540008116
 21
36.3484760040212294
 31
0.0
  0
LINE
  5
1200
  8
TITLE
 10
138.1783584674892893
 20
34.9458203448552212
 30
0.0
 11
139.4937292540008116
 21
36.2611911313741331
 31
0.0
  0
LINE
  5
1201
  8
TITLE
 10
138.1783584674892893
 20
34.8585354722080609
 30
0.0
 11
139.4937292540008116
 21
36.1739062587268307
 31
0.0
  0
LINE
  5
1202
  8
TITLE
 10
138.1783584674892893
 20
34.5966808542699908
 30
0.0
 11
139.4937292540008116
 21
35.9120516407856485
 31
0.0
  0
LINE
  5
1203
  8
TITLE
 10
138.1783584674892893
 20
34.5093959816231433
 30
0.0
 11
139.4937292540008116
 21
35.8247667681384101
 31
0.0
  0
LINE
  5
1204
  8
TITLE
 10
138.1783584674892893
 20
34.4221111089794931
 30
0.0
 11
139.4937292540008116
 21
35.7374818954948879
 31
0.0
  0
LINE
  5
1205
  8
TITLE
 10
138.1783584674892893
 20
34.3348262363321908
 30
0.0
 11
139.4937292540008116
 21
35.6501970228477418
 31
0.0
  0
LINE
  5
1206
  8
TITLE
 10
138.221481467891806
 20
34.2906643640881867
 30
0.0
 11
139.4937292540008116
 21
35.5629121502004821
 31
0.0
  0
LINE
  5
1207
  8
TITLE
 10
138.5706209584805038
 20
34.2906643640881867
 30
0.0
 11
139.4937292540008116
 21
35.2137726596155289
 31
0.0
  0
LINE
  5
1208
  8
TITLE
 10
138.6579058311205017
 20
34.2906643640881867
 30
0.0
 11
139.4937292540008116
 21
35.1264877869685535
 31
0.0
  0
LINE
  5
1209
  8
TITLE
 10
138.7451907037676051
 20
34.2906643640881867
 30
0.0
 11
139.4937292540008116
 21
35.0392029143212511
 31
0.0
  0
LINE
  5
120A
  8
TITLE
 10
138.8324755764147085
 20
34.2906643640881867
 30
0.0
 11
139.4937292540008116
 21
34.9519180416740909
 31
0.0
  0
LINE
  5
120B
  8
TITLE
 10
138.4833360858334004
 20
34.2906643640881867
 30
0.0
 11
139.4937292540008116
 21
35.3010575322628171
 31
0.0
  0
LINE
  5
120C
  8
TITLE
 10
138.3087663405393073
 20
34.2906643640881867
 30
0.0
 11
139.4937292540008116
 21
35.475627277557102
 31
0.0
  0
LINE
  5
120D
  8
TITLE
 10
138.396051213186098
 20
34.2906643640881867
 30
0.0
 11
139.4937292540008116
 21
35.3883424049098068
 31
0.0
  0
LINE
  5
120E
  8
TITLE
 10
138.9197604490620108
 20
34.2906643640881867
 30
0.0
 11
139.4937292540008116
 21
34.8646331690268525
 31
0.0
  0
LINE
  5
120F
  8
TITLE
 10
139.0070453217091142
 20
34.2906643640881867
 30
0.0
 11
139.4937292540008116
 21
34.7773482963833303
 31
0.0
  0
LINE
  5
1210
  8
TITLE
 10
139.0943301943563029
 20
34.2906643640881867
 30
0.0
 11
139.4937292540008116
 21
34.6900634237363192
 31
0.0
  0
LINE
  5
1211
  8
TITLE
 10
139.1816150670036052
 20
34.2906643640881867
 30
0.0
 11
139.4937292540008116
 21
34.6027785510891732
 31
0.0
  0
LINE
  5
1212
  8
TITLE
 10
139.2688999396507086
 20
34.2906643640881867
 30
0.0
 11
139.4937292540008116
 21
34.5154936784458215
 31
0.0
  0
LINE
  5
1213
  8
TITLE
 10
139.3561848122976983
 20
34.2906643640881867
 30
0.0
 11
139.4937292540008116
 21
34.4282088057988176
 31
0.0
  0
LINE
  5
1214
  8
TITLE
 10
139.443469684944688
 20
34.2906643640881867
 30
0.0
 11
139.4937292540008116
 21
34.340923933151231
 31
0.0
  0
LINE
  5
1215
  8
TITLE
 10
138.1783584674892893
 20
36.0805236892610708
 30
0.0
 11
139.4937292540008116
 21
37.3958944757764726
 31
0.0
  0
LINE
  5
1216
  8
TITLE
 10
138.1783584674892893
 20
35.9932388166137898
 30
0.0
 11
139.4937292540008116
 21
37.3086096031331209
 31
0.0
  0
LINE
  5
1217
  8
TITLE
 10
138.1783584674892893
 20
36.3423783071991409
 30
0.0
 11
139.4937292540008116
 21
37.6577490937145427
 31
0.0
  0
LINE
  5
1218
  8
TITLE
 10
138.1783584674892893
 20
36.2550934345551994
 30
0.0
 11
139.4937292540008116
 21
37.5704642210672617
 31
0.0
  0
LINE
  5
1219
  8
TITLE
 10
138.1783584674892893
 20
36.1678085619083802
 30
0.0
 11
139.4937292540008116
 21
37.4831793484237821
 31
0.0
  0
LINE
  5
121A
  8
TITLE
 10
138.1783584674892893
 20
36.6915177977840514
 30
0.0
 11
139.4937292540008116
 21
38.0068885843028283
 31
0.0
  0
LINE
  5
121B
  8
TITLE
 10
138.1783584674892893
 20
36.6042329251367917
 30
0.0
 11
139.4937292540008116
 21
37.9196037116558529
 31
0.0
  0
LINE
  5
121C
  8
TITLE
 10
138.1783584674892893
 20
36.5169480524932695
 30
0.0
 11
139.4937292540008116
 21
37.8323188390088205
 31
0.0
  0
LINE
  5
121D
  8
TITLE
 10
138.1783584674892893
 20
36.4296631798463011
 30
0.0
 11
139.4937292540008116
 21
37.7450339663618522
 31
0.0
  0
LINE
  5
121E
  8
TITLE
 10
136.2655915538948079
 20
36.69901808241287
 30
0.0
 11
137.810643344617489
 21
38.2440698731390967
 31
0.0
  0
LINE
  5
121F
  8
TITLE
 10
136.3647209897497135
 20
36.7108626456278415
 30
0.0
 11
137.9611451466942071
 21
38.3072868025689104
 31
0.0
  0
LINE
  5
1220
  8
TITLE
 10
137.3705820430990059
 20
36.9311598451600531
 30
0.0
 11
139.8286840824075057
 21
39.3892618844684677
 31
0.0
  0
LINE
  5
1221
  8
TITLE
 10
137.0076885273059872
 20
36.8301209473009621
 30
0.0
 11
139.2992606581985058
 21
39.1216930781937009
 31
0.0
  0
LINE
  5
1222
  8
TITLE
 10
137.1248485307185945
 20
36.8599960780698623
 30
0.0
 11
139.490812705517186
 21
39.2259602528722269
 31
0.0
  0
LINE
  5
1223
  8
TITLE
 10
137.2456657119817862
 20
36.8935283866829522
 30
0.0
 11
139.6658927124886986
 21
39.3137553871967924
 31
0.0
  0
LINE
  5
1224
  8
TITLE
 10
137.5001437011742098
 20
36.9734366305845086
 30
0.0
 11
139.98182835518611
 21
39.4551212845925221
 31
0.0
  0
LINE
  5
1225
  8
TITLE
 10
137.6350393276269131
 20
37.0210473843934977
 30
0.0
 11
140.1271211278117903
 21
39.5131291845780197
 31
0.0
  0
LINE
  5
1226
  8
TITLE
 10
137.7761585635743131
 20
37.0748817476862129
 30
0.0
 11
140.2658494754155925
 21
39.5645726595352514
 31
0.0
  0
LINE
  5
1227
  8
TITLE
 10
136.6748015050557967
 20
36.7590885429924299
 30
0.0
 11
138.4835440896166006
 21
38.56783112755339
 31
0.0
  0
LINE
  5
1228
  8
TITLE
 10
136.4658662677250049
 20
36.7247230509558094
 30
0.0
 11
138.1211753907107038
 21
38.3800321739419203
 31
0.0
  0
LINE
  5
1229
  8
TITLE
 10
136.5691715894267872
 20
36.7407435000071274
 30
0.0
 11
138.2933613983090027
 21
38.4649333088928103
 31
0.0
  0
LINE
  5
122A
  8
TITLE
 10
136.7829451921120096
 20
36.7799473574014115
 30
0.0
 11
138.8287972003427058
 21
38.8257993656321787
 31
0.0
  0
LINE
  5
122B
  8
TITLE
 10
136.8938219711826036
 20
36.803539263828867
 30
0.0
 11
139.0838395100340108
 21
38.9935568026798194
 31
0.0
  0
LINE
  5
122C
  8
TITLE
 10
156.2572655143634108
 20
38.9718628956524782
 30
0.0
 11
157.1406908700689087
 21
39.8552882513581821
 31
0.0
  0
LINE
  5
122D
  8
TITLE
 10
156.2572655143634108
 20
38.8845780230091123
 30
0.0
 11
157.227975742716211
 21
39.8552882513581821
 31
0.0
  0
LINE
  5
122E
  8
TITLE
 10
156.2572655143634108
 20
38.7972931503618526
 30
0.0
 11
157.3152606153635134
 21
39.8552882513581821
 31
0.0
  0
LINE
  5
122F
  8
TITLE
 10
156.2572655143634108
 20
38.2735839144824794
 30
0.0
 11
157.8389698512388861
 21
39.8552882513581821
 31
0.0
  0
LINE
  5
1230
  8
TITLE
 10
156.2572655143634108
 20
38.1862990418354613
 30
0.0
 11
157.9262547238861885
 21
39.8552882513581821
 31
0.0
  0
LINE
  5
1231
  8
TITLE
 10
156.2572655143634108
 20
38.0990141691882087
 30
0.0
 11
158.0135395965334908
 21
39.8552882513581821
 31
0.0
  0
LINE
  5
1232
  8
TITLE
 10
156.2572655143634108
 20
38.4481536597766009
 30
0.0
 11
157.6644001059520122
 21
39.8552882513581821
 31
0.0
  0
LINE
  5
1233
  8
TITLE
 10
156.2572655143634108
 20
38.360868787129462
 30
0.0
 11
157.7516849785920101
 21
39.8552882513581821
 31
0.0
  0
LINE
  5
1234
  8
TITLE
 10
156.2572655143634108
 20
38.7100082777149694
 30
0.0
 11
157.402545488010503
 21
39.8552882513581821
 31
0.0
  0
LINE
  5
1235
  8
TITLE
 10
156.2572655143634108
 20
38.6227234050711701
 30
0.0
 11
157.4898303606576064
 21
39.8552882513581821
 31
0.0
  0
LINE
  5
1236
  8
TITLE
 10
156.2572655143634108
 20
38.5354385324241875
 30
0.0
 11
157.5771152333049088
 21
39.8552882513581821
 31
0.0
  0
LINE
  5
1237
  8
TITLE
 10
156.2572655143634108
 20
37.8371595512502807
 30
0.0
 11
157.252681244702103
 21
38.8325752815853633
 31
0.0
  0
LINE
  5
1238
  8
TITLE
 10
156.2572655143634108
 20
37.7498746786067585
 30
0.0
 11
157.252681244702103
 21
38.7452904089416919
 31
0.0
  0
LINE
  5
1239
  8
TITLE
 10
156.2572655143634108
 20
38.0117292965409206
 30
0.0
 11
157.252681244702103
 21
39.007145026879769
 31
0.0
  0
LINE
  5
123A
  8
TITLE
 10
156.2572655143634108
 20
37.9244444238972491
 30
0.0
 11
157.252681244702103
 21
38.9198601542324667
 31
0.0
  0
LINE
  5
123B
  8
TITLE
 10
155.8782284782820113
 20
39.0292502227999378
 30
0.0
 11
156.7042665068404119
 21
39.8552882513581821
 31
0.0
  0
LINE
  5
123C
  8
TITLE
 10
155.9655133509292
 20
39.0292502227999378
 30
0.0
 11
156.7915513794806088
 21
39.8552882513581821
 31
0.0
  0
LINE
  5
123D
  8
TITLE
 10
156.0527982235765876
 20
39.0292502227999378
 30
0.0
 11
156.8788362521279112
 21
39.8552882513581821
 31
0.0
  0
LINE
  5
123E
  8
TITLE
 10
156.1400830962166992
 20
39.0292502227999378
 30
0.0
 11
156.9661211247747019
 21
39.8552882513581821
 31
0.0
  0
LINE
  5
123F
  8
TITLE
 10
156.22736796886349
 20
39.0292502227999378
 30
0.0
 11
157.0534059974216916
 21
39.8552882513581821
 31
0.0
  0
LINE
  5
1240
  8
TITLE
 10
155.4166013792450087
 20
34.2906643640881867
 30
0.0
 11
157.252681244702103
 21
36.1267442295448902
 31
0.0
  0
LINE
  5
1241
  8
TITLE
 10
155.5038862518919132
 20
34.2906643640881867
 30
0.0
 11
157.252681244702103
 21
36.0394593569017019
 31
0.0
  0
LINE
  5
1242
  8
TITLE
 10
156.2572655143634108
 20
35.5677528624421626
 30
0.0
 11
157.252681244702103
 21
36.5631685927807268
 31
0.0
  0
LINE
  5
1243
  8
TITLE
 10
156.2572655143634108
 20
35.4804679897950592
 30
0.0
 11
157.252681244702103
 21
36.4758837201338793
 31
0.0
  0
LINE
  5
1244
  8
TITLE
 10
156.2572655143634108
 20
35.3931831171477569
 30
0.0
 11
157.252681244702103
 21
36.3885988474864632
 31
0.0
  0
LINE
  5
1245
  8
TITLE
 10
156.2572655143634108
 20
35.3058982445009093
 30
0.0
 11
157.252681244702103
 21
36.301313974839168
 31
0.0
  0
LINE
  5
1246
  8
TITLE
 10
156.2572655143634108
 20
35.218613371857117
 30
0.0
 11
157.252681244702103
 21
36.2140291021924696
 31
0.0
  0
LINE
  5
1247
  8
TITLE
 10
156.2572655143634108
 20
35.9168923530307467
 30
0.0
 11
157.252681244702103
 21
36.9123080833661135
 31
0.0
  0
LINE
  5
1248
  8
TITLE
 10
156.2572655143634108
 20
35.8296074803838707
 30
0.0
 11
157.252681244702103
 21
36.8250232107185411
 31
0.0
  0
LINE
  5
1249
  8
TITLE
 10
156.2572655143634108
 20
35.7423226077364404
 30
0.0
 11
157.252681244702103
 21
36.7377383380753102
 31
0.0
  0
LINE
  5
124A
  8
TITLE
 10
156.2572655143634108
 20
35.6550377350891878
 30
0.0
 11
157.252681244702103
 21
36.6504534654278871
 31
0.0
  0
LINE
  5
124B
  8
TITLE
 10
155.5911711245391871
 20
34.2906643640881867
 30
0.0
 11
157.252681244702103
 21
35.9521744842542503
 31
0.0
  0
LINE
  5
124C
  8
TITLE
 10
155.6784559971864041
 20
34.2906643640881867
 30
0.0
 11
157.252681244702103
 21
35.8648896116071114
 31
0.0
  0
LINE
  5
124D
  8
TITLE
 10
155.7657408698337917
 20
34.2906643640881867
 30
0.0
 11
157.252681244702103
 21
35.7776047389637597
 31
0.0
  0
LINE
  5
124E
  8
TITLE
 10
155.8530257424808099
 20
34.2906643640881867
 30
0.0
 11
157.252681244702103
 21
35.6903198663164503
 31
0.0
  0
LINE
  5
124F
  8
TITLE
 10
155.9403106151206089
 20
34.2906643640881867
 30
0.0
 11
157.252681244702103
 21
35.6030349936694819
 31
0.0
  0
LINE
  5
1250
  8
TITLE
 10
156.0275954877677123
 20
34.2906643640881867
 30
0.0
 11
157.252681244702103
 21
35.5157501210221795
 31
0.0
  0
LINE
  5
1251
  8
TITLE
 10
156.1148803604150999
 20
34.2906643640881867
 30
0.0
 11
157.252681244702103
 21
35.428465248375332
 31
0.0
  0
LINE
  5
1252
  8
TITLE
 10
156.2021652330624875
 20
34.2906643640881867
 30
0.0
 11
157.252681244702103
 21
35.341180375727923
 31
0.0
  0
LINE
  5
1253
  8
TITLE
 10
156.2894501057093919
 20
34.2906643640881867
 30
0.0
 11
157.252681244702103
 21
35.2538955030807486
 31
0.0
  0
LINE
  5
1254
  8
TITLE
 10
156.3767349783568932
 20
34.2906643640881867
 30
0.0
 11
157.252681244702103
 21
35.1666106304334392
 31
0.0
  0
LINE
  5
1255
  8
TITLE
 10
156.4640198510037976
 20
34.2906643640881867
 30
0.0
 11
157.3164519143666098
 21
35.1430964274547719
 31
0.0
  0
LINE
  5
1256
  8
TITLE
 10
156.551304723650901
 20
34.2906643640881867
 30
0.0
 11
157.4037367870135995
 21
35.1430964274547719
 31
0.0
  0
LINE
  5
1257
  8
TITLE
 10
156.6385895962978907
 20
34.2906643640881867
 30
0.0
 11
157.4910216596607881
 21
35.1430964274547719
 31
0.0
  0
LINE
  5
1258
  8
TITLE
 10
156.2572655143634108
 20
36.702456206847728
 30
0.0
 11
157.252681244702103
 21
37.6978719371829385
 31
0.0
  0
LINE
  5
1259
  8
TITLE
 10
156.2572655143634108
 20
36.6151713342009089
 30
0.0
 11
157.252681244702103
 21
37.6105870645397502
 31
0.0
  0
LINE
  5
125A
  8
TITLE
 10
156.2572655143634108
 20
36.5278864615538694
 30
0.0
 11
157.252681244702103
 21
37.5233021918924479
 31
0.0
  0
LINE
  5
125B
  8
TITLE
 10
156.2572655143634108
 20
36.440601588906631
 30
0.0
 11
157.252681244702103
 21
37.4360173192450176
 31
0.0
  0
LINE
  5
125C
  8
TITLE
 10
156.2572655143634108
 20
36.3533167162597195
 30
0.0
 11
157.252681244702103
 21
37.3487324465977579
 31
0.0
  0
LINE
  5
125D
  8
TITLE
 10
156.2572655143634108
 20
36.2660318436120406
 30
0.0
 11
157.252681244702103
 21
37.2614475739507398
 31
0.0
  0
LINE
  5
125E
  8
TITLE
 10
156.2572655143634108
 20
36.1787469709687031
 30
0.0
 11
157.252681244702103
 21
37.1741627013038922
 31
0.0
  0
LINE
  5
125F
  8
TITLE
 10
156.2572655143634108
 20
36.0914620983214007
 30
0.0
 11
157.252681244702103
 21
37.0868778286567391
 31
0.0
  0
LINE
  5
1260
  8
TITLE
 10
156.2572655143634108
 20
36.0041772256743613
 30
0.0
 11
157.252681244702103
 21
36.9995929560093089
 31
0.0
  0
LINE
  5
1261
  8
TITLE
 10
156.2572655143634108
 20
37.6625898059594633
 30
0.0
 11
157.252681244702103
 21
38.6580055362942474
 31
0.0
  0
LINE
  5
1262
  8
TITLE
 10
156.2572655143634108
 20
37.575304933312168
 30
0.0
 11
157.252681244702103
 21
38.5707206636478119
 31
0.0
  0
LINE
  5
1263
  8
TITLE
 10
156.2572655143634108
 20
37.2261654427238682
 30
0.0
 11
157.252681244702103
 21
38.2215811730620416
 31
0.0
  0
LINE
  5
1264
  8
TITLE
 10
156.2572655143634108
 20
37.1388805700764593
 30
0.0
 11
157.252681244702103
 21
38.1342963004152082
 31
0.0
  0
LINE
  5
1265
  8
TITLE
 10
156.2572655143634108
 20
37.4880200606651925
 30
0.0
 11
157.252681244702103
 21
38.4834357910038918
 31
0.0
  0
LINE
  5
1266
  8
TITLE
 10
156.2572655143634108
 20
37.4007351880178902
 30
0.0
 11
157.252681244702103
 21
38.3961509183569092
 31
0.0
  0
LINE
  5
1267
  8
TITLE
 10
156.2572655143634108
 20
37.3134503153707513
 30
0.0
 11
157.252681244702103
 21
38.308866045709479
 31
0.0
  0
LINE
  5
1268
  8
TITLE
 10
156.2572655143634108
 20
36.9643108247856915
 30
0.0
 11
157.252681244702103
 21
37.9597265551207528
 31
0.0
  0
LINE
  5
1269
  8
TITLE
 10
156.2572655143634108
 20
36.8770259521388297
 30
0.0
 11
157.252681244702103
 21
37.8724416824772732
 31
0.0
  0
LINE
  5
126A
  8
TITLE
 10
156.2572655143634108
 20
36.7897410794950304
 30
0.0
 11
157.252681244702103
 21
37.7851568098302479
 31
0.0
  0
LINE
  5
126B
  8
TITLE
 10
156.2572655143634108
 20
37.0515956974331075
 30
0.0
 11
157.252681244702103
 21
38.0470114277680622
 31
0.0
  0
LINE
  5
126E
  8
TITLE
 10
147.6481874641326044
 20
34.5524587324493169
 30
0.0
 11
149.6192050501421136
 21
36.5234763184584423
 31
0.0
  0
LINE
  5
126F
  8
TITLE
 10
147.6481874641326044
 20
34.4651738598019008
 30
0.0
 11
149.5733267290630124
 21
36.3903131247330975
 31
0.0
  0
LINE
  5
1270
  8
TITLE
 10
147.6481874641326044
 20
34.3778889871547833
 30
0.0
 11
149.527448407984707
 21
36.2571499310106518
 31
0.0
  0
LINE
  5
1271
  8
TITLE
 10
147.6482477137128058
 20
34.2906643640881867
 30
0.0
 11
149.481570086906089
 21
36.1239867372847812
 31
0.0
  0
LINE
  5
1272
  8
TITLE
 10
147.7355325863528037
 20
34.2906643640881867
 30
0.0
 11
149.4356917658274142
 21
35.9908235435627475
 31
0.0
  0
LINE
  5
1273
  8
TITLE
 10
147.6481874641326044
 20
34.8143133503907478
 30
0.0
 11
149.756840013377996
 21
36.9229658996359191
 31
0.0
  0
LINE
  5
1274
  8
TITLE
 10
147.6481874641326044
 20
34.7270284777434597
 30
0.0
 11
149.7109616922992075
 21
36.7898027059102972
 31
0.0
  0
LINE
  5
1275
  8
TITLE
 10
147.6481874641326044
 20
34.6397436050962
 30
0.0
 11
149.6650833712205042
 21
36.6566395121846824
 31
0.0
  0
LINE
  5
1276
  8
TITLE
 10
147.6481874641326044
 20
35.3380225862664901
 30
0.0
 11
150.0321099398425986
 21
37.7219450619834475
 31
0.0
  0
LINE
  5
1277
  8
TITLE
 10
147.6481874641326044
 20
35.2507377136190527
 30
0.0
 11
149.9862316187638953
 21
37.5887818682576906
 31
0.0
  0
LINE
  5
1278
  8
TITLE
 10
147.6481874641326044
 20
35.1634528409758502
 30
0.0
 11
149.940353297685192
 21
37.4556186745321611
 31
0.0
  0
LINE
  5
1279
  8
TITLE
 10
147.6481874641326044
 20
35.0761679683284129
 30
0.0
 11
149.8944749766066025
 21
37.3224554808061129
 31
0.0
  0
LINE
  5
127A
  8
TITLE
 10
147.6481874641326044
 20
34.9888830956811177
 30
0.0
 11
149.8485966555350046
 21
37.1892922870842497
 31
0.0
  0
LINE
  5
127B
  8
TITLE
 10
147.6481874641326044
 20
34.901598223037773
 30
0.0
 11
149.8027183344566993
 21
37.0561290933580665
 31
0.0
  0
LINE
  5
127C
  8
TITLE
 10
147.8228174589999071
 20
34.2906643640881867
 30
0.0
 11
149.3898134447485972
 21
35.8576603498368129
 31
0.0
  0
LINE
  5
127D
  8
TITLE
 10
147.9101023316472094
 20
34.2906643640881867
 30
0.0
 11
149.3439351236700077
 21
35.7244971561110702
 31
0.0
  0
LINE
  5
127E
  8
TITLE
 10
148.2592418222357082
 20
34.2906643640881867
 30
0.0
 11
149.3690350844534009
 21
35.4004576263057729
 31
0.0
  0
LINE
  5
127F
  8
TITLE
 10
148.3465266948828116
 20
34.2906643640881867
 30
0.0
 11
149.4563199570935126
 21
35.4004576263057729
 31
0.0
  0
LINE
  5
1280
  8
TITLE
 10
148.433811567530114
 20
34.2906643640881867
 30
0.0
 11
149.5436048297407865
 21
35.4004576263057729
 31
0.0
  0
LINE
  5
1281
  8
TITLE
 10
147.9973872042941991
 20
34.2906643640881867
 30
0.0
 11
149.2980568025913897
 21
35.5913339623852778
 31
0.0
  0
LINE
  5
1282
  8
TITLE
 10
148.0846720769415015
 20
34.2906643640881867
 30
0.0
 11
149.2521784815129138
 21
35.458170768659663
 31
0.0
  0
LINE
  5
1283
  8
TITLE
 10
148.1719569495886049
 20
34.2906643640881867
 30
0.0
 11
149.2817502118066102
 21
35.4004576263057729
 31
0.0
  0
LINE
  5
1284
  8
TITLE
 10
148.4146249843786052
 20
36.7154542150427332
 30
0.0
 11
150.3532581873928109
 21
38.6540874180569318
 31
0.0
  0
LINE
  5
1285
  8
TITLE
 10
148.3687466632999872
 20
36.5822910213169692
 30
0.0
 11
150.3073798663145908
 21
38.5209242243315799
 31
0.0
  0
LINE
  5
1286
  8
TITLE
 10
148.083606212609709
 20
35.8607262073945421
 30
0.0
 11
150.0779882609209892
 21
37.8551082557096521
 31
0.0
  0
LINE
  5
1287
  8
TITLE
 10
148.2769900211428933
 20
36.3159646338688873
 30
0.0
 11
150.2156232241572127
 21
38.25459783687986
 31
0.0
  0
LINE
  5
1288
  8
TITLE
 10
148.2311117000641048
 20
36.1828014401467826
 30
0.0
 11
150.1697449030785094
 21
38.121434643157599
 31
0.0
  0
LINE
  5
1289
  8
TITLE
 10
148.3228683422215113
 20
36.4491278275912975
 30
0.0
 11
150.2615015452356033
 21
38.3877610306051977
 31
0.0
  0
LINE
  5
128A
  8
TITLE
 10
148.1852333789929901
 20
36.0496382464208409
 30
0.0
 11
150.1238665819998914
 21
37.9882714494319487
 31
0.0
  0
LINE
  5
128B
  8
TITLE
 10
148.4605033054575074
 20
36.8486174087686393
 30
0.0
 11
150.3991365084715994
 21
38.7872506117831293
 31
0.0
  0
LINE
  5
128C
  8
TITLE
 10
143.6620326247922037
 20
38.4219424312883504
 30
0.0
 11
145.0953784448551005
 21
39.8552882513581821
 31
0.0
  0
LINE
  5
128D
  8
TITLE
 10
143.6620326247922037
 20
38.33465755864502
 30
0.0
 11
145.1826633175022039
 21
39.8552882513581821
 31
0.0
  0
LINE
  5
128E
  8
TITLE
 10
143.6620326247922037
 20
38.2473726859977106
 30
0.0
 11
145.2699481901493073
 21
39.8552882513581821
 31
0.0
  0
LINE
  5
128F
  8
TITLE
 10
143.6620326247922037
 20
38.160087813350728
 30
0.0
 11
145.3572330627964106
 21
39.8552882513581821
 31
0.0
  0
LINE
  5
1290
  8
TITLE
 10
143.6620326247922037
 20
38.0728029407069499
 30
0.0
 11
145.4445179354435993
 21
39.8552882513581821
 31
0.0
  0
LINE
  5
1291
  8
TITLE
 10
143.6620326247922037
 20
37.9855180680596476
 30
0.0
 11
145.5318028080909016
 21
39.8552882513581821
 31
0.0
  0
LINE
  5
1292
  8
TITLE
 10
143.6620326247922037
 20
37.8982331954128
 30
0.0
 11
145.6190876807380903
 21
39.8552882513581821
 31
0.0
  0
LINE
  5
1293
  8
TITLE
 10
143.6620326247922037
 20
37.8109483227657819
 30
0.0
 11
145.7063725533849947
 21
39.8552882513581821
 31
0.0
  0
LINE
  5
1294
  8
TITLE
 10
143.6620326247922037
 20
37.7236634501182095
 30
0.0
 11
145.7936574260320981
 21
39.8552882513581821
 31
0.0
  0
LINE
  5
1295
  8
TITLE
 10
143.3722638535726901
 20
38.7431677685985179
 30
0.0
 11
144.4843843363321128
 21
39.8552882513581821
 31
0.0
  0
LINE
  5
1296
  8
TITLE
 10
143.4595487262195093
 20
38.7431677685985179
 30
0.0
 11
144.5716692089793014
 21
39.8552882513581821
 31
0.0
  0
LINE
  5
1297
  8
TITLE
 10
143.5468335988668116
 20
38.7431677685985179
 30
0.0
 11
144.6589540816264901
 21
39.8552882513581821
 31
0.0
  0
LINE
  5
1298
  8
TITLE
 10
143.6341184715136876
 20
38.7431677685985179
 30
0.0
 11
144.7462389542735082
 21
39.8552882513581821
 31
0.0
  0
LINE
  5
1299
  8
TITLE
 10
143.6620326247922037
 20
38.6837970492298027
 30
0.0
 11
144.8335238269210095
 21
39.8552882513581821
 31
0.0
  0
LINE
  5
129A
  8
TITLE
 10
143.6620326247922037
 20
38.596512176582948
 30
0.0
 11
144.9208086995679992
 21
39.8552882513581821
 31
0.0
  0
LINE
  5
129B
  8
TITLE
 10
143.6620326247922037
 20
38.5092273039355106
 30
0.0
 11
145.0080935722079971
 21
39.8552882513581821
 31
0.0
  0
LINE
  5
129C
  8
TITLE
 10
143.9822830625610095
 20
34.2906643640881867
 30
0.0
 11
145.1108089389796874
 21
35.4191902405069214
 31
0.0
  0
LINE
  5
129D
  8
TITLE
 10
144.0695679352010075
 20
34.2906643640881867
 30
0.0
 11
145.1980938116197137
 21
35.4191902405069214
 31
0.0
  0
LINE
  5
129E
  8
TITLE
 10
144.1568528078481961
 20
34.2906643640881867
 30
0.0
 11
145.2853786842669876
 21
35.4191902405069214
 31
0.0
  0
LINE
  5
129F
  8
TITLE
 10
144.2441376804951858
 20
34.2906643640881867
 30
0.0
 11
145.3726635569146026
 21
35.4191902405069214
 31
0.0
  0
LINE
  5
12A0
  8
TITLE
 10
144.3314225531426018
 20
34.2906643640881867
 30
0.0
 11
145.4599484295615923
 21
35.4191902405069214
 31
0.0
  0
LINE
  5
12A1
  8
TITLE
 10
142.5857251002138071
 20
34.2906643640881867
 30
0.0
 11
144.9063022877083995
 21
36.6112415515863319
 31
0.0
  0
LINE
  5
12A2
  8
TITLE
 10
142.6730099728609957
 20
34.2906643640881867
 30
0.0
 11
144.9063022877083995
 21
36.5239566789391716
 31
0.0
  0
LINE
  5
12A3
  8
TITLE
 10
142.7602948455080139
 20
34.2906643640881867
 30
0.0
 11
144.9063022877083995
 21
36.4366718062923383
 31
0.0
  0
LINE
  5
12A4
  8
TITLE
 10
142.8475797181552025
 20
34.2906643640881867
 30
0.0
 11
144.9063022877083995
 21
36.3493869336488231
 31
0.0
  0
LINE
  5
12A5
  8
TITLE
 10
142.9348645908021922
 20
34.2906643640881867
 30
0.0
 11
144.9063022877083995
 21
36.2621020610012295
 31
0.0
  0
LINE
  5
12A6
  8
TITLE
 10
143.0221494634496082
 20
34.2906643640881867
 30
0.0
 11
144.9063022877083995
 21
36.1748171883537992
 31
0.0
  0
LINE
  5
12A7
  8
TITLE
 10
143.1094343360898051
 20
34.2906643640881867
 30
0.0
 11
144.9063022877083995
 21
36.0875323157071008
 31
0.0
  0
LINE
  5
12A8
  8
TITLE
 10
143.1967192087369085
 20
34.2906643640881867
 30
0.0
 11
144.9063022877083995
 21
36.0002474430597985
 31
0.0
  0
LINE
  5
12A9
  8
TITLE
 10
143.2840040813840119
 20
34.2906643640881867
 30
0.0
 11
144.9063022877083995
 21
35.9129625704128088
 31
0.0
  0
LINE
  5
12AA
  8
TITLE
 10
143.3712889540310016
 20
34.2906643640881867
 30
0.0
 11
144.9063022877083995
 21
35.8256776977655278
 31
0.0
  0
LINE
  5
12AB
  8
TITLE
 10
143.6620326247922037
 20
35.9779659971899193
 30
0.0
 11
144.9063022877083995
 21
37.2222356601128226
 31
0.0
  0
LINE
  5
12AC
  8
TITLE
 10
143.6620326247922037
 20
35.8906811245425033
 30
0.0
 11
144.9063022877083995
 21
37.134950787465641
 31
0.0
  0
LINE
  5
12AD
  8
TITLE
 10
143.6620326247922037
 20
35.8033962518952009
 30
0.0
 11
144.9063022877083995
 21
37.0476659148185519
 31
0.0
  0
LINE
  5
12AE
  8
TITLE
 10
143.6620326247922037
 20
35.7161113792477565
 30
0.0
 11
144.9063022877083995
 21
36.9603810421713916
 31
0.0
  0
LINE
  5
12AF
  8
TITLE
 10
143.6620326247922037
 20
35.6288265066042769
 30
0.0
 11
144.9063022877083995
 21
36.8730961695245512
 31
0.0
  0
LINE
  5
12B0
  8
TITLE
 10
143.6620326247922037
 20
35.5415416339577206
 30
0.0
 11
144.9063022877083995
 21
36.7858112968771209
 31
0.0
  0
LINE
  5
12B1
  8
TITLE
 10
143.6620326247922037
 20
35.4542567613102833
 30
0.0
 11
144.9063022877083995
 21
36.6985264242298115
 31
0.0
  0
LINE
  5
12B2
  8
TITLE
 10
143.4585738266783892
 20
34.2906643640881867
 30
0.0
 11
144.9063022877083995
 21
35.7383928251182326
 31
0.0
  0
LINE
  5
12B3
  8
TITLE
 10
143.5458586993252084
 20
34.2906643640881867
 30
0.0
 11
144.9063022877083995
 21
35.6511079524747601
 31
0.0
  0
LINE
  5
12B4
  8
TITLE
 10
143.6331435719727097
 20
34.2906643640881867
 30
0.0
 11
144.9063022877083995
 21
35.5638230798275998
 31
0.0
  0
LINE
  5
12B5
  8
TITLE
 10
143.7204284446196141
 20
34.2906643640881867
 30
0.0
 11
144.9063022877083995
 21
35.4765382071842481
 31
0.0
  0
LINE
  5
12B6
  8
TITLE
 10
143.807713317266689
 20
34.2906643640881867
 30
0.0
 11
144.936239193685708
 21
35.4191902405069214
 31
0.0
  0
LINE
  5
12B7
  8
TITLE
 10
143.8949981899137924
 20
34.2906643640881867
 30
0.0
 11
145.0235240663328113
 21
35.4191902405069214
 31
0.0
  0
LINE
  5
12B8
  8
TITLE
 10
143.6620326247922037
 20
36.1525357424837992
 30
0.0
 11
144.9063022877083995
 21
37.3968054054040522
 31
0.0
  0
LINE
  5
12B9
  8
TITLE
 10
143.6620326247922037
 20
36.0652508698367384
 30
0.0
 11
144.9063022877083995
 21
37.3095205327567498
 31
0.0
  0
LINE
  5
12BA
  8
TITLE
 10
143.6620326247922037
 20
36.4143903604218622
 30
0.0
 11
144.9063022877083995
 21
37.6586600233415183
 31
0.0
  0
LINE
  5
12BB
  8
TITLE
 10
143.6620326247922037
 20
36.3271054877747019
 30
0.0
 11
144.9063022877083995
 21
37.5713751506944007
 31
0.0
  0
LINE
  5
12BC
  8
TITLE
 10
143.6620326247922037
 20
36.2398206151307605
 30
0.0
 11
144.9063022877083995
 21
37.4840902780508785
 31
0.0
  0
LINE
  5
12BD
  8
TITLE
 10
143.6620326247922037
 20
37.6363785774712198
 30
0.0
 11
145.880942298672295
 21
39.8552882513581821
 31
0.0
  0
LINE
  5
12BE
  8
TITLE
 10
143.6620326247922037
 20
37.5490937048240667
 30
0.0
 11
145.9682271713195121
 21
39.8552882513581821
 31
0.0
  0
LINE
  5
12BF
  8
TITLE
 10
143.6620326247922037
 20
37.4618088321771125
 30
0.0
 11
144.9063022877083995
 21
38.7060784951001224
 31
0.0
  0
LINE
  5
12C0
  8
TITLE
 10
143.6620326247922037
 20
37.374523959533569
 30
0.0
 11
144.9063022877083995
 21
38.6187936224528201
 31
0.0
  0
LINE
  5
12C1
  8
TITLE
 10
143.6620326247922037
 20
37.2872390868859966
 30
0.0
 11
144.9063022877083995
 21
38.5315087498058517
 31
0.0
  0
LINE
  5
12C2
  8
TITLE
 10
143.6620326247922037
 20
37.1999542142424815
 30
0.0
 11
144.9063022877083995
 21
38.4442238771588194
 31
0.0
  0
LINE
  5
12C3
  8
TITLE
 10
143.6620326247922037
 20
37.1126693415952218
 30
0.0
 11
144.9063022877083995
 21
38.3569390045151692
 31
0.0
  0
LINE
  5
12C4
  8
TITLE
 10
143.6620326247922037
 20
37.0253844689481966
 30
0.0
 11
144.9063022877083995
 21
38.2696541318679095
 31
0.0
  0
LINE
  5
12C5
  8
TITLE
 10
143.6620326247922037
 20
36.9380995963013703
 30
0.0
 11
144.9063022877083995
 21
38.1823692592246715
 31
0.0
  0
LINE
  5
12C6
  8
TITLE
 10
143.6620326247922037
 20
36.850814723653798
 30
0.0
 11
144.9063022877083995
 21
38.0950843865772271
 31
0.0
  0
LINE
  5
12C7
  8
TITLE
 10
143.6620326247922037
 20
36.7635298510069504
 30
0.0
 11
144.9063022877083995
 21
38.0077995139302729
 31
0.0
  0
LINE
  5
12C8
  8
TITLE
 10
143.6620326247922037
 20
36.6762449783595201
 30
0.0
 11
144.9063022877083995
 21
37.9205146412830985
 31
0.0
  0
LINE
  5
12C9
  8
TITLE
 10
143.6620326247922037
 20
36.5889601057123528
 30
0.0
 11
144.9063022877083995
 21
37.8332297686358388
 31
0.0
  0
LINE
  5
12CA
  8
TITLE
 10
143.6620326247922037
 20
36.5016752330690082
 30
0.0
 11
144.9063022877083995
 21
37.7459448959888206
 31
0.0
  0
LINE
  5
12CB
  8
TITLE
 10
142.7612697450497024
 20
38.7431677685985179
 30
0.0
 11
143.8733902278090113
 21
39.8552882513581821
 31
0.0
  0
LINE
  5
12CC
  8
TITLE
 10
142.8485546176897003
 20
38.7431677685985179
 30
0.0
 11
143.9606751004563989
 21
39.8552882513581821
 31
0.0
  0
LINE
  5
12CD
  8
TITLE
 10
142.9358394903370026
 20
38.7431677685985179
 30
0.0
 11
144.0479599730961127
 21
39.8552882513581821
 31
0.0
  0
LINE
  5
12CE
  8
TITLE
 10
143.023124362984106
 20
38.7431677685985179
 30
0.0
 11
144.135244845743614
 21
39.8552882513581821
 31
0.0
  0
LINE
  5
12CF
  8
TITLE
 10
143.1104092356310957
 20
38.7431677685985179
 30
0.0
 11
144.2225297183906036
 21
39.8552882513581821
 31
0.0
  0
LINE
  5
12D0
  8
TITLE
 10
143.1976941082781991
 20
38.7431677685985179
 30
0.0
 11
144.309814591037707
 21
39.8552882513581821
 31
0.0
  0
LINE
  5
12D1
  8
TITLE
 10
143.2849789809253878
 20
38.7431677685985179
 30
0.0
 11
144.3970994636850946
 21
39.8552882513581821
 31
0.0
  0
LINE
  5
12D2
  8
TITLE
 10
142.3248453818139865
 20
38.7431677685985179
 30
0.0
 11
143.4369658645736081
 21
39.8552882513581821
 31
0.0
  0
LINE
  5
12D3
  8
TITLE
 10
142.4121302544612035
 20
38.7431677685985179
 30
0.0
 11
143.5242507372205978
 21
39.8552882513581821
 31
0.0
  0
LINE
  5
12D4
  8
TITLE
 10
142.499415127108108
 20
38.7431677685985179
 30
0.0
 11
143.6115356098679001
 21
39.8552882513581821
 31
0.0
  0
LINE
  5
12D5
  8
TITLE
 10
142.5866999997552966
 20
38.7431677685985179
 30
0.0
 11
143.6988204825150035
 21
39.8552882513581821
 31
0.0
  0
LINE
  5
12D6
  8
TITLE
 10
142.6739848724020874
 20
38.7431677685985179
 30
0.0
 11
143.7861053551621922
 21
39.8552882513581821
 31
0.0
  0
LINE
  5
12D7
  8
TITLE
 10
142.2375605091665989
 20
38.7431677685985179
 30
0.0
 11
143.3496809919265047
 21
39.8552882513581821
 31
0.0
  0
LINE
  5
12D8
  8
TITLE
 10
142.1502756365194102
 20
38.7431677685985179
 30
0.0
 11
143.2623961192792876
 21
39.8552882513581821
 31
0.0
  0
LINE
  5
12D9
  8
TITLE
 10
140.367882613058498
 20
38.4446175801249481
 30
0.0
 11
141.3601337483821112
 21
39.4368687154524693
 31
0.0
  0
LINE
  5
12DA
  8
TITLE
 10
140.4972374947772096
 20
38.4866875891968618
 30
0.0
 11
141.3601337483821112
 21
39.3495838428051883
 31
0.0
  0
LINE
  5
12DB
  8
TITLE
 10
140.6221846566625118
 20
38.5243498784419316
 30
0.0
 11
141.3601337483821112
 21
39.2622989701613889
 31
0.0
  0
LINE
  5
12DC
  8
TITLE
 10
140.7432186677191055
 20
38.5580990168471729
 30
0.0
 11
141.3601337483821112
 21
39.1750140975145413
 31
0.0
  0
LINE
  5
12DD
  8
TITLE
 10
140.8607437252279908
 20
38.5883392017094593
 30
0.0
 11
141.3601337483821112
 21
39.0877292248672603
 31
0.0
  0
LINE
  5
12DE
  8
TITLE
 10
141.3017276160155973
 20
38.680183601908702
 30
0.0
 11
141.3601337483821112
 21
38.738589734278392
 31
0.0
  0
LINE
  5
12DF
  8
TITLE
 10
141.1953641685614969
 20
38.6611050271014633
 30
0.0
 11
141.3601337483821112
 21
38.8258746069256802
 31
0.0
  0
LINE
  5
12E0
  8
TITLE
 10
140.9750952848899885
 20
38.615405888720332
 30
0.0
 11
141.3601337483821112
 21
39.0004443522202706
 31
0.0
  0
LINE
  5
12E1
  8
TITLE
 10
141.0865554465447076
 20
38.6395811777354083
 30
0.0
 11
141.3601337483821112
 21
38.9131594795728404
 31
0.0
  0
LINE
  5
12E2
  8
TITLE
 10
141.8134034113060977
 20
39.6282837604349112
 30
0.0
 11
142.0404079022331985
 21
39.8552882513581821
 31
0.0
  0
LINE
  5
12E3
  8
TITLE
 10
141.8134034113060977
 20
39.540998887787481
 30
0.0
 11
142.1276927748805861
 21
39.8552882513581821
 31
0.0
  0
LINE
  5
12E4
  8
TITLE
 10
141.8134034113060977
 20
39.8028535057256789
 30
0.0
 11
141.8658381569389917
 21
39.8552882513581821
 31
0.0
  0
LINE
  5
12E5
  8
TITLE
 10
141.8134034113060977
 20
39.7155686330782487
 30
0.0
 11
141.9531230295858961
 21
39.8552882513581821
 31
0.0
  0
LINE
  5
12E6
  8
TITLE
 10
141.8134034113060977
 20
39.0172896519081078
 30
0.0
 11
142.6514020107561862
 21
39.8552882513581821
 31
0.0
  0
LINE
  5
12E7
  8
TITLE
 10
141.8134034113060977
 20
38.9300047792612602
 30
0.0
 11
142.7386868834036022
 21
39.8552882513581821
 31
0.0
  0
LINE
  5
12E8
  8
TITLE
 10
141.8134034113060977
 20
38.84271990661383
 30
0.0
 11
142.8259717560505067
 21
39.8552882513581821
 31
0.0
  0
LINE
  5
12E9
  8
TITLE
 10
141.8134034113060977
 20
38.7554350339666769
 30
0.0
 11
142.913256628697809
 21
39.8552882513581821
 31
0.0
  0
LINE
  5
12EA
  8
TITLE
 10
141.8884210185781001
 20
38.7431677685985179
 30
0.0
 11
143.0005415013447134
 21
39.8552882513581821
 31
0.0
  0
LINE
  5
12EB
  8
TITLE
 10
141.9757058912250898
 20
38.7431677685985179
 30
0.0
 11
143.0878263739919873
 21
39.8552882513581821
 31
0.0
  0
LINE
  5
12EC
  8
TITLE
 10
142.0629907638725058
 20
38.7431677685985179
 30
0.0
 11
143.1751112466320137
 21
39.8552882513581821
 31
0.0
  0
LINE
  5
12ED
  8
TITLE
 10
141.8134034113060977
 20
39.1045745245552325
 30
0.0
 11
142.5641171381089123
 21
39.8552882513581821
 31
0.0
  0
LINE
  5
12EE
  8
TITLE
 10
141.8134034113060977
 20
39.4537140151407826
 30
0.0
 11
142.2149776475206124
 21
39.8552882513581821
 31
0.0
  0
LINE
  5
12EF
  8
TITLE
 10
141.8134034113060977
 20
39.3664291424967985
 30
0.0
 11
142.3022625201674032
 21
39.8552882513581821
 31
0.0
  0
LINE
  5
12F0
  8
TITLE
 10
141.8134034113060977
 20
39.279144269849958
 30
0.0
 11
142.3895473928147908
 21
39.8552882513581821
 31
0.0
  0
LINE
  5
12F1
  8
TITLE
 10
141.8134034113060977
 20
39.1918593972026628
 30
0.0
 11
142.4768322654620079
 21
39.8552882513581821
 31
0.0
  0
LINE
  5
12F2
  8
TITLE
 10
142.3238704822722127
 20
34.2906643640881867
 30
0.0
 11
143.4523963586912032
 21
35.4191902405069214
 31
0.0
  0
LINE
  5
12F3
  8
TITLE
 10
142.4111553549194014
 20
34.2906643640881867
 30
0.0
 11
143.5396812313381076
 21
35.4191902405069214
 31
0.0
  0
LINE
  5
12F4
  8
TITLE
 10
142.4984402275669879
 20
34.2906643640881867
 30
0.0
 11
143.6269661039856089
 21
35.4191902405069214
 31
0.0
  0
LINE
  5
12F5
  8
TITLE
 10
142.2365856096253083
 20
34.2906643640881867
 30
0.0
 11
143.3651114860508073
 21
35.4191902405069214
 31
0.0
  0
LINE
  5
12F6
  8
TITLE
 10
142.1493007369853103
 20
34.2906643640881867
 30
0.0
 11
143.2778266134039882
 21
35.4191902405069214
 31
0.0
  0
LINE
  5
12F7
  8
TITLE
 10
141.3601337483821112
 20
34.8107704651887389
 30
0.0
 11
141.9685535237038039
 21
35.4191902405069214
 31
0.0
  0
LINE
  5
12F8
  8
TITLE
 10
141.3601337483821112
 20
34.7234855925453374
 30
0.0
 11
142.0558383963509073
 21
35.4191902405069214
 31
0.0
  0
LINE
  5
12F9
  8
TITLE
 10
141.3601337483821112
 20
34.8980553378360199
 30
0.0
 11
141.8812686510565868
 21
35.4191902405069214
 31
0.0
  0
LINE
  5
12FA
  8
TITLE
 10
141.3601337483821112
 20
35.1599099557739692
 30
0.0
 11
141.6194140331149924
 21
35.4191902405069214
 31
0.0
  0
LINE
  5
12FB
  8
TITLE
 10
141.3601337483821112
 20
35.0726250831269368
 30
0.0
 11
141.7066989057624085
 21
35.4191902405069214
 31
0.0
  0
LINE
  5
12FC
  8
TITLE
 10
141.3601337483821112
 20
34.9853402104798192
 30
0.0
 11
141.7939837784097108
 21
35.4191902405069214
 31
0.0
  0
LINE
  5
12FD
  8
TITLE
 10
141.3601337483821112
 20
35.334479701068247
 30
0.0
 11
141.44484428782809
 21
35.4191902405069214
 31
0.0
  0
LINE
  5
12FE
  8
TITLE
 10
141.3601337483821112
 20
35.2471948284212075
 30
0.0
 11
141.532129160468088
 21
35.4191902405069214
 31
0.0
  0
LINE
  5
12FF
  8
TITLE
 10
141.3601337483821112
 20
34.6362007198982269
 30
0.0
 11
142.1431232689984085
 21
35.4191902405069214
 31
0.0
  0
LINE
  5
1300
  8
TITLE
 10
141.3601337483821112
 20
34.5489158472510667
 30
0.0
 11
142.2304081416455119
 21
35.4191902405069214
 31
0.0
  0
LINE
  5
1301
  8
TITLE
 10
141.3601337483821112
 20
34.4616309746037786
 30
0.0
 11
142.3176930142925016
 21
35.4191902405069214
 31
0.0
  0
LINE
  5
1302
  8
TITLE
 10
141.3601337483821112
 20
34.3743461019570731
 30
0.0
 11
142.4049778869324996
 21
35.4191902405069214
 31
0.0
  0
LINE
  5
1303
  8
TITLE
 10
141.3637368831610104
 20
34.2906643640881867
 30
0.0
 11
142.4922627595798019
 21
35.4191902405069214
 31
0.0
  0
LINE
  5
1304
  8
TITLE
 10
141.4510217558078011
 20
34.2906643640881867
 30
0.0
 11
142.5795476322265927
 21
35.4191902405069214
 31
0.0
  0
LINE
  5
1305
  8
TITLE
 10
141.5383066284549045
 20
34.2906643640881867
 30
0.0
 11
142.6668325048738097
 21
35.4191902405069214
 31
0.0
  0
LINE
  5
1306
  8
TITLE
 10
141.6255915011022068
 20
34.2906643640881867
 30
0.0
 11
142.7541173775209131
 21
35.4191902405069214
 31
0.0
  0
LINE
  5
1307
  8
TITLE
 10
141.7128763737495092
 20
34.2906643640881867
 30
0.0
 11
142.8414022501681018
 21
35.4191902405069214
 31
0.0
  0
LINE
  5
1308
  8
TITLE
 10
141.8001612463964989
 20
34.2906643640881867
 30
0.0
 11
142.9286871228152052
 21
35.4191902405069214
 31
0.0
  0
LINE
  5
1309
  8
TITLE
 10
141.8874461190440002
 20
34.2906643640881867
 30
0.0
 11
143.0159719954623938
 21
35.4191902405069214
 31
0.0
  0
LINE
  5
130A
  8
TITLE
 10
141.9747309916907057
 20
34.2906643640881867
 30
0.0
 11
143.1032568681098098
 21
35.4191902405069214
 31
0.0
  0
LINE
  5
130B
  8
TITLE
 10
142.0620158643382069
 20
34.2906643640881867
 30
0.0
 11
143.1905417407571122
 21
35.4191902405069214
 31
0.0
  0
LINE
  5
130C
  8
TITLE
 10
146.2526646509070076
 20
38.7431677685985179
 30
0.0
 11
146.7549315011945055
 21
39.2454346188862715
 31
0.0
  0
LINE
  5
130D
  8
TITLE
 10
146.3399495235541963
 20
38.7431677685985179
 30
0.0
 11
146.7549315011945055
 21
39.1581497462392605
 31
0.0
  0
LINE
  5
130E
  8
TITLE
 10
146.4272343961939953
 20
38.7431677685985179
 30
0.0
 11
146.7549315011945055
 21
39.0708648735921287
 31
0.0
  0
LINE
  5
130F
  8
TITLE
 10
146.6890890141359876
 20
38.7431677685985179
 30
0.0
 11
146.7549315011945055
 21
38.8090102556540089
 31
0.0
  0
LINE
  5
1310
  8
TITLE
 10
146.5145192688416955
 20
38.7431677685985179
 30
0.0
 11
146.7549315011945055
 21
38.9835800009481517
 31
0.0
  0
LINE
  5
1311
  8
TITLE
 10
146.601804141488401
 20
38.7431677685985179
 30
0.0
 11
146.7549315011945055
 21
38.896295128301027
 31
0.0
  0
LINE
  5
1312
  8
TITLE
 10
147.6481874641326044
 20
35.4253074589131884
 30
0.0
 11
147.6617130822000945
 21
35.438833076981723
 31
0.0
  0
LINE
  5
1313
  8
TITLE
 10
146.2516897513656033
 20
34.2906643640881867
 30
0.0
 11
147.2082011641186057
 21
35.2471757768413312
 31
0.0
  0
LINE
  5
1314
  8
TITLE
 10
146.338974624012792
 20
34.2906643640881867
 30
0.0
 11
147.2082011641186057
 21
35.1598909041940715
 31
0.0
  0
LINE
  5
1315
  8
TITLE
 10
146.4262594966598101
 20
34.2906643640881867
 30
0.0
 11
147.2082011641186057
 21
35.0726060315467976
 31
0.0
  0
LINE
  5
1316
  8
TITLE
 10
146.5135443693069135
 20
34.2906643640881867
 30
0.0
 11
147.2082011641186057
 21
34.98532115889995
 31
0.0
  0
LINE
  5
1317
  8
TITLE
 10
146.6008292419541021
 20
34.2906643640881867
 30
0.0
 11
147.2082011641186057
 21
34.8980362862525197
 31
0.0
  0
LINE
  5
1318
  8
TITLE
 10
146.6881141146016034
 20
34.2906643640881867
 30
0.0
 11
147.2082011641186057
 21
34.8107514136052174
 31
0.0
  0
LINE
  5
1319
  8
TITLE
 10
146.7753989872416014
 20
34.2906643640881867
 30
0.0
 11
147.2082011641186057
 21
34.7234665409580572
 31
0.0
  0
LINE
  5
131A
  8
TITLE
 10
146.8626838598883069
 20
34.2906643640881867
 30
0.0
 11
147.2082011641186057
 21
34.6361816683109467
 31
0.0
  0
LINE
  5
131B
  8
TITLE
 10
146.9499687325356945
 20
34.2906643640881867
 30
0.0
 11
147.2082011641186057
 21
34.5488967956677016
 31
0.0
  0
LINE
  5
131C
  8
TITLE
 10
147.0372536051827979
 20
34.2906643640881867
 30
0.0
 11
147.2082011641186057
 21
34.4616119230202571
 31
0.0
  0
LINE
  5
131D
  8
TITLE
 10
147.1245384778297023
 20
34.2906643640881867
 30
0.0
 11
147.2082011641186057
 21
34.3743270503731395
 31
0.0
  0
LINE
  5
131E
  8
TITLE
 10
144.9433915612069939
 20
38.7431677685985179
 30
0.0
 11
146.0555120439667007
 21
39.8552882513581821
 31
0.0
  0
LINE
  5
131F
  8
TITLE
 10
145.0306764338538983
 20
38.7431677685985179
 30
0.0
 11
146.1427969166138041
 21
39.8552882513581821
 31
0.0
  0
LINE
  5
1320
  8
TITLE
 10
145.1179613065010869
 20
38.7431677685985179
 30
0.0
 11
146.2300817892609075
 21
39.8552882513581821
 31
0.0
  0
LINE
  5
1321
  8
TITLE
 10
144.4187074257897052
 20
34.2906643640881867
 30
0.0
 11
145.5472333022084968
 21
35.4191902405069214
 31
0.0
  0
LINE
  5
1322
  8
TITLE
 10
144.5059922984368086
 20
34.2906643640881867
 30
0.0
 11
145.6345181748556001
 21
35.4191902405069214
 31
0.0
  0
LINE
  5
1323
  8
TITLE
 10
144.593277171083912
 20
34.2906643640881867
 30
0.0
 11
145.7218030475027888
 21
35.4191902405069214
 31
0.0
  0
LINE
  5
1324
  8
TITLE
 10
144.6805620437314985
 20
34.2906643640881867
 30
0.0
 11
145.8090879201500911
 21
35.4191902405069214
 31
0.0
  0
LINE
  5
1325
  8
TITLE
 10
144.7678469163782893
 20
34.2906643640881867
 30
0.0
 11
145.8963727927971092
 21
35.4191902405069214
 31
0.0
  0
LINE
  5
1326
  8
TITLE
 10
144.8551317890255064
 20
34.2906643640881867
 30
0.0
 11
145.9836576654442979
 21
35.4191902405069214
 31
0.0
  0
LINE
  5
1327
  8
TITLE
 10
144.9424166616651064
 20
34.2906643640881867
 30
0.0
 11
146.0709425380842958
 21
35.4191902405069214
 31
0.0
  0
LINE
  5
1328
  8
TITLE
 10
145.029701534312494
 20
34.2906643640881867
 30
0.0
 11
146.1582274107313992
 21
35.4191902405069214
 31
0.0
  0
LINE
  5
1329
  8
TITLE
 10
145.55438566973001
 20
38.7431677685985179
 30
0.0
 11
146.666506152496595
 21
39.8552882513581821
 31
0.0
  0
LINE
  5
132A
  8
TITLE
 10
145.6416705423768008
 20
38.7431677685985179
 30
0.0
 11
146.7537910251440962
 21
39.8552882513581821
 31
0.0
  0
LINE
  5
132B
  8
TITLE
 10
145.7289554150239042
 20
38.7431677685985179
 30
0.0
 11
146.7549315011945055
 21
39.7691438547657725
 31
0.0
  0
LINE
  5
132C
  8
TITLE
 10
145.8162402876710928
 20
38.7431677685985179
 30
0.0
 11
146.7549315011945055
 21
39.6818589821217884
 31
0.0
  0
LINE
  5
132D
  8
TITLE
 10
145.9035251603185088
 20
38.7431677685985179
 30
0.0
 11
146.7549315011945055
 21
39.5945741094746708
 31
0.0
  0
LINE
  5
132E
  8
TITLE
 10
145.9908100329652996
 20
38.7431677685985179
 30
0.0
 11
146.7549315011945055
 21
39.5072892368275319
 31
0.0
  0
LINE
  5
132F
  8
TITLE
 10
146.0780949056128861
 20
38.7431677685985179
 30
0.0
 11
146.7549315011945055
 21
39.4200043641802225
 31
0.0
  0
LINE
  5
1330
  8
TITLE
 10
146.1653797782601032
 20
38.7431677685985179
 30
0.0
 11
146.7549315011945055
 21
39.3327194915333678
 31
0.0
  0
LINE
  5
1331
  8
TITLE
 10
145.4671007970898131
 20
38.7431677685985179
 30
0.0
 11
146.5792212798496053
 21
39.8552882513581821
 31
0.0
  0
LINE
  5
1332
  8
TITLE
 10
145.205246179148503
 20
38.7431677685985179
 30
0.0
 11
146.3173666619080109
 21
39.8552882513581821
 31
0.0
  0
LINE
  5
1333
  8
TITLE
 10
145.2925310517958906
 20
38.7431677685985179
 30
0.0
 11
146.4046515345550858
 21
39.8552882513581821
 31
0.0
  0
LINE
  5
1334
  8
TITLE
 10
145.3798159244429939
 20
38.7431677685985179
 30
0.0
 11
146.491936407202104
 21
39.8552882513581821
 31
0.0
  0
LINE
  5
1335
  8
TITLE
 10
145.5534107701953985
 20
34.2906643640881867
 30
0.0
 11
146.6819366466143038
 21
35.4191902405069214
 31
0.0
  0
LINE
  5
1336
  8
TITLE
 10
145.6406956428427009
 20
34.2906643640881867
 30
0.0
 11
146.7692215192614071
 21
35.4191902405069214
 31
0.0
  0
LINE
  5
1337
  8
TITLE
 10
145.7279805154898895
 20
34.2906643640881867
 30
0.0
 11
146.8565063919087947
 21
35.4191902405069214
 31
0.0
  0
LINE
  5
1338
  8
TITLE
 10
145.8152653881369929
 20
34.2906643640881867
 30
0.0
 11
146.9437912645558129
 21
35.4191902405069214
 31
0.0
  0
LINE
  5
1339
  8
TITLE
 10
145.9025502607767919
 20
34.2906643640881867
 30
0.0
 11
147.0310761371956971
 21
35.4191902405069214
 31
0.0
  0
LINE
  5
133A
  8
TITLE
 10
145.989835133424009
 20
34.2906643640881867
 30
0.0
 11
147.1183610098426868
 21
35.4191902405069214
 31
0.0
  0
LINE
  5
133B
  8
TITLE
 10
146.0771200060711976
 20
34.2906643640881867
 30
0.0
 11
147.2056458824899892
 21
35.4191902405069214
 31
0.0
  0
LINE
  5
133C
  8
TITLE
 10
146.164404878718301
 20
34.2906643640881867
 30
0.0
 11
147.2082011641186057
 21
35.3344606494848676
 31
0.0
  0
LINE
  5
133D
  8
TITLE
 10
145.1169864069597963
 20
34.2906643640881867
 30
0.0
 11
146.2455122833787016
 21
35.4191902405069214
 31
0.0
  0
LINE
  5
133E
  8
TITLE
 10
145.204271279606786
 20
34.2906643640881867
 30
0.0
 11
146.332797156025606
 21
35.4191902405069214
 31
0.0
  0
LINE
  5
133F
  8
TITLE
 10
145.2915561522542021
 20
34.2906643640881867
 30
0.0
 11
146.4200820286727094
 21
35.4191902405069214
 31
0.0
  0
LINE
  5
1340
  8
TITLE
 10
145.3788410249011065
 20
34.2906643640881867
 30
0.0
 11
146.507366901320097
 21
35.4191902405069214
 31
0.0
  0
LINE
  5
1341
  8
TITLE
 10
145.4661258975486078
 20
34.2906643640881867
 30
0.0
 11
146.5946517739672004
 21
35.4191902405069214
 31
0.0
  0
LINE
  5
1343
  8
TITLE
 10
150.9650728742759895
 20
34.2906643640881867
 30
0.0
 11
153.0498395893972088
 21
36.3754310792127598
 31
0.0
  0
LINE
  5
1344
  8
TITLE
 10
151.052357746922894
 20
34.2906643640881867
 30
0.0
 11
153.0660203328833973
 21
36.3043269500522214
 31
0.0
  0
LINE
  5
1345
  8
TITLE
 10
151.1396426195701963
 20
34.2906643640881867
 30
0.0
 11
153.0822010763700121
 21
36.2332228208917186
 31
0.0
  0
LINE
  5
1346
  8
TITLE
 10
151.2269274922174134
 20
34.2906643640881867
 30
0.0
 11
153.0983818198563995
 21
36.1621186917307824
 31
0.0
  0
LINE
  5
1347
  8
TITLE
 10
151.314212364864602
 20
34.2906643640881867
 30
0.0
 11
153.1145625633429006
 21
36.0910145625696401
 31
0.0
  0
LINE
  5
1348
  8
TITLE
 10
151.4014972375049126
 20
34.2906643640881867
 30
0.0
 11
153.1307433068290038
 21
36.0199104334094216
 31
0.0
  0
LINE
  5
1349
  8
TITLE
 10
151.9984492768244024
 20
35.5858953845747408
 30
0.0
 11
153.0012973589452088
 21
36.5887434666951918
 31
0.0
  0
LINE
  5
134A
  8
TITLE
 10
152.0146300203035992
 20
35.5147912554137619
 30
0.0
 11
153.0174781024248034
 21
36.5176393375342414
 31
0.0
  0
LINE
  5
134B
  8
TITLE
 10
152.0308107637901003
 20
35.4436871262527973
 30
0.0
 11
153.0336588459107929
 21
36.4465352083740299
 31
0.0
  0
LINE
  5
134C
  8
TITLE
 10
151.9175455593928916
 20
35.9414160303782069
 30
0.0
 11
152.9203936415134137
 21
36.9442641124989777
 31
0.0
  0
LINE
  5
134D
  8
TITLE
 10
151.9337263028789948
 20
35.8703119012175335
 30
0.0
 11
152.9365743849998012
 21
36.8731599833381765
 31
0.0
  0
LINE
  5
134E
  8
TITLE
 10
151.9499070463654959
 20
35.7992077720570023
 30
0.0
 11
152.9527551284865012
 21
36.8020558541774889
 31
0.0
  0
LINE
  5
134F
  8
TITLE
 10
151.9660877898515992
 20
35.7281036428961869
 30
0.0
 11
152.9689358719728034
 21
36.7309517250169577
 31
0.0
  0
LINE
  5
1350
  8
TITLE
 10
151.982268533338214
 20
35.6569995137352365
 30
0.0
 11
152.9851166154589919
 21
36.6598475958561423
 31
0.0
  0
LINE
  5
1351
  8
TITLE
 10
151.4887821101517034
 20
34.2906643640881867
 30
0.0
 11
153.1469240503155902
 21
35.9488063042446981
 31
0.0
  0
LINE
  5
1352
  8
TITLE
 10
151.5760669827990057
 20
34.2906643640881867
 30
0.0
 11
153.1631047937947017
 21
35.8777021750838614
 31
0.0
  0
LINE
  5
1353
  8
TITLE
 10
151.6633518554459101
 20
34.2906643640881867
 30
0.0
 11
153.1792855372812028
 21
35.8065980459232094
 31
0.0
  0
LINE
  5
1354
  8
TITLE
 10
151.7506367280930988
 20
34.2906643640881867
 30
0.0
 11
153.1954662807677039
 21
35.7354939167622589
 31
0.0
  0
LINE
  5
1355
  8
TITLE
 10
151.8379216007404864
 20
34.2906643640881867
 30
0.0
 11
153.2116470242540061
 21
35.6643897876018627
 31
0.0
  0
LINE
  5
1356
  8
TITLE
 10
151.9252064733875045
 20
34.2906643640881867
 30
0.0
 11
153.2278277677403935
 21
35.5932856584408981
 31
0.0
  0
LINE
  5
1357
  8
TITLE
 10
152.0124913460346079
 20
34.2906643640881867
 30
0.0
 11
153.2440085112270083
 21
35.5221815292802319
 31
0.0
  0
LINE
  5
1358
  8
TITLE
 10
152.0997762186819955
 20
34.2906643640881867
 30
0.0
 11
153.2601892547129125
 21
35.4510774001194093
 31
0.0
  0
LINE
  5
1359
  8
TITLE
 10
152.1870610913290136
 20
34.2906643640881867
 30
0.0
 11
153.2763699981996979
 21
35.3799732709589279
 31
0.0
  0
LINE
  5
135A
  8
TITLE
 10
152.2743459639690116
 20
34.2906643640881867
 30
0.0
 11
153.2925507416786957
 21
35.3088691417977998
 31
0.0
  0
LINE
  5
135B
  8
TITLE
 10
152.3616308366158876
 20
34.2906643640881867
 30
0.0
 11
153.3087314851651115
 21
35.237765012637297
 31
0.0
  0
LINE
  5
135C
  8
TITLE
 10
152.4489157092631899
 20
34.2906643640881867
 30
0.0
 11
153.3249122286518116
 21
35.1666608834765029
 31
0.0
  0
LINE
  5
135D
  8
TITLE
 10
152.536200581910407
 20
34.2906643640881867
 30
0.0
 11
153.341092972138199
 21
35.0955567543155027
 31
0.0
  0
LINE
  5
135E
  8
TITLE
 10
151.7233766375632058
 20
36.794665580311289
 30
0.0
 11
152.6454192273776016
 21
37.7167081701256492
 31
0.0
  0
LINE
  5
135F
  8
TITLE
 10
151.7395573810493943
 20
36.7235614511504593
 30
0.0
 11
152.7327041000247903
 21
37.7167081701256492
 31
0.0
  0
LINE
  5
1360
  8
TITLE
 10
151.7557381245356964
 20
36.6524573219895302
 30
0.0
 11
152.7585862066569007
 21
37.6553054041104289
 31
0.0
  0
LINE
  5
1361
  8
TITLE
 10
151.7719188680227944
 20
36.5813531928290274
 30
0.0
 11
152.7747669501430039
 21
37.5842012749494927
 31
0.0
  0
LINE
  5
1362
  8
TITLE
 10
151.7880996115086134
 20
36.5102490636678922
 30
0.0
 11
152.790947693629505
 21
37.5130971457887981
 31
0.0
  0
LINE
  5
1363
  8
TITLE
 10
151.8042803549950008
 20
36.4391449345070697
 30
0.0
 11
152.8071284371156935
 21
37.4419930166278618
 31
0.0
  0
LINE
  5
1364
  8
TITLE
 10
151.8204610984815019
 20
36.3680408053468582
 30
0.0
 11
152.8233091806021946
 21
37.3708888874673093
 31
0.0
  0
LINE
  5
1365
  8
TITLE
 10
151.8366418419678041
 20
36.2969366761858865
 30
0.0
 11
152.8394899240884968
 21
37.299784758306501
 31
0.0
  0
LINE
  5
1366
  8
TITLE
 10
151.8528225854541915
 20
36.2258325470249574
 30
0.0
 11
152.8556706675747137
 21
37.2286806291458703
 31
0.0
  0
LINE
  5
1367
  8
TITLE
 10
151.869003328933502
 20
36.1547284178641419
 30
0.0
 11
152.8718514110539104
 21
37.1575764999848701
 31
0.0
  0
LINE
  5
1368
  8
TITLE
 10
151.8851840724200031
 20
36.0836242887034686
 30
0.0
 11
152.8880321545404968
 21
37.0864723708208714
 31
0.0
  0
LINE
  5
1369
  8
TITLE
 10
151.9013648159063052
 20
36.0125201595426603
 30
0.0
 11
152.9042128980269126
 21
37.0153682416599423
 31
0.0
  0
LINE
  5
136A
  8
TITLE
 10
149.1945564427084889
 20
38.9792285083633203
 30
0.0
 11
150.0706161857069105
 21
39.8552882513581821
 31
0.0
  0
LINE
  5
136B
  8
TITLE
 10
149.1486781216297004
 20
38.8460653146413506
 30
0.0
 11
150.1579010583540139
 21
39.8552882513581821
 31
0.0
  0
LINE
  5
136C
  8
TITLE
 10
149.1027998005511961
 20
38.7129021209157287
 30
0.0
 11
150.2451859310012026
 21
39.8552882513581821
 31
0.0
  0
LINE
  5
136D
  8
TITLE
 10
149.0569214794801098
 20
38.5797389271894815
 30
0.0
 11
150.3324708036483912
 21
39.8552882513581821
 31
0.0
  0
LINE
  5
136E
  8
TITLE
 10
149.3321914059445135
 20
39.3787180895371591
 30
0.0
 11
149.8087615677652877
 21
39.8552882513581821
 31
0.0
  0
LINE
  5
136F
  8
TITLE
 10
149.2863130848656965
 20
39.2455548958112814
 30
0.0
 11
149.8960464404127038
 21
39.8552882513581821
 31
0.0
  0
LINE
  5
1370
  8
TITLE
 10
149.2404347637871069
 20
39.1123917020891128
 30
0.0
 11
149.9833313130598071
 21
39.8552882513581821
 31
0.0
  0
LINE
  5
1371
  8
TITLE
 10
149.4239480481018916
 20
39.6450444769887582
 30
0.0
 11
149.6341918224713083
 21
39.8552882513581821
 31
0.0
  0
LINE
  5
1372
  8
TITLE
 10
149.378069727023103
 20
39.5118812832632216
 30
0.0
 11
149.7214766951184117
 21
39.8552882513581821
 31
0.0
  0
LINE
  5
1373
  8
TITLE
 10
149.4698263691805096
 20
39.7782076707145009
 30
0.0
 11
149.546906949824006
 21
39.8552882513581821
 31
0.0
  0
LINE
  5
1374
  8
TITLE
 10
148.8734081951652968
 20
38.0470861522901629
 30
0.0
 11
150.6816102942298983
 21
39.8552882513581821
 31
0.0
  0
LINE
  5
1375
  8
TITLE
 10
148.8275298740865082
 20
37.9139229585677384
 30
0.0
 11
150.7661630770938075
 21
39.8525561615782991
 31
0.0
  0
LINE
  5
1376
  8
TITLE
 10
148.7816515530080039
 20
37.7807597648419815
 30
0.0
 11
150.720284756022096
 21
39.7193929678526416
 31
0.0
  0
LINE
  5
1377
  8
TITLE
 10
149.0110431584012076
 20
38.4465757334637317
 30
0.0
 11
150.4197556762885029
 21
39.8552882513581821
 31
0.0
  0
LINE
  5
1378
  8
TITLE
 10
148.9651648373225896
 20
38.3134125397382377
 30
0.0
 11
150.5070405489356062
 21
39.8552882513581821
 31
0.0
  0
LINE
  5
1379
  8
TITLE
 10
148.919286516244
 20
38.1802493460159695
 30
0.0
 11
150.5943254215827949
 21
39.8552882513581821
 31
0.0
  0
LINE
  5
137A
  8
TITLE
 10
150.3540787657532007
 20
34.2906643640881867
 30
0.0
 11
151.4638720279637027
 21
35.4004576263057729
 31
0.0
  0
LINE
  5
137B
  8
TITLE
 10
150.4413636383931134
 20
34.2906643640881867
 30
0.0
 11
151.5511569006110051
 21
35.4004576263057729
 31
0.0
  0
LINE
  5
137C
  8
TITLE
 10
150.5286485110401031
 20
34.2906643640881867
 30
0.0
 11
151.6384417732577958
 21
35.4004576263057729
 31
0.0
  0
LINE
  5
137D
  8
TITLE
 10
150.6159333836874055
 20
34.2906643640881867
 30
0.0
 11
151.7257266459052971
 21
35.4004576263057729
 31
0.0
  0
LINE
  5
137E
  8
TITLE
 10
150.7032182563345941
 20
34.2906643640881867
 30
0.0
 11
151.8130115185524005
 21
35.4004576263057729
 31
0.0
  0
LINE
  5
137F
  8
TITLE
 10
150.7905031289816122
 20
34.2906643640881867
 30
0.0
 11
151.9002963911995039
 21
35.4004576263057729
 31
0.0
  0
LINE
  5
1380
  8
TITLE
 10
150.8777880016289998
 20
34.2906643640881867
 30
0.0
 11
151.9875812638466925
 21
35.4004576263057729
 31
0.0
  0
LINE
  5
1381
  8
TITLE
 10
151.6748344071110921
 20
37.0079779677934368
 30
0.0
 11
152.3835646094435106
 21
37.7167081701256492
 31
0.0
  0
LINE
  5
1382
  8
TITLE
 10
151.6910151505975932
 20
36.9368738386325006
 30
0.0
 11
152.4708494820831106
 21
37.7167081701256492
 31
0.0
  0
LINE
  5
1383
  8
TITLE
 10
151.7071958940836964
 20
36.8657697094718202
 30
0.0
 11
152.558134354730413
 21
37.7167081701256492
 31
0.0
  0
LINE
  5
1384
  8
TITLE
 10
151.6262921766517024
 20
37.2212903552758689
 30
0.0
 11
152.1217099915018878
 21
37.7167081701256492
 31
0.0
  0
LINE
  5
1385
  8
TITLE
 10
151.6424729201380899
 20
37.1501862261149398
 30
0.0
 11
152.2089948641491901
 21
37.7167081701256492
 31
0.0
  0
LINE
  5
1386
  8
TITLE
 10
151.6586536636247047
 20
37.0790820969538117
 30
0.0
 11
152.2962797367960093
 21
37.7167081701256492
 31
0.0
  0
LINE
  5
1387
  8
TITLE
 10
151.5615692027135992
 20
37.5057068719186901
 30
0.0
 11
151.7725705009131048
 21
37.7167081701256492
 31
0.0
  0
LINE
  5
1388
  8
TITLE
 10
151.577749946192796
 20
37.4346027427583294
 30
0.0
 11
151.8598553735604924
 21
37.7167081701256492
 31
0.0
  0
LINE
  5
1389
  8
TITLE
 10
151.5939306896792118
 20
37.3634986135972369
 30
0.0
 11
151.9471402462075957
 21
37.7167081701256492
 31
0.0
  0
LINE
  5
138A
  8
TITLE
 10
151.6101114331657129
 20
37.2923944844364286
 30
0.0
 11
152.0344251188546139
 21
37.7167081701256492
 31
0.0
  0
LINE
  5
138B
  8
TITLE
 10
151.5292077157409949
 20
37.6479151302406265
 30
0.0
 11
151.598000755618898
 21
37.7167081701256492
 31
0.0
  0
LINE
  5
138C
  8
TITLE
 10
151.5453884592270128
 20
37.5768110010793635
 30
0.0
 11
151.6852856282660014
 21
37.7167081701256492
 31
0.0
  0
LINE
  5
138D
  8
TITLE
 10
148.5210964401773026
 20
34.2906643640881867
 30
0.0
 11
149.6308897023880888
 21
35.4004576263057729
 31
0.0
  0
LINE
  5
138E
  8
TITLE
 10
148.6083813128173006
 20
34.2906643640881867
 30
0.0
 11
149.7181745750349933
 21
35.4004576263057729
 31
0.0
  0
LINE
  5
138F
  8
TITLE
 10
148.6956661854646029
 20
34.2906643640881867
 30
0.0
 11
149.8054594476822103
 21
35.4004576263057729
 31
0.0
  0
LINE
  5
1390
  8
TITLE
 10
148.7829510581115926
 20
34.2906643640881867
 30
0.0
 11
149.8927443203292
 21
35.4004576263057729
 31
0.0
  0
LINE
  5
1391
  8
TITLE
 10
148.870235930758696
 20
34.2906643640881867
 30
0.0
 11
149.9800291929765876
 21
35.4004576263057729
 31
0.0
  0
LINE
  5
1392
  8
TITLE
 10
148.9575208034057141
 20
34.2906643640881867
 30
0.0
 11
150.0673140656236058
 21
35.4004576263057729
 31
0.0
  0
LINE
  5
1393
  8
TITLE
 10
149.0448056760531017
 20
34.2906643640881867
 30
0.0
 11
150.1545989382707091
 21
35.4004576263057729
 31
0.0
  0
LINE
  5
1394
  8
TITLE
 10
149.1320905487000914
 20
34.2906643640881867
 30
0.0
 11
150.2418838109182104
 21
35.4004576263057729
 31
0.0
  0
LINE
  5
1395
  8
TITLE
 10
149.2193754213475927
 20
34.2906643640881867
 30
0.0
 11
150.3291686835578957
 21
35.4004576263057729
 31
0.0
  0
LINE
  5
1396
  8
TITLE
 10
149.3066602939944119
 20
34.2906643640881867
 30
0.0
 11
150.4164535562051128
 21
35.4004576263057729
 31
0.0
  0
LINE
  5
1397
  8
TITLE
 10
150.1795090204591077
 20
34.2906643640881867
 30
0.0
 11
151.289302282669297
 21
35.4004576263057729
 31
0.0
  0
LINE
  5
1398
  8
TITLE
 10
150.2667938931058131
 20
34.2906643640881867
 30
0.0
 11
151.3765871553165994
 21
35.4004576263057729
 31
0.0
  0
LINE
  5
1399
  8
TITLE
 10
149.3939451666414868
 20
34.2906643640881867
 30
0.0
 11
150.5037384288521025
 21
35.4004576263057729
 31
0.0
  0
LINE
  5
139A
  8
TITLE
 10
149.4812300392887892
 20
34.2906643640881867
 30
0.0
 11
150.5910233014996038
 21
35.4004576263057729
 31
0.0
  0
LINE
  5
139B
  8
TITLE
 10
149.5685149119289861
 20
34.2906643640881867
 30
0.0
 11
150.6783081741465082
 21
35.4004576263057729
 31
0.0
  0
LINE
  5
139C
  8
TITLE
 10
149.6557997845758905
 20
34.2906643640881867
 30
0.0
 11
150.7655930467936116
 21
35.4004576263057729
 31
0.0
  0
LINE
  5
139D
  8
TITLE
 10
149.7430846572227097
 20
34.2906643640881867
 30
0.0
 11
150.8528779194411129
 21
35.4004576263057729
 31
0.0
  0
LINE
  5
139E
  8
TITLE
 10
149.8303695298700973
 20
34.2906643640881867
 30
0.0
 11
150.9401627920879037
 21
35.4004576263057729
 31
0.0
  0
LINE
  5
139F
  8
TITLE
 10
149.9176544025172007
 20
34.2906643640881867
 30
0.0
 11
151.027447664735007
 21
35.4004576263057729
 31
0.0
  0
LINE
  5
13A0
  8
TITLE
 10
150.0049392751645883
 20
34.2906643640881867
 30
0.0
 11
151.1147325373825936
 21
35.4004576263057729
 31
0.0
  0
LINE
  5
13A1
  8
TITLE
 10
150.0922241478114927
 20
34.2906643640881867
 30
0.0
 11
151.2020174100221084
 21
35.4004576263057729
 31
0.0
  0
LINE
  5
13A2
  8
TITLE
 10
148.7357732319291017
 20
37.6475965711164591
 30
0.0
 11
150.6744064349433927
 21
39.58622977413021
 31
0.0
  0
LINE
  5
13A3
  8
TITLE
 10
148.6898949108505121
 20
37.5144333773901195
 30
0.0
 11
150.6285281138650021
 21
39.4530665804047302
 31
0.0
  0
LINE
  5
13A4
  8
TITLE
 10
148.6440165897716952
 20
37.3812701836649097
 30
0.0
 11
150.5826497927860999
 21
39.3199033866787886
 31
0.0
  0
LINE
  5
13A5
  8
TITLE
 10
148.5981382686937025
 20
37.2481069899426203
 30
0.0
 11
150.5367714717075103
 21
39.186740192953053
 31
0.0
  0
LINE
  5
13A6
  8
TITLE
 10
148.5522599476146013
 20
37.1149437962200466
 30
0.0
 11
150.490893150629006
 21
39.0535769992271327
 31
0.0
  0
LINE
  5
13A7
  8
TITLE
 10
148.5063816265362107
 20
36.9817806024944531
 30
0.0
 11
150.4450148295501037
 21
38.9204138055052908
 31
0.0
  0
LINE
  5
13A8
  8
TITLE
 10
154.4816705159348089
 20
39.0292502227999378
 30
0.0
 11
155.3077085444932095
 21
39.8552882513581821
 31
0.0
  0
LINE
  5
13A9
  8
TITLE
 10
154.5689553885819976
 20
39.0292502227999378
 30
0.0
 11
155.3949934171405118
 21
39.8552882513581821
 31
0.0
  0
LINE
  5
13AA
  8
TITLE
 10
154.656240261228902
 20
39.0292502227999378
 30
0.0
 11
155.4822782897875868
 21
39.8552882513581821
 31
0.0
  0
LINE
  5
13AB
  8
TITLE
 10
154.7435251338760906
 20
39.0292502227999378
 30
0.0
 11
155.5695631624344912
 21
39.8552882513581821
 31
0.0
  0
LINE
  5
13AC
  8
TITLE
 10
154.8308100065235067
 20
39.0292502227999378
 30
0.0
 11
155.6568480350821062
 21
39.8552882513581821
 31
0.0
  0
LINE
  5
13AD
  8
TITLE
 10
154.9180948791704111
 20
39.0292502227999378
 30
0.0
 11
155.7441329077288117
 21
39.8552882513581821
 31
0.0
  0
LINE
  5
13AE
  8
TITLE
 10
155.0053797518177134
 20
39.0292502227999378
 30
0.0
 11
155.8314177803760003
 21
39.8552882513581821
 31
0.0
  0
LINE
  5
13AF
  8
TITLE
 10
155.0926646244647884
 20
39.0292502227999378
 30
0.0
 11
155.9187026530159983
 21
39.8552882513581821
 31
0.0
  0
LINE
  5
13B0
  8
TITLE
 10
155.1799494971047864
 20
39.0292502227999378
 30
0.0
 11
156.0059875256633006
 21
39.8552882513581821
 31
0.0
  0
LINE
  5
13B1
  8
TITLE
 10
155.2672343697520887
 20
39.0292502227999378
 30
0.0
 11
156.093272398310603
 21
39.8552882513581821
 31
0.0
  0
LINE
  5
13B2
  8
TITLE
 10
155.3545192423991921
 20
39.0292502227999378
 30
0.0
 11
156.1805572709575927
 21
39.8552882513581821
 31
0.0
  0
LINE
  5
13B3
  8
TITLE
 10
155.4418041150464092
 20
39.0292502227999378
 30
0.0
 11
156.2678421436048097
 21
39.8552882513581821
 31
0.0
  0
LINE
  5
13B4
  8
TITLE
 10
155.5290889876935125
 20
39.0292502227999378
 30
0.0
 11
156.3551270162517142
 21
39.8552882513581821
 31
0.0
  0
LINE
  5
13B5
  8
TITLE
 10
155.6163738603409001
 20
39.0292502227999378
 30
0.0
 11
156.4424118888991018
 21
39.8552882513581821
 31
0.0
  0
LINE
  5
13B6
  8
TITLE
 10
155.7036587329878898
 20
39.0292502227999378
 30
0.0
 11
156.5296967615462052
 21
39.8552882513581821
 31
0.0
  0
LINE
  5
13B7
  8
TITLE
 10
155.7909436056351069
 20
39.0292502227999378
 30
0.0
 11
156.6169816341935075
 21
39.8552882513581821
 31
0.0
  0
LINE
  5
13B8
  8
TITLE
 10
154.4564677801334938
 20
34.2906643640881867
 30
0.0
 11
155.3088998434963059
 21
35.1430964274547719
 31
0.0
  0
LINE
  5
13B9
  8
TITLE
 10
154.5437526527807108
 20
34.2906643640881867
 30
0.0
 11
155.3961847161434093
 21
35.1430964274547719
 31
0.0
  0
LINE
  5
13BA
  8
TITLE
 10
154.6310375254280132
 20
34.2906643640881867
 30
0.0
 11
155.4834695887907969
 21
35.1430964274547719
 31
0.0
  0
LINE
  5
13BB
  8
TITLE
 10
154.7183223980750029
 20
34.2906643640881867
 30
0.0
 11
155.570754461438014
 21
35.1430964274547719
 31
0.0
  0
LINE
  5
13BC
  8
TITLE
 10
154.8056072707219926
 20
34.2906643640881867
 30
0.0
 11
155.6580393340846911
 21
35.1430964274547719
 31
0.0
  0
LINE
  5
13BD
  8
TITLE
 10
154.8928921433692096
 20
34.2906643640881867
 30
0.0
 11
155.7453242067319934
 21
35.1430964274547719
 31
0.0
  0
LINE
  5
13BE
  8
TITLE
 10
154.980177016008895
 20
34.2906643640881867
 30
0.0
 11
155.8326090793796936
 21
35.1430964274547719
 31
0.0
  0
LINE
  5
13BF
  8
TITLE
 10
155.0674618886563962
 20
34.2906643640881867
 30
0.0
 11
155.9198939520265128
 21
35.1430964274547719
 31
0.0
  0
LINE
  5
13C0
  8
TITLE
 10
155.1547467613036986
 20
34.2906643640881867
 30
0.0
 11
156.0071788246737015
 21
35.1430964274547719
 31
0.0
  0
LINE
  5
13C1
  8
TITLE
 10
155.2420316339508872
 20
34.2906643640881867
 30
0.0
 11
156.0944636973210038
 21
35.1430964274547719
 31
0.0
  0
LINE
  5
13C2
  8
TITLE
 10
155.3293165065977064
 20
34.2906643640881867
 30
0.0
 11
156.1817485699606891
 21
35.1430964274547719
 31
0.0
  0
LINE
  5
13C3
  8
TITLE
 10
154.2038322384574087
 20
39.6242606717867787
 30
0.0
 11
154.4348598180287127
 21
39.8552882513581821
 31
0.0
  0
LINE
  5
13C4
  8
TITLE
 10
154.2038322384574087
 20
39.7988304170776033
 30
0.0
 11
154.2602900727345059
 21
39.8552882513581821
 31
0.0
  0
LINE
  5
13C5
  8
TITLE
 10
154.2038322384574087
 20
39.7115455444307486
 30
0.0
 11
154.3475749453816093
 21
39.8552882513581821
 31
0.0
  0
LINE
  5
13C6
  8
TITLE
 10
154.0260794294686093
 20
34.8204096125344478
 30
0.0
 11
154.3487662443847057
 21
35.1430964274547719
 31
0.0
  0
LINE
  5
13C7
  8
TITLE
 10
154.0260794294686093
 20
34.7331247398874581
 30
0.0
 11
154.4360511170316954
 21
35.1430964274547719
 31
0.0
  0
LINE
  5
13C8
  8
TITLE
 10
154.0260794294686093
 20
34.907694485181743
 30
0.0
 11
154.2614813717376023
 21
35.1430964274547719
 31
0.0
  0
LINE
  5
13C9
  8
TITLE
 10
152.6234854545577946
 20
34.2906643640881867
 30
0.0
 11
153.3572737156243022
 21
35.0244526251548578
 31
0.0
  0
LINE
  5
13CA
  8
TITLE
 10
152.710770327204898
 20
34.2906643640881867
 30
0.0
 11
153.3734544591110023
 21
34.9533484959940495
 31
0.0
  0
LINE
  5
13CB
  8
TITLE
 10
152.7980551998520014
 20
34.2906643640881867
 30
0.0
 11
153.3896352025971055
 21
34.882244366833369
 31
0.0
  0
LINE
  5
13CC
  8
TITLE
 10
152.885340072498991
 20
34.2906643640881867
 30
0.0
 11
153.4058159460834929
 21
34.8111402376728307
 31
0.0
  0
LINE
  5
13CD
  8
TITLE
 10
152.9726249451462081
 20
34.2906643640881867
 30
0.0
 11
153.4219966895697098
 21
34.7400361085118874
 31
0.0
  0
LINE
  5
13CE
  8
TITLE
 10
153.0599098177935105
 20
34.2906643640881867
 30
0.0
 11
153.4381774330495887
 21
34.6689319793509512
 31
0.0
  0
LINE
  5
13CF
  8
TITLE
 10
153.1471946904335084
 20
34.2906643640881867
 30
0.0
 11
153.4543581765356066
 21
34.5978278501901215
 31
0.0
  0
LINE
  5
13D0
  8
TITLE
 10
153.2344795630806971
 20
34.2906643640881867
 30
0.0
 11
153.470538920022193
 21
34.5267237210294482
 31
0.0
  0
LINE
  5
13D1
  8
TITLE
 10
153.3217644357276868
 20
34.2906643640881867
 30
0.0
 11
153.4867196635084099
 21
34.4556195918689099
 31
0.0
  0
LINE
  5
13D2
  8
TITLE
 10
153.4090493083747049
 20
34.2906643640881867
 30
0.0
 11
153.5029004069945984
 21
34.3845154627080802
 31
0.0
  0
LINE
  5
13D3
  8
TITLE
 10
153.4963341810220072
 20
34.2906643640881867
 30
0.0
 11
153.5190811504809005
 21
34.3134113335471511
 31
0.0
  0
LINE
  5
13D4
  8
TITLE
 10
154.0260794294686093
 20
35.0822642304728305
 30
0.0
 11
154.0869116264508136
 21
35.1430964274547719
 31
0.0
  0
LINE
  5
13D5
  8
TITLE
 10
154.0260794294686093
 20
34.9949793578289032
 30
0.0
 11
154.1741964990976896
 21
35.1430964274547719
 31
0.0
  0
LINE
  5
13D6
  8
TITLE
 10
154.1073282895447107
 20
34.2906643640881867
 30
0.0
 11
154.9597603529149978
 21
35.1430964274547719
 31
0.0
  0
LINE
  5
13D7
  8
TITLE
 10
154.1946131621920131
 20
34.2906643640881867
 30
0.0
 11
155.0470452255619875
 21
35.1430964274547719
 31
0.0
  0
LINE
  5
13D8
  8
TITLE
 10
154.2818980348388891
 20
34.2906643640881867
 30
0.0
 11
155.1343300982090909
 21
35.1430964274547719
 31
0.0
  0
LINE
  5
13D9
  8
TITLE
 10
154.3691829074863904
 20
34.2906643640881867
 30
0.0
 11
155.2216149708492026
 21
35.1430964274547719
 31
0.0
  0
LINE
  5
13DA
  8
TITLE
 10
154.0260794294686093
 20
34.2967003766552594
 30
0.0
 11
154.8724754802678945
 21
35.1430964274547719
 31
0.0
  0
LINE
  5
13DB
  8
TITLE
 10
154.0260794294686093
 20
34.64583986724017
 30
0.0
 11
154.5233359896791967
 21
35.1430964274547719
 31
0.0
  0
LINE
  5
13DC
  8
TITLE
 10
154.0260794294686093
 20
34.5585549945930595
 30
0.0
 11
154.6106208623261864
 21
35.1430964274547719
 31
0.0
  0
LINE
  5
13DD
  8
TITLE
 10
154.0260794294686093
 20
34.4712701219458921
 30
0.0
 11
154.6979057349734035
 21
35.1430964274547719
 31
0.0
  0
LINE
  5
13DE
  8
TITLE
 10
154.0260794294686093
 20
34.3839852492991866
 30
0.0
 11
154.7851906076207058
 21
35.1430964274547719
 31
0.0
  0
LINE
  5
13DF
  8
TITLE
 10
154.2038322384574087
 20
39.1878363085510699
 30
0.0
 11
154.871284181264798
 21
39.8552882513581821
 31
0.0
  0
LINE
  5
13E0
  8
TITLE
 10
154.2038322384574087
 20
39.1005514359038173
 30
0.0
 11
154.958569053904597
 21
39.8552882513581821
 31
0.0
  0
LINE
  5
13E1
  8
TITLE
 10
154.2198158980004052
 20
39.0292502227999378
 30
0.0
 11
155.0458539265518141
 21
39.8552882513581821
 31
0.0
  0
LINE
  5
13E2
  8
TITLE
 10
154.3071007706406021
 20
39.0292502227999378
 30
0.0
 11
155.1331387991986901
 21
39.8552882513581821
 31
0.0
  0
LINE
  5
13E3
  8
TITLE
 10
154.3943856432877055
 20
39.0292502227999378
 30
0.0
 11
155.2204236718461061
 21
39.8552882513581821
 31
0.0
  0
LINE
  5
13E4
  8
TITLE
 10
154.2038322384574087
 20
39.5369757991399169
 30
0.0
 11
154.5221446906757023
 21
39.8552882513581821
 31
0.0
  0
LINE
  5
13E5
  8
TITLE
 10
154.2038322384574087
 20
39.449690926492508
 30
0.0
 11
154.609429563322891
 21
39.8552882513581821
 31
0.0
  0
LINE
  5
13E6
  8
TITLE
 10
154.2038322384574087
 20
39.3624060538453904
 30
0.0
 11
154.6967144359701933
 21
39.8552882513581821
 31
0.0
  0
LINE
  5
13E7
  8
TITLE
 10
154.2038322384574087
 20
39.2751211811982301
 30
0.0
 11
154.7839993086176094
 21
39.8552882513581821
 31
0.0
  0
LINE
  5
13E9
  8
TITLE
 10
164.6018900629468931
 20
38.7625699248833016
 30
0.0
 11
165.2540352467316893
 21
39.4147151086646872
 31
0.0
  0
LINE
  5
13EA
  8
TITLE
 10
164.6891749355939965
 20
38.7625699248833016
 30
0.0
 11
165.3413201193789916
 21
39.4147151086646872
 31
0.0
  0
LINE
  5
13EB
  8
TITLE
 10
164.7764598082409861
 20
38.7625699248833016
 30
0.0
 11
165.4286049920189896
 21
39.4147151086646872
 31
0.0
  0
LINE
  5
13EC
  8
TITLE
 10
164.8637446808880895
 20
38.7625699248833016
 30
0.0
 11
165.515889864665894
 21
39.4147151086646872
 31
0.0
  0
LINE
  5
13ED
  8
TITLE
 10
163.3487747902458977
 20
37.7713092701196871
 30
0.0
 11
164.9921806287904928
 21
39.4147151086646872
 31
0.0
  0
LINE
  5
13EE
  8
TITLE
 10
163.4360596628926885
 20
37.7713092701196871
 30
0.0
 11
165.0794655014373973
 21
39.4147151086646872
 31
0.0
  0
LINE
  5
13EF
  8
TITLE
 10
163.5233445355401045
 20
37.7713092701196871
 30
0.0
 11
165.1667503740846996
 21
39.4147151086646872
 31
0.0
  0
LINE
  5
13F0
  8
TITLE
 10
163.6921557580587034
 20
38.4638297285212829
 30
0.0
 11
165.0836142808958016
 21
39.8552882513581821
 31
0.0
  0
LINE
  5
13F1
  8
TITLE
 10
163.6702995639170126
 20
38.3546886617252483
 30
0.0
 11
165.1638340713610091
 21
39.8482231691766771
 31
0.0
  0
LINE
  5
13F2
  8
TITLE
 10
163.7358681463556138
 20
38.6821118621058488
 30
0.0
 11
164.9090445356087002
 21
39.8552882513581821
 31
0.0
  0
LINE
  5
13F3
  8
TITLE
 10
163.7140119522067039
 20
38.5729707953131822
 30
0.0
 11
164.996329408248414
 21
39.8552882513581821
 31
0.0
  0
LINE
  5
13F4
  8
TITLE
 10
164.3961932620042035
 20
37.7713092701196871
 30
0.0
 11
164.9700810483155919
 21
38.3451970564312603
 31
0.0
  0
LINE
  5
13F5
  8
TITLE
 10
164.4834781346444004
 20
37.7713092701196871
 30
0.0
 11
165.0573659209555899
 21
38.3451970564312603
 31
0.0
  0
LINE
  5
13F6
  8
TITLE
 10
164.570763007291589
 20
37.7713092701196871
 30
0.0
 11
165.1446507936026933
 21
38.3451970564312603
 31
0.0
  0
LINE
  5
13F7
  8
TITLE
 10
164.6580478799384935
 20
37.7713092701196871
 30
0.0
 11
165.2319356662499104
 21
38.3451970564312603
 31
0.0
  0
LINE
  5
13F8
  8
TITLE
 10
164.7453327525857105
 20
37.7713092701196871
 30
0.0
 11
165.3192205388969001
 21
38.3451970564312603
 31
0.0
  0
LINE
  5
13F9
  8
TITLE
 10
164.8326176252327002
 20
37.7713092701196871
 30
0.0
 11
165.4065054115440034
 21
38.3451970564312603
 31
0.0
  0
LINE
  5
13FA
  8
TITLE
 10
164.4212240233406135
 20
35.7887879605858217
 30
0.0
 11
164.9168542892628864
 21
36.2844182265114981
 31
0.0
  0
LINE
  5
13FB
  8
TITLE
 10
164.5085088959878874
 20
35.7887879605858217
 30
0.0
 11
165.0041391619095066
 21
36.2844182265114981
 31
0.0
  0
LINE
  5
13FC
  8
TITLE
 10
164.5957937686347918
 20
35.7887879605858217
 30
0.0
 11
165.0914240345568942
 21
36.2844182265114981
 31
0.0
  0
LINE
  5
13FD
  8
TITLE
 10
164.6830786412820089
 20
35.7887879605858217
 30
0.0
 11
165.1787089072041113
 21
36.2844182265114981
 31
0.0
  0
LINE
  5
13FE
  8
TITLE
 10
164.7703635139293112
 20
35.7887879605858217
 30
0.0
 11
165.2659937798509873
 21
36.2844182265114981
 31
0.0
  0
LINE
  5
13FF
  8
TITLE
 10
164.8576483865689113
 20
35.7887879605858217
 30
0.0
 11
165.3532786524986022
 21
36.2844182265114981
 31
0.0
  0
LINE
  5
1400
  8
TITLE
 10
164.4115936481701112
 20
34.5571693683663526
 30
0.0
 11
164.9422146894897878
 21
35.0877904096892124
 31
0.0
  0
LINE
  5
1401
  8
TITLE
 10
164.4705597219555102
 20
34.5288505695079522
 30
0.0
 11
165.0030037934459983
 21
35.0612946409941912
 31
0.0
  0
LINE
  5
1402
  8
TITLE
 10
164.5307945472308973
 20
34.501800522135909
 30
0.0
 11
165.0668009389906103
 21
35.0378069138958068
 31
0.0
  0
LINE
  5
1403
  8
TITLE
 10
164.5923359918286906
 20
34.4760570940831101
 30
0.0
 11
165.13386369519759
 21
35.0175847974552426
 31
0.0
  0
LINE
  5
1404
  8
TITLE
 10
164.6552266159690134
 20
34.4516628455839609
 30
0.0
 11
165.2045299025652128
 21
35.0009661321763232
 31
0.0
  0
LINE
  5
1405
  8
TITLE
 10
164.7195142780524861
 20
34.4286656350161309
 30
0.0
 11
165.2792502984999032
 21
34.9884016554638606
 31
0.0
  0
LINE
  5
1406
  8
TITLE
 10
164.7852528621735075
 20
34.4071193464898215
 30
0.0
 11
165.3586420420305103
 21
34.9805085263471511
 31
0.0
  0
LINE
  5
1407
  8
TITLE
 10
164.8525031573130946
 20
34.3870847689824615
 30
0.0
 11
165.4435820726035047
 21
34.9781636842727579
 31
0.0
  0
LINE
  5
1408
  8
TITLE
 10
164.4262653208099891
 20
36.7539628571669397
 30
0.0
 11
164.9479814678340119
 21
37.2756790041941315
 31
0.0
  0
LINE
  5
1409
  8
TITLE
 10
164.5135501934570925
 20
36.7539628571669397
 30
0.0
 11
165.0352663404810016
 21
37.2756790041941315
 31
0.0
  0
LINE
  5
140A
  8
TITLE
 10
164.6008350661045938
 20
36.7539628571669397
 30
0.0
 11
165.1225512131281903
 21
37.2756790041941315
 31
0.0
  0
LINE
  5
140B
  8
TITLE
 10
164.6881199387516972
 20
36.7539628571669397
 30
0.0
 11
165.2098360857750947
 21
37.2756790041941315
 31
0.0
  0
LINE
  5
140C
  8
TITLE
 10
164.7754048113988006
 20
36.7539628571669397
 30
0.0
 11
165.297120958422596
 21
37.2756790041941315
 31
0.0
  0
LINE
  5
140D
  8
TITLE
 10
164.8626896840387985
 20
36.7539628571669397
 30
0.0
 11
165.3844058310693867
 21
37.2756790041941315
 31
0.0
  0
LINE
  5
140E
  8
TITLE
 10
162.1568586319984888
 20
36.7539628571669397
 30
0.0
 11
165.0860593351623891
 21
39.6831635603272517
 31
0.0
  0
LINE
  5
140F
  8
TITLE
 10
162.2441435046457059
 20
36.7539628571669397
 30
0.0
 11
165.0082845989568909
 21
39.5181039514784302
 31
0.0
  0
LINE
  5
1410
  8
TITLE
 10
160.1503615579779876
 20
38.7625699248833016
 30
0.0
 11
161.2381270483874118
 21
39.8503354152928466
 31
0.0
  0
LINE
  5
1411
  8
TITLE
 10
160.2376464306248067
 20
38.7625699248833016
 30
0.0
 11
161.2660825583207043
 21
39.7910060525755469
 31
0.0
  0
LINE
  5
1412
  8
TITLE
 10
160.3249313032721091
 20
38.7625699248833016
 30
0.0
 11
161.2940380682470902
 21
39.7316766898617999
 31
0.0
  0
LINE
  5
1413
  8
TITLE
 10
160.4122161759192977
 20
38.7625699248833016
 30
0.0
 11
161.3219935781804111
 21
39.6723473271444291
 31
0.0
  0
LINE
  5
1414
  8
TITLE
 10
160.4995010485664011
 20
38.7625699248833016
 30
0.0
 11
161.349949088106996
 21
39.6130179644270086
 31
0.0
  0
LINE
  5
1415
  8
TITLE
 10
160.5867859212062001
 20
38.7625699248833016
 30
0.0
 11
161.3779045980404021
 21
39.5536886017133966
 31
0.0
  0
LINE
  5
1416
  8
TITLE
 10
160.6740707938537014
 20
38.7625699248833016
 30
0.0
 11
161.4058601079736945
 21
39.4943592390000831
 31
0.0
  0
LINE
  5
1417
  8
TITLE
 10
160.76135566650089
 20
38.7625699248833016
 30
0.0
 11
161.4338156178999952
 21
39.4350298762789109
 31
0.0
  0
LINE
  5
1418
  8
TITLE
 10
160.7302286108524072
 20
37.7713092701196871
 30
0.0
 11
162.4860067238026886
 21
39.5270873830696203
 31
0.0
  0
LINE
  5
1419
  8
TITLE
 10
160.293804247616805
 20
37.7713092701196871
 30
0.0
 11
160.8676920339285061
 21
38.3451970564312603
 31
0.0
  0
LINE
  5
141A
  8
TITLE
 10
160.3810891202639084
 20
37.7713092701196871
 30
0.0
 11
160.9549769065752116
 21
38.3451970564312603
 31
0.0
  0
LINE
  5
141B
  8
TITLE
 10
160.468373992911097
 20
37.7713092701196871
 30
0.0
 11
161.0422617792225992
 21
38.3451970564312603
 31
0.0
  0
LINE
  5
141C
  8
TITLE
 10
160.5556588655582004
 20
37.7713092701196871
 30
0.0
 11
161.1295466518697026
 21
38.3451970564312603
 31
0.0
  0
LINE
  5
141D
  8
TITLE
 10
160.6429437382055028
 20
37.7713092701196871
 30
0.0
 11
161.2168315245166923
 21
38.3451970564312603
 31
0.0
  0
LINE
  5
141E
  8
TITLE
 10
160.6161498781289936
 20
39.6647826082667123
 30
0.0
 11
160.8066555212209892
 21
39.8552882513581821
 31
0.0
  0
LINE
  5
141F
  8
TITLE
 10
160.644105388055209
 20
39.6054532455458528
 30
0.0
 11
160.8939403938680073
 21
39.8552882513581821
 31
0.0
  0
LINE
  5
1420
  8
TITLE
 10
160.6720608979888141
 20
39.5461238828318926
 30
0.0
 11
160.9812252665151107
 21
39.8552882513581821
 31
0.0
  0
LINE
  5
1421
  8
TITLE
 10
160.7000164079150863
 20
39.4867945201180319
 30
0.0
 11
161.068510139162214
 21
39.8552882513581821
 31
0.0
  0
LINE
  5
1422
  8
TITLE
 10
160.7279719178486062
 20
39.4274651573971084
 30
0.0
 11
161.155795011809488
 21
39.8552882513581821
 31
0.0
  0
LINE
  5
1423
  8
TITLE
 10
160.1299843450528044
 20
34.2906642069928367
 30
0.0
 11
162.1237383645749901
 21
36.2844182265114981
 31
0.0
  0
LINE
  5
1424
  8
TITLE
 10
160.2178847076257
 20
34.29127969691082
 30
0.0
 11
162.2110232372222072
 21
36.2844182265114981
 31
0.0
  0
LINE
  5
1425
  8
TITLE
 10
160.3094904118019883
 20
34.2956005284401471
 30
0.0
 11
162.2983081098695095
 21
36.2844182265114981
 31
0.0
  0
LINE
  5
1426
  8
TITLE
 10
160.4047662413036903
 20
34.3035914852985826
 30
0.0
 11
162.3855929825166982
 21
36.2844182265114981
 31
0.0
  0
LINE
  5
1427
  8
TITLE
 10
160.3188350089529877
 20
35.7887879605858217
 30
0.0
 11
160.8144652748821954
 21
36.2844182265114981
 31
0.0
  0
LINE
  5
1428
  8
TITLE
 10
160.4061198816002047
 20
35.7887879605858217
 30
0.0
 11
160.9017501475294125
 21
36.2844182265114981
 31
0.0
  0
LINE
  5
1429
  8
TITLE
 10
160.4934047542475071
 20
35.7887879605858217
 30
0.0
 11
160.9890350201694957
 21
36.2844182265114981
 31
0.0
  0
LINE
  5
142A
  8
TITLE
 10
160.5806896268946957
 20
35.7887879605858217
 30
0.0
 11
161.0763198928167981
 21
36.2844182265114981
 31
0.0
  0
LINE
  5
142B
  8
TITLE
 10
160.6679744995416002
 20
35.7887879605858217
 30
0.0
 11
161.1636047654637878
 21
36.2844182265114981
 31
0.0
  0
LINE
  5
142C
  8
TITLE
 10
160.7552593721889025
 20
35.7887879605858217
 30
0.0
 11
161.2508896381108912
 21
36.2844182265114981
 31
0.0
  0
LINE
  5
142D
  8
TITLE
 10
160.0426995914558006
 20
34.290664326043057
 30
0.0
 11
160.9916490559319016
 21
35.2396137905113918
 31
0.0
  0
LINE
  5
142E
  8
TITLE
 10
160.3238763064227896
 20
36.7539628571669397
 30
0.0
 11
160.8455924534534915
 21
37.2756790041941315
 31
0.0
  0
LINE
  5
142F
  8
TITLE
 10
160.4111611790696941
 20
36.7539628571669397
 30
0.0
 11
160.9328773261005949
 21
37.2756790041941315
 31
0.0
  0
LINE
  5
1430
  8
TITLE
 10
160.4984460517169964
 20
36.7539628571669397
 30
0.0
 11
161.0201621987405929
 21
37.2756790041941315
 31
0.0
  0
LINE
  5
1431
  8
TITLE
 10
160.5857309243639008
 20
36.7539628571669397
 30
0.0
 11
161.1074470713874121
 21
37.2756790041941315
 31
0.0
  0
LINE
  5
1432
  8
TITLE
 10
160.6730157970110895
 20
36.7539628571669397
 30
0.0
 11
161.1947319440351123
 21
37.2756790041941315
 31
0.0
  0
LINE
  5
1433
  8
TITLE
 10
160.7603006696581929
 20
36.7539628571669397
 30
0.0
 11
161.282016816682102
 21
37.2756790041941315
 31
0.0
  0
LINE
  5
1434
  8
TITLE
 10
160.5042345372619081
 20
34.3157749086096473
 30
0.0
 11
163.4641386328466126
 21
37.2756790041941315
 31
0.0
  0
LINE
  5
1435
  8
TITLE
 10
160.6085784827247096
 20
34.3328339814284575
 30
0.0
 11
163.5514235054936023
 21
37.2756790041941315
 31
0.0
  0
LINE
  5
1436
  8
TITLE
 10
160.7187216291270886
 20
34.3556922551838468
 30
0.0
 11
163.6387083781409046
 21
37.2756790041941315
 31
0.0
  0
LINE
  5
1437
  8
TITLE
 10
160.0148037945465944
 20
38.9761516520374016
 30
0.0
 11
160.4533672511745124
 21
39.4147151086646872
 31
0.0
  0
LINE
  5
1438
  8
TITLE
 10
160.0148037945465944
 20
38.8888667793900922
 30
0.0
 11
160.5406521238209905
 21
39.4147151086646872
 31
0.0
  0
LINE
  5
1439
  8
TITLE
 10
160.0148037945465944
 20
38.8015819067426619
 30
0.0
 11
160.6279369964686907
 21
39.4147151086646872
 31
0.0
  0
LINE
  5
143A
  8
TITLE
 10
160.0630766853306
 20
38.7625699248833016
 30
0.0
 11
160.7152218691157088
 21
39.4147151086646872
 31
0.0
  0
LINE
  5
143B
  8
TITLE
 10
160.1925566035357065
 20
38.0192011166204082
 30
0.0
 11
160.5185525433396094
 21
38.3451970564312603
 31
0.0
  0
LINE
  5
143C
  8
TITLE
 10
160.1925566035357065
 20
37.9319162439731485
 30
0.0
 11
160.6058374159867981
 21
38.3451970564312603
 31
0.0
  0
LINE
  5
143D
  8
TITLE
 10
160.1925566035357065
 20
37.8446313713262583
 30
0.0
 11
160.6931222886339015
 21
38.3451970564312603
 31
0.0
  0
LINE
  5
143E
  8
TITLE
 10
160.2065193749695027
 20
37.7713092701196871
 30
0.0
 11
160.7804071612810048
 21
38.3451970564312603
 31
0.0
  0
LINE
  5
143F
  8
TITLE
 10
160.1925566035357065
 20
38.1064859892675614
 30
0.0
 11
160.4312676706921934
 21
38.3451970564312603
 31
0.0
  0
LINE
  5
1440
  8
TITLE
 10
160.1925566035357065
 20
38.2810557345618605
 30
0.0
 11
160.2566979254052058
 21
38.3451970564312603
 31
0.0
  0
LINE
  5
1441
  8
TITLE
 10
160.1925566035357065
 20
38.1937708619145297
 30
0.0
 11
160.3439827980525081
 21
38.3451970564312603
 31
0.0
  0
LINE
  5
1442
  8
TITLE
 10
158.5840595303226053
 20
39.0292502227999378
 30
0.0
 11
159.3061145206150115
 21
39.7513052130924507
 31
0.0
  0
LINE
  5
1443
  8
TITLE
 10
158.6713444029697087
 20
39.0292502227999378
 30
0.0
 11
159.3061145206150115
 21
39.6640203404451412
 31
0.0
  0
LINE
  5
1444
  8
TITLE
 10
158.7586292756168973
 20
39.0292502227999378
 30
0.0
 11
159.3061145206150115
 21
39.5767354678016616
 31
0.0
  0
LINE
  5
1445
  8
TITLE
 10
158.8459141482564974
 20
39.0292502227999378
 30
0.0
 11
159.3061145206150115
 21
39.4894505951542385
 31
0.0
  0
LINE
  5
1446
  8
TITLE
 10
158.933199020903686
 20
39.0292502227999378
 30
0.0
 11
159.3061145206150115
 21
39.4021657225070712
 31
0.0
  0
LINE
  5
1447
  8
TITLE
 10
159.0204838935509883
 20
39.0292502227999378
 30
0.0
 11
159.3061145206150115
 21
39.3148808498637266
 31
0.0
  0
LINE
  5
1448
  8
TITLE
 10
159.1077687661980917
 20
39.0292502227999378
 30
0.0
 11
159.3061145206150115
 21
39.2275959772169003
 31
0.0
  0
LINE
  5
1449
  8
TITLE
 10
160.0148037945465944
 20
39.0634365246842279
 30
0.0
 11
160.3660823785268974
 21
39.4147151086646872
 31
0.0
  0
LINE
  5
144A
  8
TITLE
 10
159.1950536388451951
 20
39.0292502227999378
 30
0.0
 11
159.3061145206150115
 21
39.1403111045696122
 31
0.0
  0
LINE
  5
144B
  8
TITLE
 10
159.2823385114926111
 20
39.0292502227999378
 30
0.0
 11
159.3061145206150115
 21
39.0530262319227504
 31
0.0
  0
LINE
  5
144C
  8
TITLE
 10
160.0148037945465944
 20
39.4125760152694582
 30
0.0
 11
160.0169428879385123
 21
39.4147151086646872
 31
0.0
  0
LINE
  5
144D
  8
TITLE
 10
160.0148037945465944
 20
39.3252911426221701
 30
0.0
 11
160.1042277605857009
 21
39.4147151086646872
 31
0.0
  0
LINE
  5
144E
  8
TITLE
 10
160.0148037945465944
 20
39.2380062699749104
 30
0.0
 11
160.1915126332326906
 21
39.4147151086646872
 31
0.0
  0
LINE
  5
144F
  8
TITLE
 10
160.0148037945465944
 20
39.1507213973315373
 30
0.0
 11
160.2787975058799077
 21
39.4147151086646872
 31
0.0
  0
LINE
  5
1450
  8
TITLE
 10
160.5322833483357954
 20
39.8427706964112218
 30
0.0
 11
160.5448009032795085
 21
39.8552882513581821
 31
0.0
  0
LINE
  5
1451
  8
TITLE
 10
160.5602388582692015
 20
39.7834413336938013
 30
0.0
 11
160.6320857759266119
 21
39.8552882513581821
 31
0.0
  0
LINE
  5
1452
  8
TITLE
 10
160.5881943681953885
 20
39.7241119709801822
 30
0.0
 11
160.7193706485736016
 21
39.8552882513581821
 31
0.0
  0
LINE
  5
1453
  8
TITLE
 10
157.2747864406225062
 20
39.0292502227999378
 30
0.0
 11
158.1008244691805089
 21
39.8552882513581821
 31
0.0
  0
LINE
  5
1454
  8
TITLE
 10
157.3620713132694959
 20
39.0292502227999378
 30
0.0
 11
158.1881093418278965
 21
39.8552882513581821
 31
0.0
  0
LINE
  5
1455
  8
TITLE
 10
157.4493561859165141
 20
39.0292502227999378
 30
0.0
 11
158.2753942144749999
 21
39.8552882513581821
 31
0.0
  0
LINE
  5
1456
  8
TITLE
 10
157.536641058563589
 20
39.0292502227999378
 30
0.0
 11
158.3626790871219896
 21
39.8552882513581821
 31
0.0
  0
LINE
  5
1457
  8
TITLE
 10
157.6239259312108061
 20
39.0292502227999378
 30
0.0
 11
158.4499639597692067
 21
39.8552882513581821
 31
0.0
  0
LINE
  5
1458
  8
TITLE
 10
157.7112108038579095
 20
39.0292502227999378
 30
0.0
 11
158.5372488324165943
 21
39.8552882513581821
 31
0.0
  0
LINE
  5
1459
  8
TITLE
 10
158.4094897850281995
 20
39.0292502227999378
 30
0.0
 11
159.2355278135866001
 21
39.8552882513581821
 31
0.0
  0
LINE
  5
145A
  8
TITLE
 10
158.4967746576751892
 20
39.0292502227999378
 30
0.0
 11
159.3061145206150115
 21
39.8385900857397388
 31
0.0
  0
LINE
  5
145B
  8
TITLE
 10
157.7984956765048992
 20
39.0292502227999378
 30
0.0
 11
158.624533705056507
 21
39.8552882513581821
 31
0.0
  0
LINE
  5
145C
  8
TITLE
 10
157.8857805491454087
 20
39.0292502227999378
 30
0.0
 11
158.7118185777034967
 21
39.8552882513581821
 31
0.0
  0
LINE
  5
145D
  8
TITLE
 10
157.9730654217918868
 20
39.0292502227999378
 30
0.0
 11
158.7991034503507137
 21
39.8552882513581821
 31
0.0
  0
LINE
  5
145E
  8
TITLE
 10
158.0603502944393881
 20
39.0292502227999378
 30
0.0
 11
158.8863883229977034
 21
39.8552882513581821
 31
0.0
  0
LINE
  5
145F
  8
TITLE
 10
158.1476351670864915
 20
39.0292502227999378
 30
0.0
 11
158.9736731956450058
 21
39.8552882513581821
 31
0.0
  0
LINE
  5
1460
  8
TITLE
 10
158.2349200397337086
 20
39.0292502227999378
 30
0.0
 11
159.0609580682919955
 21
39.8552882513581821
 31
0.0
  0
LINE
  5
1461
  8
TITLE
 10
158.3222049123808119
 20
39.0292502227999378
 30
0.0
 11
159.1482429409392125
 21
39.8552882513581821
 31
0.0
  0
LINE
  5
1462
  8
TITLE
 10
160.0148037945465944
 20
35.9211811094081099
 30
0.0
 11
160.378040911646508
 21
36.2844182265114981
 31
0.0
  0
LINE
  5
1463
  8
TITLE
 10
160.0148037945465944
 20
35.8338962367612268
 30
0.0
 11
160.4653257842934124
 21
36.2844182265114981
 31
0.0
  0
LINE
  5
1464
  8
TITLE
 10
160.0569803910190103
 20
35.7887879605858217
 30
0.0
 11
160.5526106569406011
 21
36.2844182265114981
 31
0.0
  0
LINE
  5
1465
  8
TITLE
 10
160.144265263666
 20
35.7887879605858217
 30
0.0
 11
160.6398955295879887
 21
36.2844182265114981
 31
0.0
  0
LINE
  5
1466
  8
TITLE
 10
160.2315501363131887
 20
35.7887879605858217
 30
0.0
 11
160.7271804022350068
 21
36.2844182265114981
 31
0.0
  0
LINE
  5
1467
  8
TITLE
 10
160.0148037945465944
 20
34.5246231470680982
 30
0.0
 11
160.4916898709288944
 21
35.0015092234504408
 31
0.0
  0
LINE
  5
1468
  8
TITLE
 10
160.0148037945465944
 20
34.4373382744208101
 30
0.0
 11
160.6097119570970051
 21
35.0322464369712279
 31
0.0
  0
LINE
  5
1469
  8
TITLE
 10
160.0148037945465944
 20
34.3500534017739625
 30
0.0
 11
160.7536188846474943
 21
35.0888684918747629
 31
0.0
  0
LINE
  5
146A
  8
TITLE
 10
158.5588567945210912
 20
34.2906643640881867
 30
0.0
 11
159.4112888578837044
 21
35.1430964274547719
 31
0.0
  0
LINE
  5
146B
  8
TITLE
 10
158.6461416671610891
 20
34.2906643640881867
 30
0.0
 11
159.4838673296040952
 21
35.1283900265275122
 31
0.0
  0
LINE
  5
146C
  8
TITLE
 10
158.7334265398081925
 20
34.2906643640881867
 30
0.0
 11
159.4838673296040952
 21
35.041105153880217
 31
0.0
  0
LINE
  5
146D
  8
TITLE
 10
158.8207114124552106
 20
34.2906643640881867
 30
0.0
 11
159.4838673296040952
 21
34.9538202812333694
 31
0.0
  0
LINE
  5
146E
  8
TITLE
 10
160.0148037945465944
 20
34.786477765006147
 30
0.0
 11
160.2076590933635885
 21
34.9793330638266582
 31
0.0
  0
LINE
  5
146F
  8
TITLE
 10
160.0148037945465944
 20
34.6991928923588731
 30
0.0
 11
160.2942134577639024
 21
34.9786025555794495
 31
0.0
  0
LINE
  5
1470
  8
TITLE
 10
160.0148037945465944
 20
34.6119080197152229
 30
0.0
 11
160.388075304126005
 21
34.9851795292944416
 31
0.0
  0
LINE
  5
1471
  8
TITLE
 10
160.0148037945465944
 20
34.873762637653023
 30
0.0
 11
160.1211690158422982
 21
34.980127858948741
 31
0.0
  0
LINE
  5
1472
  8
TITLE
 10
158.907996285102513
 20
34.2906643640881867
 30
0.0
 11
159.4838673296040952
 21
34.8665354085897121
 31
0.0
  0
LINE
  5
1473
  8
TITLE
 10
158.9952811577499006
 20
34.2906643640881867
 30
0.0
 11
159.4838673296040952
 21
34.7792505359424666
 31
0.0
  0
LINE
  5
1474
  8
TITLE
 10
159.0825660303966913
 20
34.2906643640881867
 30
0.0
 11
159.4838673296040952
 21
34.6919656632953135
 31
0.0
  0
LINE
  5
1475
  8
TITLE
 10
159.1698509030439936
 20
34.2906643640881867
 30
0.0
 11
159.4838673296040952
 21
34.6046807906481391
 31
0.0
  0
LINE
  5
1476
  8
TITLE
 10
159.2571357756910118
 20
34.2906643640881867
 30
0.0
 11
159.4838673296040952
 21
34.5173959180011565
 31
0.0
  0
LINE
  5
1477
  8
TITLE
 10
159.3444206483380867
 20
34.2906643640881867
 30
0.0
 11
159.4838673296040952
 21
34.430111045353847
 31
0.0
  0
LINE
  5
1478
  8
TITLE
 10
159.431705520985787
 20
34.2906643640881867
 30
0.0
 11
159.4838673296040952
 21
34.3428261727071629
 31
0.0
  0
LINE
  5
1479
  8
TITLE
 10
160.0148037945465944
 20
34.9610475102968081
 30
0.0
 11
160.0338841431951096
 21
34.980127858948741
 31
0.0
  0
LINE
  5
147A
  8
TITLE
 10
160.1925566035357065
 20
37.0590675175088293
 30
0.0
 11
160.4091680902174062
 21
37.2756790041941315
 31
0.0
  0
LINE
  5
147B
  8
TITLE
 10
160.1925566035357065
 20
36.9717826448618467
 30
0.0
 11
160.4964529628647085
 21
37.2756790041941315
 31
0.0
  0
LINE
  5
147C
  8
TITLE
 10
160.1925566035357065
 20
36.8844977722146794
 30
0.0
 11
160.5837378355122098
 21
37.2756790041941315
 31
0.0
  0
LINE
  5
147D
  8
TITLE
 10
160.1925566035357065
 20
36.7972128995707592
 30
0.0
 11
160.6710227081588869
 21
37.2756790041941315
 31
0.0
  0
LINE
  5
147E
  8
TITLE
 10
160.236591433775601
 20
36.7539628571669397
 30
0.0
 11
160.7583075808061892
 21
37.2756790041941315
 31
0.0
  0
LINE
  5
147F
  8
TITLE
 10
160.0148037945465944
 20
36.183035727349683
 30
0.0
 11
160.1161862937049136
 21
36.2844182265114981
 31
0.0
  0
LINE
  5
1480
  8
TITLE
 10
160.0148037945465944
 20
36.095750854702672
 30
0.0
 11
160.2034711663517896
 21
36.2844182265114981
 31
0.0
  0
LINE
  5
1481
  8
TITLE
 10
160.0148037945465944
 20
36.0084659820552204
 30
0.0
 11
160.2907560389992057
 21
36.2844182265114981
 31
0.0
  0
LINE
  5
1482
  8
TITLE
 10
160.0148037945465944
 20
36.2703205999968006
 30
0.0
 11
160.0289014210648872
 21
36.2844182265114981
 31
0.0
  0
LINE
  5
1483
  8
TITLE
 10
160.1925566035357065
 20
37.23363726280283
 30
0.0
 11
160.2345983449235121
 21
37.2756790041941315
 31
0.0
  0
LINE
  5
1484
  8
TITLE
 10
160.1925566035357065
 20
37.1463523901558474
 30
0.0
 11
160.321883217570587
 21
37.2756790041941315
 31
0.0
  0
LINE
  5
1485
  8
TITLE
 10
156.7258744689449941
 20
34.2906643640881867
 30
0.0
 11
157.5783065323078915
 21
35.1430964274547719
 31
0.0
  0
LINE
  5
1486
  8
TITLE
 10
156.8131593415851057
 20
34.2906643640881867
 30
0.0
 11
157.6655914049555065
 21
35.1430964274547719
 31
0.0
  0
LINE
  5
1487
  8
TITLE
 10
156.9004442142320954
 20
34.2906643640881867
 30
0.0
 11
157.752876277602212
 21
35.1430964274547719
 31
0.0
  0
LINE
  5
1488
  8
TITLE
 10
156.9877290868795967
 20
34.2906643640881867
 30
0.0
 11
157.8401611502495996
 21
35.1430964274547719
 31
0.0
  0
LINE
  5
1489
  8
TITLE
 10
157.0750139595265864
 20
34.2906643640881867
 30
0.0
 11
157.9274460228897112
 21
35.1430964274547719
 31
0.0
  0
LINE
  5
148A
  8
TITLE
 10
157.1622988321738035
 20
34.2906643640881867
 30
0.0
 11
158.0147308955367009
 21
35.1430964274547719
 31
0.0
  0
LINE
  5
148B
  8
TITLE
 10
157.2495837048209069
 20
34.2906643640881867
 30
0.0
 11
158.1020157681836906
 21
35.1430964274547719
 31
0.0
  0
LINE
  5
148C
  8
TITLE
 10
157.3368685774678966
 20
34.2906643640881867
 30
0.0
 11
158.1893006408307087
 21
35.1430964274547719
 31
0.0
  0
LINE
  5
148D
  8
TITLE
 10
157.4241534501151989
 20
34.2906643640881867
 30
0.0
 11
158.27658551347821
 21
35.1430964274547719
 31
0.0
  0
LINE
  5
148E
  8
TITLE
 10
157.5114383227627002
 20
34.2906643640881867
 30
0.0
 11
158.3638703861251997
 21
35.1430964274547719
 31
0.0
  0
LINE
  5
148F
  8
TITLE
 10
157.5987231954096046
 20
34.2906643640881867
 30
0.0
 11
158.451155258772701
 21
35.1430964274547719
 31
0.0
  0
LINE
  5
1490
  8
TITLE
 10
157.6860080680496026
 20
34.2906643640881867
 30
0.0
 11
158.5384401314196054
 21
35.1430964274547719
 31
0.0
  0
LINE
  5
1491
  8
TITLE
 10
158.3842870492267139
 20
34.2906643640881867
 30
0.0
 11
159.2367191125900092
 21
35.1430964274547719
 31
0.0
  0
LINE
  5
1492
  8
TITLE
 10
158.4715719218739025
 20
34.2906643640881867
 30
0.0
 11
159.3240039852369136
 21
35.1430964274547719
 31
0.0
  0
LINE
  5
1493
  8
TITLE
 10
157.773292940696706
 20
34.2906643640881867
 30
0.0
 11
158.6257250040669078
 21
35.1430964274547719
 31
0.0
  0
LINE
  5
1494
  8
TITLE
 10
157.8605778133438093
 20
34.2906643640881867
 30
0.0
 11
158.7130098767136985
 21
35.1430964274547719
 31
0.0
  0
LINE
  5
1495
  8
TITLE
 10
157.9478626859909127
 20
34.2906643640881867
 30
0.0
 11
158.8002947493606882
 21
35.1430964274547719
 31
0.0
  0
LINE
  5
1496
  8
TITLE
 10
158.0351475586379024
 20
34.2906643640881867
 30
0.0
 11
158.8875796220009136
 21
35.1430964274547719
 31
0.0
  0
LINE
  5
1497
  8
TITLE
 10
158.1224324312852048
 20
34.2906643640881867
 30
0.0
 11
158.9748644946479885
 21
35.1430964274547719
 31
0.0
  0
LINE
  5
1498
  8
TITLE
 10
158.2097173039325071
 20
34.2906643640881867
 30
0.0
 11
159.0621493672952056
 21
35.1430964274547719
 31
0.0
  0
LINE
  5
1499
  8
TITLE
 10
158.2970021765794968
 20
34.2906643640881867
 30
0.0
 11
159.1494342399421953
 21
35.1430964274547719
 31
0.0
  0
LINE
  5
149A
  8
TITLE
 10
162.6816228647238063
 20
38.7625699248833016
 30
0.0
 11
163.7743411912024953
 21
39.8552882513581821
 31
0.0
  0
LINE
  5
149B
  8
TITLE
 10
162.7689077373709949
 20
38.7625699248833016
 30
0.0
 11
163.8616260638497124
 21
39.8552882513581821
 31
0.0
  0
LINE
  5
149C
  8
TITLE
 10
162.8561926100178994
 20
38.7625699248833016
 30
0.0
 11
163.8775382128440015
 21
39.7839155277055596
 31
0.0
  0
LINE
  5
149D
  8
TITLE
 10
162.943477482665088
 20
38.7625699248833016
 30
0.0
 11
163.8775382128440015
 21
39.6966306550585699
 31
0.0
  0
LINE
  5
149E
  8
TITLE
 10
163.0307623553123051
 20
38.7625699248833016
 30
0.0
 11
163.8775382128440015
 21
39.6093457824114097
 31
0.0
  0
LINE
  5
149F
  8
TITLE
 10
163.7290413364825099
 20
38.7625699248833016
 30
0.0
 11
164.821759662961199
 21
39.8552882513581821
 31
0.0
  0
LINE
  5
14A0
  8
TITLE
 10
163.1180472279596074
 20
38.7625699248833016
 30
0.0
 11
163.8775382128440015
 21
39.5220609097638516
 31
0.0
  0
LINE
  5
14A1
  8
TITLE
 10
163.2053321006067961
 20
38.7625699248833016
 30
0.0
 11
163.8775382128440015
 21
39.4347760371204998
 31
0.0
  0
LINE
  5
14A2
  8
TITLE
 10
163.2926169732465951
 20
38.7625699248833016
 30
0.0
 11
163.944762157031704
 21
39.4147151086646872
 31
0.0
  0
LINE
  5
14A3
  8
TITLE
 10
163.3799018458940111
 20
38.7625699248833016
 30
0.0
 11
164.0320470296790063
 21
39.4147151086646872
 31
0.0
  0
LINE
  5
14A4
  8
TITLE
 10
163.4671867185408871
 20
38.7625699248833016
 30
0.0
 11
164.1193319023259107
 21
39.4147151086646872
 31
0.0
  0
LINE
  5
14A5
  8
TITLE
 10
163.5544715911879052
 20
38.7625699248833016
 30
0.0
 11
164.2066167749730141
 21
39.4147151086646872
 31
0.0
  0
LINE
  5
14A6
  8
TITLE
 10
163.6417564638352076
 20
38.7625699248833016
 30
0.0
 11
164.7344747903138966
 21
39.8552882513581821
 31
0.0
  0
LINE
  5
14A7
  8
TITLE
 10
163.6106294081801025
 20
37.7713092701196871
 30
0.0
 11
164.4993693244232134
 21
38.6600491863592879
 31
0.0
  0
LINE
  5
14A8
  8
TITLE
 10
163.6979142808266943
 20
37.7713092701196871
 30
0.0
 11
164.4775131302743887
 21
38.5509081195674881
 31
0.0
  0
LINE
  5
14A9
  8
TITLE
 10
163.7851991534741956
 20
37.7713092701196871
 30
0.0
 11
164.4556569361330105
 21
38.4417670527711977
 31
0.0
  0
LINE
  5
14AA
  8
TITLE
 10
163.8724840261214126
 20
37.7713092701196871
 30
0.0
 11
164.4463718124328864
 21
38.3451970564312603
 31
0.0
  0
LINE
  5
14AB
  8
TITLE
 10
163.9597688987684876
 20
37.7713092701196871
 30
0.0
 11
164.5336566850799045
 21
38.3451970564312603
 31
0.0
  0
LINE
  5
14AC
  8
TITLE
 10
164.0470537714157047
 20
37.7713092701196871
 30
0.0
 11
164.6209415577272921
 21
38.3451970564312603
 31
0.0
  0
LINE
  5
14AD
  8
TITLE
 10
164.1343386440628933
 20
37.7713092701196871
 30
0.0
 11
164.7082264303743955
 21
38.3451970564312603
 31
0.0
  0
LINE
  5
14AE
  8
TITLE
 10
164.2216235167097125
 20
37.7713092701196871
 30
0.0
 11
164.795511303021101
 21
38.3451970564312603
 31
0.0
  0
LINE
  5
14AF
  8
TITLE
 10
164.3089083893572138
 20
37.7713092701196871
 30
0.0
 11
164.8827961756686022
 21
38.3451970564312603
 31
0.0
  0
LINE
  5
14B0
  8
TITLE
 10
164.3667346275161947
 20
39.662117833854758
 30
0.0
 11
164.5599050450196046
 21
39.8552882513581821
 31
0.0
  0
LINE
  5
14B1
  8
TITLE
 10
164.2889598913106113
 20
39.4970582250018296
 30
0.0
 11
164.6471899176669069
 21
39.8552882513581821
 31
0.0
  0
LINE
  5
14B2
  8
TITLE
 10
163.2075415353766914
 20
39.6376280861211399
 30
0.0
 11
163.4252017006139113
 21
39.8552882513581821
 31
0.0
  0
LINE
  5
14B3
  8
TITLE
 10
163.2075415353766914
 20
39.5503432134741431
 30
0.0
 11
163.512486573260901
 21
39.8552882513581821
 31
0.0
  0
LINE
  5
14B4
  8
TITLE
 10
163.2075415353766914
 20
39.4630583408266986
 30
0.0
 11
163.5997714459084023
 21
39.8552882513581821
 31
0.0
  0
LINE
  5
14B5
  8
TITLE
 10
163.2075415353766914
 20
39.8121978314117797
 30
0.0
 11
163.2506319553197045
 21
39.8552882513581821
 31
0.0
  0
LINE
  5
14B6
  8
TITLE
 10
163.2075415353766914
 20
39.7249129587649605
 30
0.0
 11
163.3379168279666942
 21
39.8552882513581821
 31
0.0
  0
LINE
  5
14B7
  8
TITLE
 10
164.4445093637150137
 20
39.8271774427006804
 30
0.0
 11
164.4726201723728138
 21
39.8552882513581821
 31
0.0
  0
LINE
  5
14B8
  8
TITLE
 10
163.2996798355059127
 20
35.6273773718663733
 30
0.0
 11
163.9567206901512009
 21
36.2844182265114981
 31
0.0
  0
LINE
  5
14B9
  8
TITLE
 10
163.331047176381901
 20
35.571459840098143
 30
0.0
 11
164.0440055627981053
 21
36.2844182265114981
 31
0.0
  0
LINE
  5
14BA
  8
TITLE
 10
163.3635807430025864
 20
35.5167085340721513
 30
0.0
 11
164.1312904354454076
 21
36.2844182265114981
 31
0.0
  0
LINE
  5
14BB
  8
TITLE
 10
163.3972585987534103
 20
35.4631015171688517
 30
0.0
 11
164.2185753080923973
 21
36.2844182265114981
 31
0.0
  0
LINE
  5
14BC
  8
TITLE
 10
163.4320615326095094
 20
35.4106195783846687
 30
0.0
 11
164.3058601807398134
 21
36.2844182265114981
 31
0.0
  0
LINE
  5
14BD
  8
TITLE
 10
163.4679728611995984
 20
35.3592460343243289
 30
0.0
 11
164.3931450533868031
 21
36.2844182265114981
 31
0.0
  0
LINE
  5
14BE
  8
TITLE
 10
163.5049782626142019
 20
35.3089665630958081
 30
0.0
 11
164.4804299260339064
 21
36.2844182265114981
 31
0.0
  0
LINE
  5
14BF
  8
TITLE
 10
163.5430656380576124
 20
35.259769065887852
 30
0.0
 11
164.5677147986810951
 21
36.2844182265114981
 31
0.0
  0
LINE
  5
14C0
  8
TITLE
 10
163.5822249979252092
 20
35.2116435531119478
 30
0.0
 11
164.6549996713210078
 21
36.2844182265114981
 31
0.0
  0
LINE
  5
14C1
  8
TITLE
 10
163.622448369907886
 20
35.1645820524548327
 30
0.0
 11
164.7422845439681964
 21
36.2844182265114981
 31
0.0
  0
LINE
  5
14C2
  8
TITLE
 10
164.3339391506933964
 20
35.7887879605858217
 30
0.0
 11
164.8295694166154988
 21
36.2844182265114981
 31
0.0
  0
LINE
  5
14C3
  8
TITLE
 10
163.9822080056086975
 20
34.8260627069778508
 30
0.0
 11
164.5481792694841943
 21
35.3920339708538592
 31
0.0
  0
LINE
  5
14C4
  8
TITLE
 10
164.031959710828005
 20
34.7885295395502609
 30
0.0
 11
164.5890695932961876
 21
35.3456394220151395
 31
0.0
  0
LINE
  5
14C5
  8
TITLE
 10
164.0827993326307137
 20
34.7520842887096322
 30
0.0
 11
164.6323034686625988
 21
35.3015884247377727
 31
0.0
  0
LINE
  5
14C6
  8
TITLE
 10
164.1347400956651086
 20
34.7167401791004693
 30
0.0
 11
164.6778773617969023
 21
35.2598774452253068
 31
0.0
  0
LINE
  5
14C7
  8
TITLE
 10
164.1877975154903027
 20
34.6825127262747799
 30
0.0
 11
164.7258080416459904
 21
35.2205232524301692
 31
0.0
  0
LINE
  5
14C8
  8
TITLE
 10
164.2419895507497927
 20
34.6494198888907476
 30
0.0
 11
164.7761333176406993
 21
35.1835636557780305
 31
0.0
  0
LINE
  5
14C9
  8
TITLE
 10
164.2973367851213879
 20
34.6174822506113884
 30
0.0
 11
164.8289137468499064
 21
35.1490592123437509
 31
0.0
  0
LINE
  5
14CA
  8
TITLE
 10
164.3538626434961998
 20
34.5867232363428485
 30
0.0
 11
164.8842354959977001
 21
35.1170960888404977
 31
0.0
  0
LINE
  5
14CB
  8
TITLE
 10
163.8859261674095933
 20
34.9043506140732092
 30
0.0
 11
164.4735467605497092
 21
35.4919712072138509
 31
0.0
  0
LINE
  5
14CC
  8
TITLE
 10
163.9335331571238044
 20
34.8646727311368565
 30
0.0
 11
164.5096564882477139
 21
35.4407960622641696
 31
0.0
  0
LINE
  5
14CD
  8
TITLE
 10
162.6612458089016116
 20
34.2906643640881867
 30
0.0
 11
163.2911561520587043
 21
34.9205747072454216
 31
0.0
  0
LINE
  5
14CE
  8
TITLE
 10
162.7485306815486865
 20
34.2906643640881867
 30
0.0
 11
163.2911561520587043
 21
34.8332898345987232
 31
0.0
  0
LINE
  5
14CF
  8
TITLE
 10
162.8358155541957046
 20
34.2906643640881867
 30
0.0
 11
163.2911561520587043
 21
34.7460049619547817
 31
0.0
  0
LINE
  5
14D0
  8
TITLE
 10
162.923100426842808
 20
34.2906643640881867
 30
0.0
 11
163.2911561520587043
 21
34.658720089307927
 31
0.0
  0
LINE
  5
14D1
  8
TITLE
 10
163.0103852994899114
 20
34.2906643640881867
 30
0.0
 11
163.2911561520587043
 21
34.5714352166604968
 31
0.0
  0
LINE
  5
14D2
  8
TITLE
 10
163.0976701721372137
 20
34.2906643640881867
 30
0.0
 11
163.2911561520587043
 21
34.4841503440168395
 31
0.0
  0
LINE
  5
14D3
  8
TITLE
 10
163.184955044777297
 20
34.2906643640881867
 30
0.0
 11
163.2911561520587043
 21
34.3968654713697433
 31
0.0
  0
LINE
  5
14D4
  8
TITLE
 10
163.2722399174242014
 20
34.2906643640881867
 30
0.0
 11
163.2911561520587043
 21
34.3095805987226896
 31
0.0
  0
LINE
  5
14D5
  8
TITLE
 10
163.6637297269319049
 20
35.1185785368278829
 30
0.0
 11
164.3326775665715047
 21
35.7875263764638234
 31
0.0
  0
LINE
  5
14D6
  8
TITLE
 10
163.7060649334777906
 20
35.0736288707268784
 30
0.0
 11
164.3550569315960956
 21
35.7226208688489493
 31
0.0
  0
LINE
  5
14D7
  8
TITLE
 10
163.7494517091608941
 20
35.0297307737624806
 30
0.0
 11
164.3805267114624939
 21
35.6608057760679102
 31
0.0
  0
LINE
  5
14D8
  8
TITLE
 10
163.7938896087619014
 20
34.9868838007198235
 30
0.0
 11
164.4088698601192107
 21
35.6018640520774809
 31
0.0
  0
LINE
  5
14D9
  8
TITLE
 10
163.8393800183625899
 20
34.9450893376663032
 30
0.0
 11
164.4399192005500083
 21
35.5456285198610686
 31
0.0
  0
LINE
  5
14DA
  8
TITLE
 10
163.727986339640097
 20
36.7539628571669397
 30
0.0
 11
164.2497024866636082
 21
37.2756790041941315
 31
0.0
  0
LINE
  5
14DB
  8
TITLE
 10
163.8152712122872003
 20
36.7539628571669397
 30
0.0
 11
164.3369873593111095
 21
37.2756790041941315
 31
0.0
  0
LINE
  5
14DC
  8
TITLE
 10
163.902556084927113
 20
36.7539628571669397
 30
0.0
 11
164.4242722319579002
 21
37.2756790041941315
 31
0.0
  0
LINE
  5
14DD
  8
TITLE
 10
163.9898409575746996
 20
36.7539628571669397
 30
0.0
 11
164.5115571046052025
 21
37.2756790041941315
 31
0.0
  0
LINE
  5
14DE
  8
TITLE
 10
163.2915619764042958
 20
36.7539628571669397
 30
0.0
 11
163.8132781234278923
 21
37.2756790041941315
 31
0.0
  0
LINE
  5
14DF
  8
TITLE
 10
163.3788468490517971
 20
36.7539628571669397
 30
0.0
 11
163.9005629960751946
 21
37.2756790041941315
 31
0.0
  0
LINE
  5
14E0
  8
TITLE
 10
163.4661317216989005
 20
36.7539628571669397
 30
0.0
 11
163.9878478687222128
 21
37.2756790041941315
 31
0.0
  0
LINE
  5
14E1
  8
TITLE
 10
163.553416594345606
 20
36.7539628571669397
 30
0.0
 11
164.0751327413694014
 21
37.2756790041941315
 31
0.0
  0
LINE
  5
14E2
  8
TITLE
 10
163.6407014669927094
 20
36.7539628571669397
 30
0.0
 11
164.1624176140167037
 21
37.2756790041941315
 31
0.0
  0
LINE
  5
14E3
  8
TITLE
 10
164.077125830221604
 20
36.7539628571669397
 30
0.0
 11
164.5988419772523912
 21
37.2756790041941315
 31
0.0
  0
LINE
  5
14E4
  8
TITLE
 10
164.1644107028687927
 20
36.7539628571669397
 30
0.0
 11
164.6861268498923039
 21
37.2756790041941315
 31
0.0
  0
LINE
  5
14E5
  8
TITLE
 10
164.2516955755158108
 20
36.7539628571669397
 30
0.0
 11
164.7734117225394073
 21
37.2756790041941315
 31
0.0
  0
LINE
  5
14E6
  8
TITLE
 10
164.3389804481629142
 20
36.7539628571669397
 30
0.0
 11
164.8606965951867096
 21
37.2756790041941315
 31
0.0
  0
LINE
  5
14E7
  8
TITLE
 10
160.8486405391477092
 20
38.7625699248833016
 30
0.0
 11
161.5007857229327044
 21
39.4147151086646872
 31
0.0
  0
LINE
  5
14E8
  8
TITLE
 10
160.9359254117950115
 20
38.7625699248833016
 30
0.0
 11
161.5880705955802057
 21
39.4147151086646872
 31
0.0
  0
LINE
  5
14E9
  8
TITLE
 10
161.0232102844422002
 20
38.7625699248833016
 30
0.0
 11
161.6753554682271101
 21
39.4147151086646872
 31
0.0
  0
LINE
  5
14EA
  8
TITLE
 10
161.1104951570891899
 20
38.7625699248833016
 30
0.0
 11
161.762640340867307
 21
39.4147151086646872
 31
0.0
  0
LINE
  5
14EB
  8
TITLE
 10
161.1776747199369026
 20
38.7424646150868597
 30
0.0
 11
162.2904983562079906
 21
39.8552882513581821
 31
0.0
  0
LINE
  5
14EC
  8
TITLE
 10
161.9833438835538004
 20
38.7625699248833016
 30
0.0
 11
162.635489067331406
 21
39.4147151086646872
 31
0.0
  0
LINE
  5
14ED
  8
TITLE
 10
160.8175134834924052
 20
37.7713092701196871
 30
0.0
 11
162.4860067238026886
 21
39.4398025104227798
 31
0.0
  0
LINE
  5
14EE
  8
TITLE
 10
160.9047983561395085
 20
37.7713092701196871
 30
0.0
 11
162.548204194691607
 21
39.4147151086646872
 31
0.0
  0
LINE
  5
14EF
  8
TITLE
 10
161.2359267813656061
 20
38.4515771859271993
 30
0.0
 11
162.4860067238026886
 21
39.7016571283607078
 31
0.0
  0
LINE
  5
14F0
  8
TITLE
 10
161.2504897967228885
 20
38.3788553286371581
 30
0.0
 11
162.4860067238026886
 21
39.6143722557170719
 31
0.0
  0
LINE
  5
14F1
  8
TITLE
 10
161.1922377352940998
 20
38.6697427577972377
 30
0.0
 11
162.3777832288552929
 21
39.8552882513581821
 31
0.0
  0
LINE
  5
14F2
  8
TITLE
 10
161.206800750651297
 20
38.5970209005070686
 30
0.0
 11
162.4650681015025953
 21
39.8552882513581821
 31
0.0
  0
LINE
  5
14F3
  8
TITLE
 10
161.2213637660086079
 20
38.5242990432175105
 30
0.0
 11
162.4860067238026886
 21
39.788942001008138
 31
0.0
  0
LINE
  5
14F4
  8
TITLE
 10
160.9920832287870098
 20
37.7713092701196871
 30
0.0
 11
161.9485379775076979
 21
38.7277640188401193
 31
0.0
  0
LINE
  5
14F5
  8
TITLE
 10
161.0793681014336869
 20
37.7713092701196871
 30
0.0
 11
161.9631009928646961
 21
38.6550421615505684
 31
0.0
  0
LINE
  5
14F6
  8
TITLE
 10
161.1666529740811029
 20
37.7713092701196871
 30
0.0
 11
161.9776640082216943
 21
38.5823203042568892
 31
0.0
  0
LINE
  5
14F7
  8
TITLE
 10
161.2539378467282063
 20
37.7713092701196871
 30
0.0
 11
161.9922270235786073
 21
38.5095984469667272
 31
0.0
  0
LINE
  5
14F8
  8
TITLE
 10
161.3412227193753097
 20
37.7713092701196871
 30
0.0
 11
162.0067900389360034
 21
38.4368765896767215
 31
0.0
  0
LINE
  5
14F9
  8
TITLE
 10
161.428507592022612
 20
37.7713092701196871
 30
0.0
 11
162.0213530542860099
 21
38.3641547323830494
 31
0.0
  0
LINE
  5
14FA
  8
TITLE
 10
161.5157924646696017
 20
37.7713092701196871
 30
0.0
 11
162.0896802509811891
 21
38.3451970564312603
 31
0.0
  0
LINE
  5
14FB
  8
TITLE
 10
161.603077337316904
 20
37.7713092701196871
 30
0.0
 11
162.1769651236282073
 21
38.3451970564312603
 31
0.0
  0
LINE
  5
14FC
  8
TITLE
 10
161.6903622099569873
 20
37.7713092701196871
 30
0.0
 11
162.2642499962753959
 21
38.3451970564312603
 31
0.0
  0
LINE
  5
14FD
  8
TITLE
 10
161.7776470826038917
 20
37.7713092701196871
 30
0.0
 11
162.351534868914996
 21
38.3451970564312603
 31
0.0
  0
LINE
  5
14FE
  8
TITLE
 10
161.864931955251194
 20
37.7713092701196871
 30
0.0
 11
162.4388197415628099
 21
38.3451970564312603
 31
0.0
  0
LINE
  5
14FF
  8
TITLE
 10
161.9522168278982122
 20
37.7713092701196871
 30
0.0
 11
162.5261046142097996
 21
38.3451970564312603
 31
0.0
  0
LINE
  5
1500
  8
TITLE
 10
162.0395017005455998
 20
37.7713092701196871
 30
0.0
 11
162.613389486856704
 21
38.3451970564312603
 31
0.0
  0
LINE
  5
1501
  8
TITLE
 10
161.8160100463356059
 20
39.6426545594200732
 30
0.0
 11
162.0286437382738995
 21
39.8552882513581821
 31
0.0
  0
LINE
  5
1502
  8
TITLE
 10
161.8160100463356059
 20
39.5553696867727993
 30
0.0
 11
162.1159286109208892
 21
39.8552882513581821
 31
0.0
  0
LINE
  5
1503
  8
TITLE
 10
161.8160100463356059
 20
39.4680848141256533
 30
0.0
 11
162.2032134835679926
 21
39.8552882513581821
 31
0.0
  0
LINE
  5
1504
  8
TITLE
 10
161.8160100463356059
 20
39.8172243047142018
 30
0.0
 11
161.8540739929798917
 21
39.8552882513581821
 31
0.0
  0
LINE
  5
1505
  8
TITLE
 10
161.8160100463356059
 20
39.7299394320670771
 30
0.0
 11
161.9413588656267109
 21
39.8552882513581821
 31
0.0
  0
LINE
  5
1506
  8
TITLE
 10
160.8425442448360059
 20
35.7887879605858217
 30
0.0
 11
161.3381745107579945
 21
36.2844182265114981
 31
0.0
  0
LINE
  5
1507
  8
TITLE
 10
160.9298291174833082
 20
35.7887879605858217
 30
0.0
 11
161.4254593834048137
 21
36.2844182265114981
 31
0.0
  0
LINE
  5
1508
  8
TITLE
 10
161.0171139901302979
 20
35.7887879605858217
 30
0.0
 11
161.5127442560522013
 21
36.2844182265114981
 31
0.0
  0
LINE
  5
1509
  8
TITLE
 10
161.1043988627774866
 20
35.7887879605858217
 30
0.0
 11
161.6000291286995889
 21
36.2844182265114981
 31
0.0
  0
LINE
  5
150A
  8
TITLE
 10
161.1916837354175129
 20
35.7887879605858217
 30
0.0
 11
161.6873140013464081
 21
36.2844182265114981
 31
0.0
  0
LINE
  5
150B
  8
TITLE
 10
161.2789686080649005
 20
35.7887879605858217
 30
0.0
 11
161.7745988739939094
 21
36.2844182265114981
 31
0.0
  0
LINE
  5
150C
  8
TITLE
 10
161.3589777037533963
 20
35.7815121836275409
 30
0.0
 11
161.8618837466408991
 21
36.2844182265114981
 31
0.0
  0
LINE
  5
150D
  8
TITLE
 10
161.3023556488498116
 20
35.6376052560768386
 30
0.0
 11
161.9491686192806981
 21
36.2844182265114981
 31
0.0
  0
LINE
  5
150E
  8
TITLE
 10
161.1516103502131898
 20
35.3995750847929429
 30
0.0
 11
162.0364534919280004
 21
36.2844182265114981
 31
0.0
  0
LINE
  5
150F
  8
TITLE
 10
161.4449806236150096
 20
34.6455268864400807
 30
0.0
 11
162.3507104215755135
 21
35.551256684396833
 31
0.0
  0
LINE
  5
1510
  8
TITLE
 10
161.7178684092629055
 20
34.8311297994367806
 30
0.0
 11
162.1651075085752041
 21
35.2783688987493491
 31
0.0
  0
LINE
  5
1511
  8
TITLE
 10
160.8475855423054952
 20
36.7539628571669397
 30
0.0
 11
161.3693016893290064
 21
37.2756790041941315
 31
0.0
  0
LINE
  5
1512
  8
TITLE
 10
160.9348704149527123
 20
36.7539628571669397
 30
0.0
 11
161.456586561976593
 21
37.2756790041941315
 31
0.0
  0
LINE
  5
1513
  8
TITLE
 10
161.0221552875997872
 20
36.7539628571669397
 30
0.0
 11
161.5438714346234974
 21
37.2756790041941315
 31
0.0
  0
LINE
  5
1514
  8
TITLE
 10
161.1094401602470043
 20
36.7539628571669397
 30
0.0
 11
161.6311563072706008
 21
37.2756790041941315
 31
0.0
  0
LINE
  5
1515
  8
TITLE
 10
161.1967250328866896
 20
36.7539628571669397
 30
0.0
 11
161.7184411799179884
 21
37.2756790041941315
 31
0.0
  0
LINE
  5
1516
  8
TITLE
 10
161.2840099055339067
 20
36.7539628571669397
 30
0.0
 11
161.8057260525650065
 21
37.2756790041941315
 31
0.0
  0
LINE
  5
1517
  8
TITLE
 10
161.371294778181408
 20
36.7539628571669397
 30
0.0
 11
161.8930109252052034
 21
37.2756790041941315
 31
0.0
  0
LINE
  5
1518
  8
TITLE
 10
161.4585796508285966
 20
36.7539628571669397
 30
0.0
 11
161.9802957978521931
 21
37.2756790041941315
 31
0.0
  0
LINE
  5
1519
  8
TITLE
 10
161.5458645234755863
 20
36.7539628571669397
 30
0.0
 11
162.0675806704992965
 21
37.2756790041941315
 31
0.0
  0
LINE
  5
151A
  8
TITLE
 10
161.6331493961228887
 20
36.7539628571669397
 30
0.0
 11
162.1548655431463999
 21
37.2756790041941315
 31
0.0
  0
LINE
  5
151B
  8
TITLE
 10
161.7204342687697078
 20
36.7539628571669397
 30
0.0
 11
162.2421504157935033
 21
37.2756790041941315
 31
0.0
  0
LINE
  5
151C
  8
TITLE
 10
161.8077191414170102
 20
36.7539628571669397
 30
0.0
 11
162.3294352884410046
 21
37.2756790041941315
 31
0.0
  0
LINE
  5
151D
  8
TITLE
 10
162.5943379920767882
 20
38.7625699248833016
 30
0.0
 11
163.6870563185555056
 21
39.8552882513581821
 31
0.0
  0
LINE
  5
151E
  8
TITLE
 10
162.4197682467820982
 20
38.7625699248833016
 30
0.0
 11
163.0719134305674061
 21
39.4147151086646872
 31
0.0
  0
LINE
  5
151F
  8
TITLE
 10
162.5070531194295995
 20
38.7625699248833016
 30
0.0
 11
163.1591983032145095
 21
39.4147151086646872
 31
0.0
  0
LINE
  5
1520
  8
TITLE
 10
162.0706287562009038
 20
38.7625699248833016
 30
0.0
 11
162.7227739399787083
 21
39.4147151086646872
 31
0.0
  0
LINE
  5
1521
  8
TITLE
 10
162.1579136288478935
 20
38.7625699248833016
 30
0.0
 11
162.8100588126260106
 21
39.4147151086646872
 31
0.0
  0
LINE
  5
1522
  8
TITLE
 10
162.2451985014953948
 20
38.7625699248833016
 30
0.0
 11
162.8973436852726877
 21
39.4147151086646872
 31
0.0
  0
LINE
  5
1523
  8
TITLE
 10
162.332483374142214
 20
38.7625699248833016
 30
0.0
 11
162.984628557920189
 21
39.4147151086646872
 31
0.0
  0
LINE
  5
1524
  8
TITLE
 10
160.8359669095945037
 20
34.3856526630041799
 30
0.0
 11
163.7259932507809026
 21
37.2756790041941315
 31
0.0
  0
LINE
  5
1525
  8
TITLE
 10
162.4023921071135987
 20
34.8173745161212196
 30
0.0
 11
163.8694358175038985
 21
36.2844182265114981
 31
0.0
  0
LINE
  5
1526
  8
TITLE
 10
160.9622608884467923
 20
34.4246617692095427
 30
0.0
 11
163.2911561520587043
 21
36.7535570328214618
 31
0.0
  0
LINE
  5
1527
  8
TITLE
 10
161.1007575288529097
 20
34.4758735369718323
 30
0.0
 11
163.2911561520587043
 21
36.6662721601746071
 31
0.0
  0
LINE
  5
1528
  8
TITLE
 10
161.257245628852786
 20
34.5450767643208678
 30
0.0
 11
163.2911561520587043
 21
36.578987287530822
 31
0.0
  0
LINE
  5
1529
  8
TITLE
 10
162.4023921071135987
 20
34.9919442614118594
 30
0.0
 11
163.6948660722094928
 21
36.2844182265114981
 31
0.0
  0
LINE
  5
152A
  8
TITLE
 10
162.4023921071135987
 20
34.9046593887682519
 30
0.0
 11
163.7821509448569088
 21
36.2844182265114981
 31
0.0
  0
LINE
  5
152B
  8
TITLE
 10
162.4023921071135987
 20
35.6029383699419029
 30
0.0
 11
163.2911561520587043
 21
36.4917024148835196
 31
0.0
  0
LINE
  5
152C
  8
TITLE
 10
162.4023921071135987
 20
35.5156534972946005
 30
0.0
 11
163.2911561520587043
 21
36.4044175422362315
 31
0.0
  0
LINE
  5
152D
  8
TITLE
 10
162.4023921071135987
 20
35.42836862464776
 30
0.0
 11
163.2911561520587043
 21
36.3171326695928798
 31
0.0
  0
LINE
  5
152E
  8
TITLE
 10
162.4023921071135987
 20
35.3410837520003298
 30
0.0
 11
163.3457265816280142
 21
36.2844182265114981
 31
0.0
  0
LINE
  5
152F
  8
TITLE
 10
162.4023921071135987
 20
35.2537988793530275
 30
0.0
 11
163.4330114542752881
 21
36.2844182265114981
 31
0.0
  0
LINE
  5
1530
  8
TITLE
 10
162.4023921071135987
 20
35.1665140067061799
 30
0.0
 11
163.5202963269223062
 21
36.2844182265114981
 31
0.0
  0
LINE
  5
1531
  8
TITLE
 10
162.4023921071135987
 20
35.0792291340591618
 30
0.0
 11
163.6075811995696938
 21
36.2844182265114981
 31
0.0
  0
LINE
  5
1532
  8
TITLE
 10
162.4023921071135987
 20
34.7300896434778679
 30
0.0
 11
163.2911561520587043
 21
35.618853688419243
 31
0.0
  0
LINE
  5
1533
  8
TITLE
 10
162.4023921071135987
 20
34.6428047708307218
 30
0.0
 11
163.2911561520587043
 21
35.5315688157722178
 31
0.0
  0
LINE
  5
1534
  8
TITLE
 10
162.4023921071135987
 20
34.5555198981832916
 30
0.0
 11
163.2911561520587043
 21
35.4442839431249226
 31
0.0
  0
LINE
  5
1535
  8
TITLE
 10
162.4023921071135987
 20
34.4682350255360106
 30
0.0
 11
163.2911561520587043
 21
35.3569990704811232
 31
0.0
  0
LINE
  5
1536
  8
TITLE
 10
162.4023921071135987
 20
34.3809501528887509
 30
0.0
 11
163.2911561520587043
 21
35.2697141978342898
 31
0.0
  0
LINE
  5
1537
  8
TITLE
 10
162.4023921071135987
 20
34.2936652802417115
 30
0.0
 11
163.2911561520587043
 21
35.1824293251869875
 31
0.0
  0
LINE
  5
1538
  8
TITLE
 10
162.4866760636072058
 20
34.2906643640881867
 30
0.0
 11
163.2911561520587043
 21
35.0951444525401399
 31
0.0
  0
LINE
  5
1539
  8
TITLE
 10
162.5739609362541103
 20
34.2906643640881867
 30
0.0
 11
163.2911561520587043
 21
35.0078595798927026
 31
0.0
  0
LINE
  5
153A
  8
TITLE
 10
162.4023921071135987
 20
37.6104904408085332
 30
0.0
 11
163.1370987227400065
 21
38.3451970564312603
 31
0.0
  0
LINE
  5
153B
  8
TITLE
 10
162.4023921071135987
 20
37.5232055681614085
 30
0.0
 11
163.2243835953798907
 21
38.3451970564312603
 31
0.0
  0
LINE
  5
153C
  8
TITLE
 10
162.4023921071135987
 20
37.4359206955177299
 30
0.0
 11
163.3116684680267099
 21
38.3451970564312603
 31
0.0
  0
LINE
  5
153D
  8
TITLE
 10
162.4023921071135987
 20
37.3486358228709108
 30
0.0
 11
163.3989533406738985
 21
38.3451970564312603
 31
0.0
  0
LINE
  5
153E
  8
TITLE
 10
161.8950040140643125
 20
36.7539628571669397
 30
0.0
 11
163.4862382133210019
 21
38.3451970564312603
 31
0.0
  0
LINE
  5
153F
  8
TITLE
 10
161.9822888867111033
 20
36.7539628571669397
 30
0.0
 11
163.5735230859681906
 21
38.3451970564312603
 31
0.0
  0
LINE
  5
1540
  8
TITLE
 10
162.0695737593511865
 20
36.7539628571669397
 30
0.0
 11
163.6608079586154076
 21
38.3451970564312603
 31
0.0
  0
LINE
  5
1541
  8
TITLE
 10
162.1267865731927031
 20
37.7713092701196871
 30
0.0
 11
162.7006743595038927
 21
38.3451970564312603
 31
0.0
  0
LINE
  5
1542
  8
TITLE
 10
162.2140714458398065
 20
37.7713092701196871
 30
0.0
 11
162.787959232151195
 21
38.3451970564312603
 31
0.0
  0
LINE
  5
1543
  8
TITLE
 10
162.3013563184869099
 20
37.7713092701196871
 30
0.0
 11
162.8752441047982131
 21
38.3451970564312603
 31
0.0
  0
LINE
  5
1544
  8
TITLE
 10
162.3886411911342975
 20
37.7713092701196871
 30
0.0
 11
162.9625289774454018
 21
38.3451970564312603
 31
0.0
  0
LINE
  5
1545
  8
TITLE
 10
162.4023921071135987
 20
37.6977753134520484
 30
0.0
 11
163.0498138500927041
 21
38.3451970564312603
 31
0.0
  0
LINE
  5
1546
  8
TITLE
 10
162.3314283772926956
 20
36.7539628571669397
 30
0.0
 11
163.2911561520587043
 21
37.7136906319328915
 31
0.0
  0
LINE
  5
1547
  8
TITLE
 10
162.4023921071135987
 20
36.7376417143441074
 30
0.0
 11
163.2911561520587043
 21
37.6264057592860226
 31
0.0
  0
LINE
  5
1548
  8
TITLE
 10
162.4023921071135987
 20
36.650356841696798
 30
0.0
 11
163.2911561520587043
 21
37.5391208866387487
 31
0.0
  0
LINE
  5
1549
  8
TITLE
 10
162.4023921071135987
 20
36.5630719690499717
 30
0.0
 11
163.2911561520587043
 21
37.4518360139951128
 31
0.0
  0
LINE
  5
154A
  8
TITLE
 10
162.4023921071135987
 20
36.4757870964061794
 30
0.0
 11
163.2911561520587043
 21
37.3645511413478104
 31
0.0
  0
LINE
  5
154B
  8
TITLE
 10
162.4023921071135987
 20
36.3885022237593176
 30
0.0
 11
163.2911561520587043
 21
37.2772662687006431
 31
0.0
  0
LINE
  5
154C
  8
TITLE
 10
162.4023921071135987
 20
36.3012173511119016
 30
0.0
 11
163.3768537601995945
 21
37.2756790041941315
 31
0.0
  0
LINE
  5
154D
  8
TITLE
 10
169.875
 20
52.5
 30
0.0
 11
169.875
 21
42.5
 31
0.0
  0
LINE
  5
154E
  8
TITLE
 10
168.4212816788148928
 20
38.8287120169487281
 30
0.0
 11
169.4399319852992107
 21
39.8473623234402368
 31
0.0
  0
LINE
  5
154F
  8
TITLE
 10
168.4212816788148928
 20
38.7414271443014684
 30
0.0
 11
169.4399319852992107
 21
39.7600774507930694
 31
0.0
  0
LINE
  5
1550
  8
TITLE
 10
168.4212816788148928
 20
38.0431481631311499
 30
0.0
 11
169.505904792646902
 21
39.1277712769667119
 31
0.0
  0
LINE
  5
1551
  8
TITLE
 10
168.5011941101371917
 20
38.0357757218136996
 30
0.0
 11
169.5931896652938917
 21
39.1277712769667119
 31
0.0
  0
LINE
  5
1552
  8
TITLE
 10
168.4212816788148928
 20
38.4795725263631994
 30
0.0
 11
169.4399319852992107
 21
39.4982228328516385
 31
0.0
  0
LINE
  5
1553
  8
TITLE
 10
168.4212816788148928
 20
38.3922876537163802
 30
0.0
 11
169.4398915193334858
 21
39.4108974942383412
 31
0.0
  0
LINE
  5
1554
  8
TITLE
 10
168.4212816788148928
 20
38.3050027810727087
 30
0.0
 11
169.4360937726960117
 21
39.3198148749537779
 31
0.0
  0
LINE
  5
1555
  8
TITLE
 10
168.4212816788148928
 20
38.2177179084258825
 30
0.0
 11
169.4258450958390085
 21
39.2222813254532525
 31
0.0
  0
LINE
  5
1556
  8
TITLE
 10
168.4212816788148928
 20
38.1304330357784309
 30
0.0
 11
169.418619919999486
 21
39.1277712769667119
 31
0.0
  0
LINE
  5
1557
  8
TITLE
 10
168.6684176999474118
 20
38.1157144389696114
 30
0.0
 11
169.6804745379407109
 21
39.1277712769667119
 31
0.0
  0
LINE
  5
1558
  8
TITLE
 10
168.4212816788148928
 20
38.6541422716541803
 30
0.0
 11
169.4399319852992107
 21
39.6727925781457529
 31
0.0
  0
LINE
  5
1559
  8
TITLE
 10
168.4212816788148928
 20
38.5668573990071408
 30
0.0
 11
169.4399319852992107
 21
39.5855077054990687
 31
0.0
  0
LINE
  5
155A
  8
TITLE
 10
168.6542932481868888
 20
39.1490084589713874
 30
0.0
 11
169.3605730405774921
 21
39.8552882513581821
 31
0.0
  0
LINE
  5
155B
  8
TITLE
 10
168.7347124884624066
 20
39.5785671898316878
 30
0.0
 11
169.0114335499885954
 21
39.8552882513581821
 31
0.0
  0
LINE
  5
155C
  8
TITLE
 10
168.7347124884624066
 20
39.4912823171847123
 30
0.0
 11
169.0987184226358977
 21
39.8552882513581821
 31
0.0
  0
LINE
  5
155D
  8
TITLE
 10
168.7304105411141109
 20
39.3996954971891284
 30
0.0
 11
169.1860032952828874
 21
39.8552882513581821
 31
0.0
  0
LINE
  5
155E
  8
TITLE
 10
168.7082057942405129
 20
39.2902058776721432
 30
0.0
 11
169.2732881679301045
 21
39.8552882513581821
 31
0.0
  0
LINE
  5
155F
  8
TITLE
 10
168.4212816788148928
 20
34.5517532572739583
 30
0.0
 11
169.7182866230054969
 21
35.8487582014640793
 31
0.0
  0
LINE
  5
1560
  8
TITLE
 10
168.5623416274275996
 20
34.6055283332432992
 30
0.0
 11
169.6069855539342086
 21
35.6501722597462134
 31
0.0
  0
LINE
  5
1561
  8
TITLE
 10
168.8399613945265116
 20
34.7958632276948521
 30
0.0
 11
169.4166506594824
 21
35.3725524926471024
 31
0.0
  0
LINE
  5
1562
  8
TITLE
 10
168.6662401264713935
 20
35.7568453040454415
 30
0.0
 11
170.6807040925490071
 21
37.7713092701196871
 31
0.0
  0
LINE
  5
1563
  8
TITLE
 10
168.4212816788148928
 20
35.4246019837381283
 30
0.0
 11
170.7679889651961957
 21
37.7713092701196871
 31
0.0
  0
LINE
  5
1564
  8
TITLE
 10
168.9692027499145865
 20
36.2343776727792601
 30
0.0
 11
170.5630593840176914
 21
37.8282343068790468
 31
0.0
  0
LINE
  5
1565
  8
TITLE
 10
168.856573102768607
 20
36.034463152986298
 30
0.0
 11
170.593419219901989
 21
37.7713092701196871
 31
0.0
  0
LINE
  5
1566
  8
TITLE
 10
168.4223179677701978
 20
37.1713357256222281
 30
0.0
 11
169.0222915122606082
 21
37.7713092701196871
 31
0.0
  0
LINE
  5
1567
  8
TITLE
 10
168.5096028404173865
 20
37.1713357256222281
 30
0.0
 11
169.1095763849075979
 21
37.7713092701196871
 31
0.0
  0
LINE
  5
1568
  8
TITLE
 10
168.5968877130644046
 20
37.1713357256222281
 30
0.0
 11
169.1968612575549002
 21
37.7713092701196871
 31
0.0
  0
LINE
  5
1569
  8
TITLE
 10
168.6841725857044025
 20
37.1713357256222281
 30
0.0
 11
169.284146130201691
 21
37.7713092701196871
 31
0.0
  0
LINE
  5
156A
  8
TITLE
 10
168.7714574583515912
 20
37.1713357256222281
 30
0.0
 11
169.3714310028489933
 21
37.7713092701196871
 31
0.0
  0
LINE
  5
156B
  8
TITLE
 10
168.8587423309988083
 20
37.1713357256222281
 30
0.0
 11
169.4587158754962104
 21
37.7713092701196871
 31
0.0
  0
LINE
  5
156C
  8
TITLE
 10
168.9460272036459116
 20
37.1713357256222281
 30
0.0
 11
169.5460007481433991
 21
37.7713092701196871
 31
0.0
  0
LINE
  5
156D
  8
TITLE
 10
168.4212816788148928
 20
34.9881776205023911
 30
0.0
 11
171.2044133284246925
 21
37.7713092701196871
 31
0.0
  0
LINE
  5
156E
  8
TITLE
 10
168.4212816788148928
 20
34.8136078752117797
 30
0.0
 11
171.378983073719013
 21
37.7713092701196871
 31
0.0
  0
LINE
  5
156F
  8
TITLE
 10
168.4212816788148928
 20
34.7263230025647971
 30
0.0
 11
171.4662679463662016
 21
37.7713092701196871
 31
0.0
  0
LINE
  5
1570
  8
TITLE
 10
168.4212816788148928
 20
34.6390381299212606
 30
0.0
 11
171.5535528190137029
 21
37.7713092701196871
 31
0.0
  0
LINE
  5
1571
  8
TITLE
 10
168.4212816788148928
 20
34.900892747859082
 30
0.0
 11
171.2916982010721938
 21
37.7713092701196871
 31
0.0
  0
LINE
  5
1572
  8
TITLE
 10
168.4212816788148928
 20
35.1627473657968679
 30
0.0
 11
171.0298435831305994
 21
37.7713092701196871
 31
0.0
  0
LINE
  5
1573
  8
TITLE
 10
168.4212816788148928
 20
35.0754624931497219
 30
0.0
 11
171.1171284557775891
 21
37.7713092701196871
 31
0.0
  0
LINE
  5
1574
  8
TITLE
 10
168.4212816788148928
 20
35.3373171110912807
 30
0.0
 11
170.8552738378361937
 21
37.7713092701196871
 31
0.0
  0
LINE
  5
1575
  8
TITLE
 10
168.4212816788148928
 20
35.2500322384438505
 30
0.0
 11
170.9425587104836097
 21
37.7713092701196871
 31
0.0
  0
LINE
  5
1576
  8
TITLE
 10
166.8802463782290033
 20
38.9460892966481822
 30
0.0
 11
167.7160621819706989
 21
39.7819051003897286
 31
0.0
  0
LINE
  5
1577
  8
TITLE
 10
166.8211183242387108
 20
38.188682261491067
 30
0.0
 11
167.7160621819706989
 21
39.0836261192196019
 31
0.0
  0
LINE
  5
1578
  8
TITLE
 10
167.7812519233499984
 20
38.1886822614874433
 30
0.0
 11
168.1862085132000004
 21
38.5936388513337221
 31
0.0
  0
LINE
  5
1579
  8
TITLE
 10
167.868536795997187
 20
38.1886822614874433
 30
0.0
 11
168.1862085132000004
 21
38.5063539786864268
 31
0.0
  0
LINE
  5
157A
  8
TITLE
 10
167.9558216686444894
 20
38.1886822614874433
 30
0.0
 11
168.1862085132000004
 21
38.4190691060430396
 31
0.0
  0
LINE
  5
157B
  8
TITLE
 10
168.1303914139388098
 20
38.188682261491067
 30
0.0
 11
168.1862085132000004
 21
38.2444993607492307
 31
0.0
  0
LINE
  5
157C
  8
TITLE
 10
168.0431065412917917
 20
38.1886822614874433
 30
0.0
 11
168.1862085132000004
 21
38.331784233395787
 31
0.0
  0
LINE
  5
157D
  8
TITLE
 10
166.8802463782290033
 20
37.8113859522462405
 30
0.0
 11
167.9357736294381027
 21
38.8669132034547786
 31
0.0
  0
LINE
  5
157E
  8
TITLE
 10
166.8802463782290033
 20
37.7241010795991087
 30
0.0
 11
168.0230585020856893
 21
38.8669132034547786
 31
0.0
  0
LINE
  5
157F
  8
TITLE
 10
166.8802463782290033
 20
37.9859556975369088
 30
0.0
 11
167.7612038841440096
 21
38.8669132034547786
 31
0.0
  0
LINE
  5
1580
  8
TITLE
 10
166.8802463782290033
 20
37.8986708248897486
 30
0.0
 11
167.8484887567909141
 21
38.8669132034547786
 31
0.0
  0
LINE
  5
1581
  8
TITLE
 10
166.8802463782290033
 20
38.073240570183728
 30
0.0
 11
167.7160621819706989
 21
38.9090563739253028
 31
0.0
  0
LINE
  5
1582
  8
TITLE
 10
166.8802463782290033
 20
38.1605254428272076
 30
0.0
 11
167.7160621819706989
 21
38.9963412465727473
 31
0.0
  0
LINE
  5
1583
  8
TITLE
 10
166.8802463782290033
 20
39.1206590419387865
 30
0.0
 11
167.6148755876486121
 21
39.8552882513581821
 31
0.0
  0
LINE
  5
1584
  8
TITLE
 10
166.8802463782290033
 20
39.0333741692919602
 30
0.0
 11
167.70216046028861
 21
39.8552882513581821
 31
0.0
  0
LINE
  5
1585
  8
TITLE
 10
166.8802463782290033
 20
39.5570834051747013
 30
0.0
 11
167.1784512244130099
 21
39.8552882513581821
 31
0.0
  0
LINE
  5
1586
  8
TITLE
 10
166.8802463782290033
 20
39.4697985325275411
 30
0.0
 11
167.2657360970601985
 21
39.8552882513581821
 31
0.0
  0
LINE
  5
1587
  8
TITLE
 10
166.8802463782290033
 20
39.3825136598802317
 30
0.0
 11
167.3530209697071882
 21
39.8552882513581821
 31
0.0
  0
LINE
  5
1588
  8
TITLE
 10
166.8802463782290033
 20
39.2952287872334978
 30
0.0
 11
167.4403058423542063
 21
39.8552882513581821
 31
0.0
  0
LINE
  5
1589
  8
TITLE
 10
166.8802463782290033
 20
39.2079439145861031
 30
0.0
 11
167.5275907150015939
 21
39.8552882513581821
 31
0.0
  0
LINE
  5
158A
  8
TITLE
 10
166.8802463782290033
 20
39.6443682778218118
 30
0.0
 11
167.0911663517655938
 21
39.8552882513581821
 31
0.0
  0
LINE
  5
158B
  8
TITLE
 10
166.8802463782290033
 20
39.8189380231127714
 30
0.0
 11
166.9165966064713871
 21
39.8552882513581821
 31
0.0
  0
LINE
  5
158C
  8
TITLE
 10
166.8802463782290033
 20
39.731653150465732
 30
0.0
 11
167.0038814791186041
 21
39.8552882513581821
 31
0.0
  0
LINE
  5
158D
  8
TITLE
 10
168.7347124884624066
 20
39.665852062478848
 30
0.0
 11
168.9241486773416057
 21
39.8552882513581821
 31
0.0
  0
LINE
  5
158E
  8
TITLE
 10
168.7347124884624066
 20
39.8404218077696228
 30
0.0
 11
168.7495789320471999
 21
39.8552882513581821
 31
0.0
  0
LINE
  5
158F
  8
TITLE
 10
168.7347124884624066
 20
39.7531369351227823
 30
0.0
 11
168.8368638046943886
 21
39.8552882513581821
 31
0.0
  0
LINE
  5
1590
  8
TITLE
 10
164.9510295535351077
 20
38.7625699248833016
 30
0.0
 11
165.6031747373131964
 21
39.4147151086646872
 31
0.0
  0
LINE
  5
1591
  8
TITLE
 10
165.0383144261826089
 20
38.7625699248833016
 30
0.0
 11
165.6787444646328993
 21
39.4029999633297976
 31
0.0
  0
LINE
  5
1592
  8
TITLE
 10
165.1255992988226922
 20
38.7625699248833016
 30
0.0
 11
165.6787444646328993
 21
39.3157150906860124
 31
0.0
  0
LINE
  5
1593
  8
TITLE
 10
165.2128841714697103
 20
38.7625699248833016
 30
0.0
 11
165.6787444646328993
 21
39.2284302180391578
 31
0.0
  0
LINE
  5
1594
  8
TITLE
 10
165.3001690441168989
 20
38.7625699248833016
 30
0.0
 11
165.6787444646328993
 21
39.1411453453953726
 31
0.0
  0
LINE
  5
1595
  8
TITLE
 10
165.3874539167640023
 20
38.7625699248833016
 30
0.0
 11
165.6787444646328993
 21
39.0538604727482479
 31
0.0
  0
LINE
  5
1596
  8
TITLE
 10
165.5620236620580954
 20
38.7625699248833016
 30
0.0
 11
165.6787444646328993
 21
38.8792907274537995
 31
0.0
  0
LINE
  5
1597
  8
TITLE
 10
165.6493085347055114
 20
38.7625699248833016
 30
0.0
 11
165.6787444646328993
 21
38.7920058548069591
 31
0.0
  0
LINE
  5
1598
  8
TITLE
 10
166.1489076667079132
 20
38.8257446936528297
 30
0.0
 11
166.1900761765095922
 21
38.8669132034547786
 31
0.0
  0
LINE
  5
1599
  8
TITLE
 10
166.1489076667079132
 20
38.7384598210058471
 30
0.0
 11
166.2773610491568945
 21
38.8669132034547786
 31
0.0
  0
LINE
  5
159A
  8
TITLE
 10
165.4747387894111057
 20
38.7625699248833016
 30
0.0
 11
165.6787444646328993
 21
38.9665756001010806
 31
0.0
  0
LINE
  5
159B
  8
TITLE
 10
165.0071873705269923
 20
37.7713092701196871
 30
0.0
 11
165.5009916556439862
 21
38.2651135552331425
 31
0.0
  0
LINE
  5
159C
  8
TITLE
 10
165.0944722431746072
 20
37.7713092701196871
 30
0.0
 11
165.5009916556439862
 21
38.1778286825857123
 31
0.0
  0
LINE
  5
159D
  8
TITLE
 10
164.9199024978800026
 20
37.7713092701196871
 30
0.0
 11
165.49379028419159
 21
38.3451970564312603
 31
0.0
  0
LINE
  5
159E
  8
TITLE
 10
165.1817571158213127
 20
37.7713092701196871
 30
0.0
 11
165.5009916556439862
 21
38.0905438099418987
 31
0.0
  0
LINE
  5
159F
  8
TITLE
 10
165.2690419884690129
 20
37.7713092701196871
 30
0.0
 11
165.5009916556439862
 21
38.0032589372946177
 31
0.0
  0
LINE
  5
15A0
  8
TITLE
 10
165.3563268611088972
 20
37.7713092701196871
 30
0.0
 11
165.5009916556439862
 21
37.9159740646477488
 31
0.0
  0
LINE
  5
15A1
  8
TITLE
 10
165.443611733755688
 20
37.7713092701196871
 30
0.0
 11
165.5009916556439862
 21
37.828689192000482
 31
0.0
  0
LINE
  5
15A2
  8
TITLE
 10
166.1489076667079132
 20
38.4766052030680612
 30
0.0
 11
166.539215667098091
 21
38.8669132034547786
 31
0.0
  0
LINE
  5
15A3
  8
TITLE
 10
166.1489076667079132
 20
38.3893203304207589
 30
0.0
 11
166.6265005397380889
 21
38.8669132034547786
 31
0.0
  0
LINE
  5
15A4
  8
TITLE
 10
166.1489076667079132
 20
38.3020354577772935
 30
0.0
 11
166.713785412385306
 21
38.8669132034547786
 31
0.0
  0
LINE
  5
15A5
  8
TITLE
 10
166.1489076667079132
 20
38.5638900757114413
 30
0.0
 11
166.4519307944509023
 21
38.8669132034547786
 31
0.0
  0
LINE
  5
15A6
  8
TITLE
 10
166.1489076667079132
 20
38.6511749483585589
 30
0.0
 11
166.3646459218037137
 21
38.8669132034547786
 31
0.0
  0
LINE
  5
15A7
  8
TITLE
 10
166.2101242157156946
 20
38.188682261491067
 30
0.0
 11
167.7160621819706989
 21
39.6946202277462632
 31
0.0
  0
LINE
  5
15A8
  8
TITLE
 10
166.2974090883627127
 20
38.188682261491067
 30
0.0
 11
167.7160621819706989
 21
39.6073353550988188
 31
0.0
  0
LINE
  5
15A9
  8
TITLE
 10
166.3846939610099867
 20
38.1886822614874433
 30
0.0
 11
167.7160621819706989
 21
39.5200504824516585
 31
0.0
  0
LINE
  5
15AA
  8
TITLE
 10
166.47197883365709
 20
38.1886822614874433
 30
0.0
 11
167.7160621819706989
 21
39.4327656098043633
 31
0.0
  0
LINE
  5
15AB
  8
TITLE
 10
166.5592637062972869
 20
38.1886822614874433
 30
0.0
 11
167.7160621819706989
 21
39.3454807371575299
 31
0.0
  0
LINE
  5
15AC
  8
TITLE
 10
166.6465485789445893
 20
38.1886822614874433
 30
0.0
 11
167.7160621819706989
 21
39.2581958645102205
 31
0.0
  0
LINE
  5
15AD
  8
TITLE
 10
166.7338334515916927
 20
38.1886822614874433
 30
0.0
 11
167.7160621819706989
 21
39.1709109918632166
 31
0.0
  0
LINE
  5
15AE
  8
TITLE
 10
166.1489076667079132
 20
38.2147505851301119
 30
0.0
 11
166.8010702850324947
 21
38.8669132034547786
 31
0.0
  0
LINE
  5
15AF
  8
TITLE
 10
166.8802463782290033
 20
35.7165490087287907
 30
0.0
 11
167.7160621819706989
 21
36.5523648124697687
 31
0.0
  0
LINE
  5
15B0
  8
TITLE
 10
166.8802463782290033
 20
35.6292641360814812
 30
0.0
 11
167.7160621819706989
 21
36.4650799398227932
 31
0.0
  0
LINE
  5
15B1
  8
TITLE
 10
166.8802463782290033
 20
35.5419792634346479
 30
0.0
 11
167.7160621819706989
 21
36.3777950671756187
 31
0.0
  0
LINE
  5
15B2
  8
TITLE
 10
166.8802463782290033
 20
35.4546943907872176
 30
0.0
 11
167.7160621819706989
 21
36.2905101945321604
 31
0.0
  0
LINE
  5
15B3
  8
TITLE
 10
166.8802463782290033
 20
35.367409518143873
 30
0.0
 11
167.7160621819706989
 21
36.2032253218848581
 31
0.0
  0
LINE
  5
15B4
  8
TITLE
 10
166.8802463782290033
 20
35.2801246454964428
 30
0.0
 11
167.7160621819706989
 21
36.1159404492417693
 31
0.0
  0
LINE
  5
15B5
  8
TITLE
 10
166.8802463782290033
 20
35.1928397728492826
 30
0.0
 11
167.7160621819706989
 21
36.0286555765942111
 31
0.0
  0
LINE
  5
15B6
  8
TITLE
 10
166.8802463782290033
 20
35.9784036266702287
 30
0.0
 11
167.7160621819706989
 21
36.8142194304111996
 31
0.0
  0
LINE
  5
15B7
  8
TITLE
 10
166.8802463782290033
 20
35.891118754023239
 30
0.0
 11
167.7160621819706989
 21
36.726934557764217
 31
0.0
  0
LINE
  5
15B8
  8
TITLE
 10
166.8802463782290033
 20
35.803833881376093
 30
0.0
 11
167.7160621819706989
 21
36.6396496851170497
 31
0.0
  0
LINE
  5
15B9
  8
TITLE
 10
166.8802463782290033
 20
34.843700282264237
 30
0.0
 11
167.7160621819706989
 21
35.6795160860058118
 31
0.0
  0
LINE
  5
15BA
  8
TITLE
 10
166.8802463782290033
 20
34.7564154096170768
 30
0.0
 11
167.7160621819706989
 21
35.5922312133583816
 31
0.0
  0
LINE
  5
15BB
  8
TITLE
 10
166.8802463782290033
 20
34.6691305369701013
 30
0.0
 11
167.7160621819706989
 21
35.5049463407112214
 31
0.0
  0
LINE
  5
15BC
  8
TITLE
 10
166.8802463782290033
 20
34.5818456643227989
 30
0.0
 11
167.7160621819706989
 21
35.417661468067692
 31
0.0
  0
LINE
  5
15BD
  8
TITLE
 10
166.8802463782290033
 20
34.4945607916756387
 30
0.0
 11
167.7160621819706989
 21
35.3303765954208231
 31
0.0
  0
LINE
  5
15BE
  8
TITLE
 10
166.8802463782290033
 20
34.4072759190321591
 30
0.0
 11
167.7160621819706989
 21
35.2430917227737268
 31
0.0
  0
LINE
  5
15BF
  8
TITLE
 10
166.8802463782290033
 20
34.319991046384871
 30
0.0
 11
167.7160621819706989
 21
35.1558068501301975
 31
0.0
  0
LINE
  5
15C0
  8
TITLE
 10
166.9382045685759977
 20
34.2906643640881867
 30
0.0
 11
167.7160621819706989
 21
35.0685219774829093
 31
0.0
  0
LINE
  5
15C1
  8
TITLE
 10
167.0254894412234989
 20
34.2906643640881867
 30
0.0
 11
167.7160621819706989
 21
34.981237104835607
 31
0.0
  0
LINE
  5
15C2
  8
TITLE
 10
167.1127743138702044
 20
34.2906643640881867
 30
0.0
 11
167.7160621819706989
 21
34.8939522321883686
 31
0.0
  0
LINE
  5
15C3
  8
TITLE
 10
167.2000591865173078
 20
34.2906643640881867
 30
0.0
 11
167.7160621819706989
 21
34.8066673595414784
 31
0.0
  0
LINE
  5
15C4
  8
TITLE
 10
167.287344059165008
 20
34.2906643640881867
 30
0.0
 11
167.7160621819706989
 21
34.7193824868940268
 31
0.0
  0
LINE
  5
15C5
  8
TITLE
 10
167.3746289318117988
 20
34.2906643640881867
 30
0.0
 11
167.7160621819706989
 21
34.6320976142468098
 31
0.0
  0
LINE
  5
15C6
  8
TITLE
 10
167.4619138044589022
 20
34.2906643640881867
 30
0.0
 11
167.7160621819706989
 21
34.5448127415999124
 31
0.0
  0
LINE
  5
15C7
  8
TITLE
 10
167.5491986771062045
 20
34.2906643640881867
 30
0.0
 11
167.7160621819706989
 21
34.4575278689561202
 31
0.0
  0
LINE
  5
15C8
  8
TITLE
 10
167.6364835497533079
 20
34.2906643640881867
 30
0.0
 11
167.7160621819706989
 21
34.3702429963094076
 31
0.0
  0
LINE
  5
15C9
  8
TITLE
 10
166.8802463782290033
 20
35.10555490020581
 30
0.0
 11
167.7160621819706989
 21
35.9413707039471788
 31
0.0
  0
LINE
  5
15CA
  8
TITLE
 10
166.8802463782290033
 20
35.0182700275586285
 30
0.0
 11
167.7160621819706989
 21
35.8540858312999404
 31
0.0
  0
LINE
  5
15CB
  8
TITLE
 10
166.8802463782290033
 20
34.9309851549118022
 30
0.0
 11
167.7160621819706989
 21
35.7668009586526523
 31
0.0
  0
LINE
  5
15CC
  8
TITLE
 10
167.7520785339611109
 20
36.8502357823985278
 30
0.0
 11
168.1862085132000004
 21
37.28436576164097
 31
0.0
  0
LINE
  5
15CD
  8
TITLE
 10
167.8007365515140918
 20
36.8116089273111982
 30
0.0
 11
168.1862085132000004
 21
37.1970808889938525
 31
0.0
  0
LINE
  5
15CE
  8
TITLE
 10
167.8503588245476976
 20
36.773946327693892
 30
0.0
 11
168.1862085132000004
 21
37.1097960163468414
 31
0.0
  0
LINE
  5
15CF
  8
TITLE
 10
166.8802463782290033
 20
36.1529733719608686
 30
0.0
 11
168.1862085132000004
 21
37.4589355069319012
 31
0.0
  0
LINE
  5
15D0
  8
TITLE
 10
166.8802463782290033
 20
36.065688499317389
 30
0.0
 11
168.1862085132000004
 21
37.3716506342844923
 31
0.0
  0
LINE
  5
15D1
  8
TITLE
 10
167.9009540285356934
 20
36.73725665903509
 30
0.0
 11
168.1862085132000004
 21
37.0225111436997096
 31
0.0
  0
LINE
  5
15D2
  8
TITLE
 10
167.9525323819067069
 20
36.7015501397629009
 30
0.0
 11
168.1862085132000004
 21
36.9352262710522865
 31
0.0
  0
LINE
  5
15D3
  8
TITLE
 10
168.0051057237448902
 20
36.6668386089497815
 30
0.0
 11
168.1862085132000004
 21
36.8479413984051334
 31
0.0
  0
LINE
  5
15D4
  8
TITLE
 10
168.0586876060507961
 20
36.6331356186086978
 30
0.0
 11
168.1862085132000004
 21
36.7606565257582787
 31
0.0
  0
LINE
  5
15D5
  8
TITLE
 10
168.1132934023191865
 20
36.6004565422368415
 30
0.0
 11
168.1862085132000004
 21
36.6733716531108414
 31
0.0
  0
LINE
  5
15D6
  8
TITLE
 10
168.168940434535898
 20
36.568818701806201
 30
0.0
 11
168.1862085132000004
 21
36.5860867804673191
 31
0.0
  0
LINE
  5
15D7
  8
TITLE
 10
164.9449332592162136
 20
35.7887879605858217
 30
0.0
 11
165.4405635251457056
 21
36.2844182265114981
 31
0.0
  0
LINE
  5
15D8
  8
TITLE
 10
165.0322181318636012
 20
35.7887879605858217
 30
0.0
 11
165.5278483977853909
 21
36.2844182265114981
 31
0.0
  0
LINE
  5
15D9
  8
TITLE
 10
165.1195030045107046
 20
35.7887879605858217
 30
0.0
 11
165.6151332704324943
 21
36.2844182265114981
 31
0.0
  0
LINE
  5
15DA
  8
TITLE
 10
165.206787877157808
 20
35.7887879605858217
 30
0.0
 11
165.6787444646328993
 21
36.2607445480607495
 31
0.0
  0
LINE
  5
15DB
  8
TITLE
 10
165.2940727498049114
 20
35.7887879605858217
 30
0.0
 11
165.6787444646328993
 21
36.1734596754137812
 31
0.0
  0
LINE
  5
15DC
  8
TITLE
 10
165.3813576224521
 20
35.7887879605858217
 30
0.0
 11
165.6787444646328993
 21
36.0861748027665001
 31
0.0
  0
LINE
  5
15DD
  8
TITLE
 10
165.4686424950992887
 20
35.7887879605858217
 30
0.0
 11
165.6787444646328993
 21
35.9988899301191907
 31
0.0
  0
LINE
  5
15DE
  8
TITLE
 10
164.9213339269911103
 20
34.3686306660132317
 30
0.0
 11
165.5328311199230029
 21
34.980127858948741
 31
0.0
  0
LINE
  5
15DF
  8
TITLE
 10
164.991823221035105
 20
34.3518350874174629
 30
0.0
 11
165.6201159925697084
 21
34.980127858948741
 31
0.0
  0
LINE
  5
15E0
  8
TITLE
 10
165.0640599987613939
 20
34.3367869924924491
 30
0.0
 11
165.6787444646328993
 21
34.9514714583606434
 31
0.0
  0
LINE
  5
15E1
  8
TITLE
 10
165.1381461575232095
 20
34.3235882786108704
 30
0.0
 11
165.6787444646328993
 21
34.8641865857132132
 31
0.0
  0
LINE
  5
15E2
  8
TITLE
 10
165.214199096900586
 20
34.312356345341712
 30
0.0
 11
165.6787444646328993
 21
34.7769017130700178
 31
0.0
  0
LINE
  5
15E3
  8
TITLE
 10
165.2923550009595886
 20
34.303227376756702
 30
0.0
 11
165.6787444646328993
 21
34.6896168404227225
 31
0.0
  0
LINE
  5
15E4
  8
TITLE
 10
165.3727731004960901
 20
34.2963606036426967
 30
0.0
 11
165.6787444646328993
 21
34.6023319677791932
 31
0.0
  0
LINE
  5
15E5
  8
TITLE
 10
165.4556412979175946
 20
34.2919439284167495
 30
0.0
 11
165.6787444646328993
 21
34.5150470951322177
 31
0.0
  0
LINE
  5
15E6
  8
TITLE
 10
165.5416466062360996
 20
34.2906643640881867
 30
0.0
 11
165.6787444646328993
 21
34.4277622224852422
 31
0.0
  0
LINE
  5
15E7
  8
TITLE
 10
165.628931478883203
 20
34.2906643640881867
 30
0.0
 11
165.6787444646328993
 21
34.3404773498377978
 31
0.0
  0
LINE
  5
15E8
  8
TITLE
 10
165.555927367746591
 20
35.7887879605858217
 30
0.0
 11
165.6787444646328993
 21
35.9116050574722294
 31
0.0
  0
LINE
  5
15E9
  8
TITLE
 10
165.6432122403938081
 20
35.7887879605858217
 30
0.0
 11
165.6787444646328993
 21
35.8243201848249271
 31
0.0
  0
LINE
  5
15EA
  8
TITLE
 10
164.9499745566859019
 20
36.7539628571669397
 30
0.0
 11
165.471690703716888
 21
37.2756790041941315
 31
0.0
  0
LINE
  5
15EB
  8
TITLE
 10
165.0372594293328916
 20
36.7539628571669397
 30
0.0
 11
165.5009916556439862
 21
37.217695083474112
 31
0.0
  0
LINE
  5
15EC
  8
TITLE
 10
165.1245443019801939
 20
36.7539628571669397
 30
0.0
 11
165.5009916556439862
 21
37.1304102108301919
 31
0.0
  0
LINE
  5
15ED
  8
TITLE
 10
165.21182917462761
 20
36.7539628571669397
 30
0.0
 11
165.5009916556439862
 21
37.0431253381832306
 31
0.0
  0
LINE
  5
15EE
  8
TITLE
 10
165.2991140472745997
 20
36.7539628571669397
 30
0.0
 11
165.5009916556439862
 21
36.9558404655360491
 31
0.0
  0
LINE
  5
15EF
  8
TITLE
 10
165.3863989199215894
 20
36.7539628571669397
 30
0.0
 11
165.5009916556439862
 21
36.8685555928887609
 31
0.0
  0
LINE
  5
15F0
  8
TITLE
 10
165.4736837925688064
 20
36.7539628571669397
 30
0.0
 11
165.5009916556439862
 21
36.7812707202419134
 31
0.0
  0
LINE
  5
15F1
  8
TITLE
 10
166.1489076667079132
 20
36.6436228774920565
 30
0.0
 11
166.2453490475876094
 21
36.7400642583687187
 31
0.0
  0
LINE
  5
15F2
  8
TITLE
 10
166.1489076667079132
 20
35.7707741510275881
 30
0.0
 11
167.9804032283946071
 21
37.6022697127151133
 31
0.0
  0
LINE
  5
15F3
  8
TITLE
 10
166.1489076667079132
 20
35.6834892783807618
 30
0.0
 11
168.0323085520018935
 21
37.566890163671232
 31
0.0
  0
LINE
  5
15F4
  8
TITLE
 10
166.3107857489067101
 20
35.7580824879361998
 30
0.0
 11
168.0879763090337065
 21
37.5352730480557284
 31
0.0
  0
LINE
  5
15F5
  8
TITLE
 10
166.5537894893450073
 20
35.9138013557202385
 30
0.0
 11
168.147674442779504
 21
37.5076863091583093
 31
0.0
  0
LINE
  5
15F6
  8
TITLE
 10
166.1489076667079132
 20
35.9453438963184126
 30
0.0
 11
167.8872769633923951
 21
37.6837131930032285
 31
0.0
  0
LINE
  5
15F7
  8
TITLE
 10
166.1489076667079132
 20
35.8580590236712595
 30
0.0
 11
167.9320899496823927
 21
37.6412413066534128
 31
0.0
  0
LINE
  5
15F8
  8
TITLE
 10
166.6484898449195953
 20
37.1432050557002782
 30
0.0
 11
168.1862085132000004
 21
38.6809237239811594
 31
0.0
  0
LINE
  5
15F9
  8
TITLE
 10
166.1489076667079132
 20
36.5563380048450384
 30
0.0
 11
167.7160621819706989
 21
38.1234925201082788
 31
0.0
  0
LINE
  5
15FA
  8
TITLE
 10
166.1489076667079132
 20
36.469053132201239
 30
0.0
 11
167.7160621819706989
 21
38.0362076474608486
 31
0.0
  0
LINE
  5
15FB
  8
TITLE
 10
166.1489076667079132
 20
36.3817682595539793
 30
0.0
 11
167.7174250928918013
 21
37.9502856857315294
 31
0.0
  0
LINE
  5
15FC
  8
TITLE
 10
166.1489076667079132
 20
36.2944833869069683
 30
0.0
 11
167.7436177101332078
 21
37.8891934303255908
 31
0.0
  0
LINE
  5
15FD
  8
TITLE
 10
166.1489076667079132
 20
36.2071985142598578
 30
0.0
 11
167.7739543609517909
 21
37.8322452085041903
 31
0.0
  0
LINE
  5
15FE
  8
TITLE
 10
166.1489076667079132
 20
36.1199136416128113
 30
0.0
 11
167.8081289049378881
 21
37.7791348798391624
 31
0.0
  0
LINE
  5
15FF
  8
TITLE
 10
166.1489076667079132
 20
36.0326287689657221
 30
0.0
 11
167.8459417697459912
 21
37.7296628720079497
 31
0.0
  0
LINE
  5
1600
  8
TITLE
 10
168.4212816788148928
 20
37.4321540546048013
 30
0.0
 11
168.7604368943258919
 21
37.7713092701196871
 31
0.0
  0
LINE
  5
1601
  8
TITLE
 10
168.4212816788148928
 20
37.3448691819612506
 30
0.0
 11
168.847721766973109
 21
37.7713092701196871
 31
0.0
  0
LINE
  5
1602
  8
TITLE
 10
168.4212816788148928
 20
37.2575843093141614
 30
0.0
 11
168.9350066396206103
 21
37.7713092701196871
 31
0.0
  0
LINE
  5
1603
  8
TITLE
 10
168.4212816788148928
 20
37.5194389272520894
 30
0.0
 11
168.6731520216789875
 21
37.7713092701196871
 31
0.0
  0
LINE
  5
1604
  8
TITLE
 10
168.4212816788148928
 20
37.6940086725427435
 30
0.0
 11
168.4985822763846954
 21
37.7713092701196871
 31
0.0
  0
LINE
  5
1605
  8
TITLE
 10
168.4212816788148928
 20
37.6067237998995267
 30
0.0
 11
168.5858671490317136
 21
37.7713092701196871
 31
0.0
  0
LINE
  5
1606
  8
TITLE
 10
166.8712511458296035
 20
37.6278209745558598
 30
0.0
 11
168.1103433747323948
 21
38.8669132034547786
 31
0.0
  0
LINE
  5
1607
  8
TITLE
 10
166.8317516961751039
 20
37.5010366522503489
 30
0.0
 11
168.1862085132000004
 21
38.855493469275288
 31
0.0
  0
LINE
  5
1608
  8
TITLE
 10
166.7688823487389982
 20
37.3508824321707991
 30
0.0
 11
168.1862085132000004
 21
38.7682085966282699
 31
0.0
  0
LINE
  5
1609
  8
TITLE
 10
172.2947538600434996
 20
38.9489346743854412
 30
0.0
 11
172.4735902167965946
 21
39.1277710311311395
 31
0.0
  0
LINE
  5
160A
  8
TITLE
 10
172.2947538600434996
 20
38.8616498017382526
 30
0.0
 11
172.5608750894365926
 21
39.1277710311311395
 31
0.0
  0
LINE
  5
160B
  8
TITLE
 10
172.2947538600434996
 20
38.7743649290912984
 30
0.0
 11
172.6481599620838949
 21
39.1277710311311395
 31
0.0
  0
LINE
  5
160C
  8
TITLE
 10
172.2947538600434996
 20
38.4252254385027072
 30
0.0
 11
172.9972994526723085
 21
39.1277710311311395
 31
0.0
  0
LINE
  5
160D
  8
TITLE
 10
172.3802676251698927
 20
38.4234543309819614
 30
0.0
 11
173.0845843253194971
 21
39.1277710311311395
 31
0.0
  0
LINE
  5
160E
  8
TITLE
 10
170.93956907720559
 20
38.55388349065516
 30
0.0
 11
171.513456863516808
 21
39.1277712769667119
 31
0.0
  0
LINE
  5
160F
  8
TITLE
 10
170.8522842045582877
 20
38.55388349065516
 30
0.0
 11
171.4261719908695909
 21
39.1277712769667119
 31
0.0
  0
LINE
  5
1610
  8
TITLE
 10
171.2887085677938899
 20
38.55388349065516
 30
0.0
 11
171.8429023043036921
 21
39.1080772271688915
 31
0.0
  0
LINE
  5
1611
  8
TITLE
 10
171.0268539498524092
 20
38.55388349065516
 30
0.0
 11
171.6007417361637124
 21
39.1277712769667119
 31
0.0
  0
LINE
  5
1612
  8
TITLE
 10
171.1141388224997115
 20
38.55388349065516
 30
0.0
 11
171.6880266088109863
 21
39.1277712769667119
 31
0.0
  0
LINE
  5
1613
  8
TITLE
 10
171.2014236951469002
 20
38.55388349065516
 30
0.0
 11
171.7753114814582034
 21
39.1277712769667119
 31
0.0
  0
LINE
  5
1614
  8
TITLE
 10
172.2947538600434996
 20
38.5997951837968287
 30
0.0
 11
172.822729707377988
 21
39.1277710311311395
 31
0.0
  0
LINE
  5
1615
  8
TITLE
 10
172.2947538600434996
 20
38.5125103111497182
 30
0.0
 11
172.9100145800250061
 21
39.1277710311311395
 31
0.0
  0
LINE
  5
1616
  8
TITLE
 10
172.2947538600434996
 20
38.6870800564442732
 30
0.0
 11
172.7354448347307994
 21
39.1277710311311395
 31
0.0
  0
LINE
  5
1617
  8
TITLE
 10
171.7251329310223866
 20
38.55388349065516
 30
0.0
 11
171.8429023043036921
 21
38.6716528639401176
 31
0.0
  0
LINE
  5
1618
  8
TITLE
 10
171.8124178036696037
 20
38.55388349065516
 30
0.0
 11
171.8429023043036921
 21
38.5843679912928792
 31
0.0
  0
LINE
  5
1619
  8
TITLE
 10
171.5505631857282935
 20
38.55388349065516
 30
0.0
 11
171.8429023043036921
 21
38.8462226092342391
 31
0.0
  0
LINE
  5
161A
  8
TITLE
 10
171.6378480583753969
 20
38.55388349065516
 30
0.0
 11
171.8429023043036921
 21
38.7589377365870007
 31
0.0
  0
LINE
  5
161B
  8
TITLE
 10
171.3759934404409933
 20
38.55388349065516
 30
0.0
 11
171.8429023043036921
 21
39.0207923545253479
 31
0.0
  0
LINE
  5
161C
  8
TITLE
 10
171.4632783130809912
 20
38.55388349065516
 30
0.0
 11
171.8429023043036921
 21
38.9335074818780669
 31
0.0
  0
LINE
  5
161D
  8
TITLE
 10
172.2947538600434996
 20
39.1235044196764719
 30
0.0
 11
172.2990204715021889
 21
39.1277710311311395
 31
0.0
  0
LINE
  5
161E
  8
TITLE
 10
172.2947538600434996
 20
39.0362195470330064
 30
0.0
 11
172.3863053441496049
 21
39.1277710311311395
 31
0.0
  0
LINE
  5
161F
  8
TITLE
 10
170.862611349740888
 20
35.4219552205659127
 30
0.0
 11
171.4656565218045898
 21
36.0250003926290603
 31
0.0
  0
LINE
  5
1620
  8
TITLE
 10
170.9000852463958893
 20
35.3721442445698031
 30
0.0
 11
171.4993828035725869
 21
35.9714418017500677
 31
0.0
  0
LINE
  5
1621
  8
TITLE
 10
170.9384419205809991
 20
35.3232160461112272
 30
0.0
 11
171.5340054206997138
 21
35.9187795462302475
 31
0.0
  0
LINE
  5
1622
  8
TITLE
 10
170.9776750227823925
 20
35.2751642756658867
 30
0.0
 11
171.5695135565813985
 21
35.8670028094717495
 31
0.0
  0
LINE
  5
1623
  8
TITLE
 10
171.2312581249497043
 20
35.0050381419501022
 30
0.0
 11
171.800698278385596
 21
35.5744782953891701
 31
0.0
  0
LINE
  5
1624
  8
TITLE
 10
171.2765376076945927
 20
34.9630327520544668
 30
0.0
 11
171.8421973870102875
 21
35.5286925313702113
 31
0.0
  0
LINE
  5
1625
  8
TITLE
 10
171.4175689820116872
 20
34.8422095084307131
 30
0.0
 11
171.8429023043036921
 21
35.2675428307260574
 31
0.0
  0
LINE
  5
1626
  8
TITLE
 10
171.3226804473682137
 20
34.9218907190811692
 30
0.0
 11
171.8429023043036921
 21
35.4421125760204774
 31
0.0
  0
LINE
  5
1627
  8
TITLE
 10
171.3696895804874885
 20
34.88161497955344
 30
0.0
 11
171.8429023043036921
 21
35.3548277033731893
 31
0.0
  0
LINE
  5
1628
  8
TITLE
 10
171.017779302802893
 20
35.2279836830424387
 30
0.0
 11
171.6058976053564891
 21
35.8161019855924323
 31
0.0
  0
LINE
  5
1629
  8
TITLE
 10
171.0587505780758875
 20
35.1816700856647202
 30
0.0
 11
171.64314911252211
 21
35.7660686201147016
 31
0.0
  0
LINE
  5
162A
  8
TITLE
 10
171.1005857086450135
 20
35.1362203435867997
 30
0.0
 11
171.681260723883895
 21
35.7168953588257665
 31
0.0
  0
LINE
  5
162B
  8
TITLE
 10
171.1432825786214096
 20
35.0916323409237094
 30
0.0
 11
171.7202261419556066
 21
35.6685759042498987
 31
0.0
  0
LINE
  5
162C
  8
TITLE
 10
171.1868400837533102
 20
35.0479049734077535
 30
0.0
 11
171.7600400893294932
 21
35.6211049789768595
 31
0.0
  0
LINE
  5
162D
  8
TITLE
 10
172.2947538600434996
 20
34.7592607873541581
 30
0.0
 11
172.6873045738568919
 21
35.1518115011642394
 31
0.0
  0
LINE
  5
162E
  8
TITLE
 10
172.2947538600434996
 20
34.6719759147071898
 30
0.0
 11
172.7798872051805859
 21
35.1571092598440629
 31
0.0
  0
LINE
  5
162F
  8
TITLE
 10
172.2947538600434996
 20
34.5846910420600295
 30
0.0
 11
172.8731044927488085
 21
35.16304167476153
 31
0.0
  0
LINE
  5
1630
  8
TITLE
 10
172.2947538600434996
 20
34.4974061694165499
 30
0.0
 11
172.9669704731637978
 21
35.1696227825367913
 31
0.0
  0
LINE
  5
1631
  8
TITLE
 10
172.2947538600434996
 20
34.4101212967692476
 30
0.0
 11
173.0614997920750966
 21
35.1768672287939097
 31
0.0
  0
LINE
  5
1632
  8
TITLE
 10
172.2947538600434996
 20
34.8465456599978296
 30
0.0
 11
172.5953431363315076
 21
35.1471349362858874
 31
0.0
  0
LINE
  5
1633
  8
TITLE
 10
171.4663236890719986
 20
34.8036793428437008
 30
0.0
 11
171.8429023043036921
 21
35.1802579580826915
 31
0.0
  0
LINE
  5
1634
  8
TITLE
 10
171.5159598313090044
 20
34.7660306124332621
 30
0.0
 11
171.8429023043036921
 21
35.0929730854353679
 31
0.0
  0
LINE
  5
1635
  8
TITLE
 10
171.566484668353695
 20
34.7292705768344376
 30
0.0
 11
171.8429023043036921
 21
35.0056882127882716
 31
0.0
  0
LINE
  5
1636
  8
TITLE
 10
171.6702353943481114
 20
34.6584515575344696
 30
0.0
 11
171.8429023043036921
 21
34.8311184674941288
 31
0.0
  0
LINE
  5
1637
  8
TITLE
 10
171.7234819009966031
 20
34.6244131915329589
 30
0.0
 11
171.8429023043036921
 21
34.7438335948468335
 31
0.0
  0
LINE
  5
1638
  8
TITLE
 10
171.8327788769508118
 20
34.559140422195803
 30
0.0
 11
171.8429023043036921
 21
34.5692638495524278
 31
0.0
  0
LINE
  5
1639
  8
TITLE
 10
171.7776584731487901
 20
34.5913048910444587
 30
0.0
 11
171.8429023043036921
 21
34.6565487221995312
 31
0.0
  0
LINE
  5
163A
  8
TITLE
 10
171.6179066349436084
 20
34.6934076707739365
 30
0.0
 11
171.8429023043036921
 21
34.9184033401411114
 31
0.0
  0
LINE
  5
163B
  8
TITLE
 10
172.2947538600434996
 20
35.1084002779392677
 30
0.0
 11
172.3230593126129975
 21
35.1367057305093198
 31
0.0
  0
LINE
  5
163C
  8
TITLE
 10
172.2947538600434996
 20
35.0211154052922282
 30
0.0
 11
172.41323267235191
 21
35.1395942176005676
 31
0.0
  0
LINE
  5
163D
  8
TITLE
 10
172.2947538600434996
 20
34.9338305326449827
 30
0.0
 11
172.5039899720459005
 21
35.1430666446508582
 31
0.0
  0
LINE
  5
163E
  8
TITLE
 10
171.3027187651049132
 20
37.1713357256222281
 30
0.0
 11
171.8429023043036921
 21
37.7115192648283895
 31
0.0
  0
LINE
  5
163F
  8
TITLE
 10
171.3900036377449112
 20
37.1713357256222281
 30
0.0
 11
171.8429023043036921
 21
37.6242343921815774
 31
0.0
  0
LINE
  5
1640
  8
TITLE
 10
172.451469381625202
 20
37.5345224883260471
 30
0.0
 11
172.6360844012085067
 21
37.7191375079163294
 31
0.0
  0
LINE
  5
1641
  8
TITLE
 10
172.451469381625202
 20
37.4472376156787803
 30
0.0
 11
172.7233692738558943
 21
37.7191375079163294
 31
0.0
  0
LINE
  5
1642
  8
TITLE
 10
172.451469381625202
 20
37.3599527430314993
 30
0.0
 11
172.8106541465027988
 21
37.7191375079163294
 31
0.0
  0
LINE
  5
1643
  8
TITLE
 10
172.451469381625202
 20
37.2726678703878633
 30
0.0
 11
172.8979390191499874
 21
37.7191375079163294
 31
0.0
  0
LINE
  5
1644
  8
TITLE
 10
172.451469381625202
 20
37.1853829977411579
 30
0.0
 11
172.9852238917972045
 21
37.7191375079163294
 31
0.0
  0
LINE
  5
1645
  8
TITLE
 10
172.451469381625202
 20
37.0980981250937205
 30
0.0
 11
173.0725087644445068
 21
37.7191375079163294
 31
0.0
  0
LINE
  5
1646
  8
TITLE
 10
171.4772885103919862
 20
37.1713357256222281
 30
0.0
 11
171.8429023043036921
 21
37.5369495195342822
 31
0.0
  0
LINE
  5
1647
  8
TITLE
 10
171.5645733830390043
 20
37.1713357256222281
 30
0.0
 11
171.8429023043036921
 21
37.4496646468869514
 31
0.0
  0
LINE
  5
1648
  8
TITLE
 10
171.6518582556861929
 20
37.1713357256222281
 30
0.0
 11
171.8429023043036921
 21
37.3623797742401322
 31
0.0
  0
LINE
  5
1649
  8
TITLE
 10
171.8264280009805987
 20
37.1713357256222281
 30
0.0
 11
171.8429023043036921
 21
37.1878100289493503
 31
0.0
  0
LINE
  5
164A
  8
TITLE
 10
171.73914312833341
 20
37.1713357256222281
 30
0.0
 11
171.8429023043036921
 21
37.2750949015928299
 31
0.0
  0
LINE
  5
164B
  8
TITLE
 10
172.451469381625202
 20
37.7090922336202112
 30
0.0
 11
172.4615146559214054
 21
37.7191375079163294
 31
0.0
  0
LINE
  5
164C
  8
TITLE
 10
172.451469381625202
 20
37.6218073609732073
 30
0.0
 11
172.548799528568793
 21
37.7191375079163294
 31
0.0
  0
LINE
  5
164D
  8
TITLE
 10
171.2154338924576962
 20
37.1713357256222281
 30
0.0
 11
171.8154074369477939
 21
37.7713092701196871
 31
0.0
  0
LINE
  5
164E
  8
TITLE
 10
171.0408641471634041
 20
37.1713357256222281
 30
0.0
 11
171.6408376916606073
 21
37.7713092701196871
 31
0.0
  0
LINE
  5
164F
  8
TITLE
 10
171.1281490198103938
 20
37.1713357256222281
 30
0.0
 11
171.728122564307796
 21
37.7713092701196871
 31
0.0
  0
LINE
  5
1650
  8
TITLE
 10
169.7533630284632125
 20
38.0659564230793492
 30
0.0
 11
170.8151778823468874
 21
39.1277712769667119
 31
0.0
  0
LINE
  5
1651
  8
TITLE
 10
169.7533630284632125
 20
38.5023807863152072
 30
0.0
 11
170.5630593840176914
 21
39.3120771418698567
 31
0.0
  0
LINE
  5
1652
  8
TITLE
 10
169.7533630284632125
 20
38.4150959136682317
 30
0.0
 11
170.5630593840176914
 21
39.2247922692226965
 31
0.0
  0
LINE
  5
1653
  8
TITLE
 10
169.7533630284632125
 20
38.3278110410212491
 30
0.0
 11
170.5630593840176914
 21
39.1375073965757281
 31
0.0
  0
LINE
  5
1654
  8
TITLE
 10
169.7533630284632125
 20
38.2405261683740818
 30
0.0
 11
170.640608137052709
 21
39.1277712769667119
 31
0.0
  0
LINE
  5
1655
  8
TITLE
 10
169.7533630284632125
 20
38.1532412957269287
 30
0.0
 11
170.7278930096998977
 21
39.1277712769667119
 31
0.0
  0
LINE
  5
1656
  8
TITLE
 10
169.1938716242765963
 20
38.55388349065516
 30
0.0
 11
170.4952763849759947
 21
39.8552882513581821
 31
0.0
  0
LINE
  5
1657
  8
TITLE
 10
169.2811564969240123
 20
38.55388349065516
 30
0.0
 11
170.5630593840176914
 21
39.8357863777458618
 31
0.0
  0
LINE
  5
1658
  8
TITLE
 10
169.3684413695708031
 20
38.55388349065516
 30
0.0
 11
170.5630593840176914
 21
39.7485015051020696
 31
0.0
  0
LINE
  5
1659
  8
TITLE
 10
169.4557262422179065
 20
38.55388349065516
 30
0.0
 11
170.5630593840176914
 21
39.6612166324547815
 31
0.0
  0
LINE
  5
165A
  8
TITLE
 10
169.5430111148652941
 20
38.55388349065516
 30
0.0
 11
170.5630593840176914
 21
39.5739317598079268
 31
0.0
  0
LINE
  5
165B
  8
TITLE
 10
169.630295987505292
 20
38.55388349065516
 30
0.0
 11
170.5630593840176914
 21
39.4866468871641416
 31
0.0
  0
LINE
  5
165C
  8
TITLE
 10
169.7175808601525944
 20
38.55388349065516
 30
0.0
 11
170.5630593840176914
 21
39.3993620145168535
 31
0.0
  0
LINE
  5
165D
  8
TITLE
 10
169.7533630284632125
 20
39.6370841307212487
 30
0.0
 11
169.9715671491001956
 21
39.8552882513581821
 31
0.0
  0
LINE
  5
165E
  8
TITLE
 10
169.7533630284632125
 20
39.5497992580740672
 30
0.0
 11
170.0588520217476116
 21
39.8552882513581821
 31
0.0
  0
LINE
  5
165F
  8
TITLE
 10
169.7533630284632125
 20
39.4625143854269567
 30
0.0
 11
170.1461368943946866
 21
39.8552882513581821
 31
0.0
  0
LINE
  5
1660
  8
TITLE
 10
169.7533630284632125
 20
39.3752295127798035
 30
0.0
 11
170.2334217670415057
 21
39.8552882513581821
 31
0.0
  0
LINE
  5
1661
  8
TITLE
 10
169.7533630284632125
 20
39.2879446401329631
 30
0.0
 11
170.3207066396890923
 21
39.8552882513581821
 31
0.0
  0
LINE
  5
1662
  8
TITLE
 10
169.7533630284632125
 20
39.2006597674856678
 30
0.0
 11
170.4079915123361957
 21
39.8552882513581821
 31
0.0
  0
LINE
  5
1663
  8
TITLE
 10
169.7533630284632125
 20
39.8116538760120093
 30
0.0
 11
169.7969974038059888
 21
39.8552882513581821
 31
0.0
  0
LINE
  5
1664
  8
TITLE
 10
169.7533630284632125
 20
39.7243690033651689
 30
0.0
 11
169.8842822764532912
 21
39.8552882513581821
 31
0.0
  0
LINE
  5
1665
  8
TITLE
 10
169.7533630284632125
 20
34.8364161351637591
 30
0.0
 11
170.5630593840176914
 21
35.6461124907181102
 31
0.0
  0
LINE
  5
1666
  8
TITLE
 10
169.7533630284632125
 20
34.7491312625164994
 30
0.0
 11
170.5630593840176914
 21
35.5588276180708078
 31
0.0
  0
LINE
  5
1667
  8
TITLE
 10
169.7533630284632125
 20
34.6618463898692113
 30
0.0
 11
170.5630593840176914
 21
35.4715427454236902
 31
0.0
  0
LINE
  5
1668
  8
TITLE
 10
169.7533630284632125
 20
34.5745615172221932
 30
0.0
 11
170.5630593840176914
 21
35.38425787277653
 31
0.0
  0
LINE
  5
1669
  8
TITLE
 10
169.7533630284632125
 20
34.4872766445749477
 30
0.0
 11
170.5630593840176914
 21
35.2969730001292277
 31
0.0
  0
LINE
  5
166A
  8
TITLE
 10
169.7533630284632125
 20
34.3999917719316812
 30
0.0
 11
170.5630593840176914
 21
35.2096881274856202
 31
0.0
  0
LINE
  5
166B
  8
TITLE
 10
169.7533630284632125
 20
34.3127068992842723
 30
0.0
 11
170.5630593840176914
 21
35.1224032548387299
 31
0.0
  0
LINE
  5
166C
  8
TITLE
 10
169.818605365910912
 20
34.2906643640881867
 30
0.0
 11
170.5630593840176914
 21
35.0351183821914915
 31
0.0
  0
LINE
  5
166D
  8
TITLE
 10
169.9058902385577881
 20
34.2906643640881867
 30
0.0
 11
170.5630593840176914
 21
34.9478335095480972
 31
0.0
  0
LINE
  5
166E
  8
TITLE
 10
169.7533630284632125
 20
34.9237010078110472
 30
0.0
 11
170.5630593840176914
 21
35.7333973633651283
 31
0.0
  0
LINE
  5
166F
  8
TITLE
 10
169.9931751112048914
 20
34.2906643640881867
 30
0.0
 11
170.5630593840176914
 21
34.8605486369011217
 31
0.0
  0
LINE
  5
1670
  8
TITLE
 10
170.0804599838519096
 20
34.2906643640881867
 30
0.0
 11
170.5630593840176914
 21
34.7732637642538265
 31
0.0
  0
LINE
  5
1671
  8
TITLE
 10
170.1677448564992972
 20
34.2906643640881867
 30
0.0
 11
170.5630593840176914
 21
34.6859788916069789
 31
0.0
  0
LINE
  5
1672
  8
TITLE
 10
170.2550297291465995
 20
34.2906643640881867
 30
0.0
 11
170.5630593840176914
 21
34.5986940189596908
 31
0.0
  0
LINE
  5
1673
  8
TITLE
 10
170.3423146017937029
 20
34.2906643640881867
 30
0.0
 11
170.5630593840176914
 21
34.5114091463118129
 31
0.0
  0
LINE
  5
1674
  8
TITLE
 10
170.4295994744408063
 20
34.2906643640881867
 30
0.0
 11
170.5630593840176914
 21
34.4241242736649582
 31
0.0
  0
LINE
  5
1675
  8
TITLE
 10
170.5168843470806905
 20
34.2906643640881867
 30
0.0
 11
170.5630593840176914
 21
34.3368394010178335
 31
0.0
  0
LINE
  5
1676
  8
TITLE
 10
169.7533630284632125
 20
35.0982707531014313
 30
0.0
 11
170.5630593840176914
 21
35.9079671086598111
 31
0.0
  0
LINE
  5
1677
  8
TITLE
 10
169.7533630284632125
 20
35.0109858804580725
 30
0.0
 11
170.5630593840176914
 21
35.8206822360122317
 31
0.0
  0
LINE
  5
1678
  8
TITLE
 10
169.207881821587506
 20
37.1713357256222281
 30
0.0
 11
170.5630593840176914
 21
38.5265132880526977
 31
0.0
  0
LINE
  5
1679
  8
TITLE
 10
169.2337001008507116
 20
36.9352993869511081
 30
0.0
 11
170.5630593840176914
 21
38.2646586701111318
 31
0.0
  0
LINE
  5
167A
  8
TITLE
 10
169.201459706924993
 20
36.8157741203782507
 30
0.0
 11
170.5630593840176914
 21
38.1773737974641492
 31
0.0
  0
LINE
  5
167B
  8
TITLE
 10
169.280711458627195
 20
37.1568804900222176
 30
0.0
 11
170.5630593840176914
 21
38.4392284154055304
 31
0.0
  0
LINE
  5
167C
  8
TITLE
 10
169.2597890858887126
 20
37.0486732446297609
 30
0.0
 11
170.5630593840176914
 21
38.351943542758292
 31
0.0
  0
LINE
  5
167D
  8
TITLE
 10
169.1616872806447986
 20
36.6887168214511021
 30
0.0
 11
170.5630593840176914
 21
38.0900889248168468
 31
0.0
  0
LINE
  5
167E
  8
TITLE
 10
169.1123377058497113
 20
36.5520823740016709
 30
0.0
 11
170.5630593840176914
 21
38.0028040521698429
 31
0.0
  0
LINE
  5
167F
  8
TITLE
 10
169.0501383556419057
 20
36.4025981511539811
 30
0.0
 11
170.5630593840176914
 21
37.9155191795264912
 31
0.0
  0
LINE
  5
1680
  8
TITLE
 10
169.033312076293214
 20
37.1713357256222281
 30
0.0
 11
169.6332856207905024
 21
37.7713092701196871
 31
0.0
  0
LINE
  5
1681
  8
TITLE
 10
169.1205969489402037
 20
37.1713357256222281
 30
0.0
 11
169.7205704934378048
 21
37.7713092701196871
 31
0.0
  0
LINE
  5
1682
  8
TITLE
 10
169.7533630284632125
 20
37.9786715504358909
 30
0.0
 11
170.9024627549939055
 21
39.1277712769667119
 31
0.0
  0
LINE
  5
1683
  8
TITLE
 10
169.7533630284632125
 20
37.8913866777887307
 30
0.0
 11
170.9897476276410089
 21
39.1277712769667119
 31
0.0
  0
LINE
  5
1684
  8
TITLE
 10
169.7533630284632125
 20
37.8041018051452085
 30
0.0
 11
171.0770325002810068
 21
39.1277712769667119
 31
0.0
  0
LINE
  5
1685
  8
TITLE
 10
170.7649993319112127
 20
38.55388349065516
 30
0.0
 11
171.3388871182228002
 21
39.1277712769667119
 31
0.0
  0
LINE
  5
1686
  8
TITLE
 10
170.590429586617006
 20
38.55388349065516
 30
0.0
 11
171.1643173729281955
 21
39.1277712769667119
 31
0.0
  0
LINE
  5
1687
  8
TITLE
 10
170.6777144592639104
 20
38.55388349065516
 30
0.0
 11
171.2516022455754126
 21
39.1277712769667119
 31
0.0
  0
LINE
  5
1688
  8
TITLE
 10
169.7533630284632125
 20
35.8838346069222283
 30
0.0
 11
171.0343297850209865
 21
37.164801363480251
 31
0.0
  0
LINE
  5
1689
  8
TITLE
 10
169.7533630284632125
 20
35.796549734275068
 30
0.0
 11
171.0479620582090945
 21
37.0911487640207795
 31
0.0
  0
LINE
  5
168A
  8
TITLE
 10
169.7533630284632125
 20
35.709264861627922
 30
0.0
 11
171.063055171101098
 21
37.0189570042657294
 31
0.0
  0
LINE
  5
168B
  8
TITLE
 10
169.7533630284632125
 20
35.6219799889807973
 30
0.0
 11
171.0795448520431989
 21
36.9481618125608904
 31
0.0
  0
LINE
  5
168C
  8
TITLE
 10
169.7533630284632125
 20
35.5346951163334808
 30
0.0
 11
171.0973734276589084
 21
36.8787055155370282
 31
0.0
  0
LINE
  5
168D
  8
TITLE
 10
169.7533630284632125
 20
35.4474102436865195
 30
0.0
 11
171.1164889783667036
 21
36.8105361935934567
 31
0.0
  0
LINE
  5
168E
  8
TITLE
 10
169.7533630284632125
 20
35.3601253710392172
 30
0.0
 11
171.1368446326287085
 21
36.7436069752117476
 31
0.0
  0
LINE
  5
168F
  8
TITLE
 10
169.7533630284632125
 20
35.272840498395837
 30
0.0
 11
171.1583979733590866
 21
36.6778754432952283
 31
0.0
  0
LINE
  5
1690
  8
TITLE
 10
170.6568119217585036
 20
35.7398650284587518
 30
0.0
 11
171.2828997317351991
 21
36.3659528384356392
 31
0.0
  0
LINE
  5
1691
  8
TITLE
 10
170.6887883011897884
 20
35.6845565352499108
 30
0.0
 11
171.3109430149642094
 21
36.3067112490175674
 31
0.0
  0
LINE
  5
1692
  8
TITLE
 10
170.7217114092399868
 20
35.6301947706462272
 30
0.0
 11
171.3399775892897878
 21
36.2484609506957511
 31
0.0
  0
LINE
  5
1693
  8
TITLE
 10
170.7555671829167068
 20
35.5767656716831127
 30
0.0
 11
171.3699835271928009
 21
36.1911820159586668
 31
0.0
  0
LINE
  5
1694
  8
TITLE
 10
170.7903430251639065
 20
35.5242566412827472
 30
0.0
 11
171.4009427056772097
 21
36.1348563217961285
 31
0.0
  0
LINE
  5
1695
  8
TITLE
 10
170.8260277184106997
 20
35.472656461883183
 30
0.0
 11
171.4328386712311953
 21
36.0794674146992023
 31
0.0
  0
LINE
  5
1696
  8
TITLE
 10
169.7533630284632125
 20
35.1855556257485915
 30
0.0
 11
171.1811105354906033
 21
36.613303132779869
 31
0.0
  0
LINE
  5
1697
  8
TITLE
 10
170.5667279672074983
 20
35.9116356918495612
 30
0.0
 11
171.2049473785166072
 21
36.5498551031620309
 31
0.0
  0
LINE
  5
1698
  8
TITLE
 10
170.5957635415437039
 20
35.8533863935384289
 30
0.0
 11
171.2298767209261996
 21
36.4874995729212586
 31
0.0
  0
LINE
  5
1699
  8
TITLE
 10
170.6257978992470044
 20
35.7961358785944128
 30
0.0
 11
171.25586962614409
 21
36.4262076054916832
 31
0.0
  0
LINE
  5
169B
  8
TITLE
 10
189.1384768918746886
 20
37.7246890683954135
 30
0.0
 11
189.982607113916913
 21
38.5688192904378582
 31
0.0
  0
LINE
  5
169C
  8
TITLE
 10
189.4003315098159135
 20
37.7246890683954135
 30
0.0
 11
189.982607113916913
 21
38.3069646725000581
 31
0.0
  0
LINE
  5
169D
  8
TITLE
 10
189.4876163824631874
 20
37.7246890683954135
 30
0.0
 11
189.982607113916913
 21
38.2196797998527487
 31
0.0
  0
LINE
  5
169E
  8
TITLE
 10
189.2257617645217067
 20
37.7246890683954135
 30
0.0
 11
189.982607113916913
 21
38.4815344177910177
 31
0.0
  0
LINE
  5
169F
  8
TITLE
 10
189.313046637169009
 20
37.7246890683954135
 30
0.0
 11
189.982607113916913
 21
38.3942495451472112
 31
0.0
  0
LINE
  5
16A0
  8
TITLE
 10
188.6721378575525137
 20
34.2906643640881867
 30
0.0
 11
189.5243775553190062
 21
35.1429040618584878
 31
0.0
  0
LINE
  5
16A1
  8
TITLE
 10
188.7594227301923127
 20
34.2906643640881867
 30
0.0
 11
189.6116624279665075
 21
35.1429040618584878
 31
0.0
  0
LINE
  5
16A2
  8
TITLE
 10
188.8467076028398139
 20
34.2906643640881867
 30
0.0
 11
189.6989473006138098
 21
35.1429040618584878
 31
0.0
  0
LINE
  5
16A3
  8
TITLE
 10
188.9339924754866047
 20
34.2906643640881867
 30
0.0
 11
189.7862321732538078
 21
35.1429040618584878
 31
0.0
  0
LINE
  5
16A4
  8
TITLE
 10
189.0212773481337081
 20
34.2906643640881867
 30
0.0
 11
189.8735170459007122
 21
35.1429040618584878
 31
0.0
  0
LINE
  5
16A5
  8
TITLE
 10
189.1085622207810957
 20
34.2906643640881867
 30
0.0
 11
189.9608019185477872
 21
35.1429040618584878
 31
0.0
  0
LINE
  5
16A6
  8
TITLE
 10
189.1958470934281991
 20
34.2906643640881867
 30
0.0
 11
190.0480867911946916
 21
35.1429040618584878
 31
0.0
  0
LINE
  5
16A7
  8
TITLE
 10
189.2831319660751888
 20
34.2906643640881867
 30
0.0
 11
190.1353716638419939
 21
35.1429040618584878
 31
0.0
  0
LINE
  5
16A8
  8
TITLE
 10
189.37041683872269
 20
34.2906643640881867
 30
0.0
 11
190.2226565364896942
 21
35.1429040618584878
 31
0.0
  0
LINE
  5
16A9
  8
TITLE
 10
189.4577017113697934
 20
34.2906643640881867
 30
0.0
 11
190.2335869524935958
 21
35.0665496052117831
 31
0.0
  0
LINE
  5
16AA
  8
TITLE
 10
188.2508451536189114
 20
37.2734816933717497
 30
0.0
 11
189.5542922264129118
 21
38.5769287661662403
 31
0.0
  0
LINE
  5
16AB
  8
TITLE
 10
188.2508451536189114
 20
37.1861968207247884
 30
0.0
 11
189.6415770990599867
 21
38.5769287661662403
 31
0.0
  0
LINE
  5
16AC
  8
TITLE
 10
188.2508451536189114
 20
37.098911948077621
 30
0.0
 11
189.7288619717070048
 21
38.5769287661662403
 31
0.0
  0
LINE
  5
16AD
  8
TITLE
 10
188.2508451536189114
 20
37.0116270754307806
 30
0.0
 11
189.8161468443541935
 21
38.5769287661662403
 31
0.0
  0
LINE
  5
16AE
  8
TITLE
 10
188.2508451536189114
 20
36.9243422027833503
 30
0.0
 11
189.9034317169941914
 21
38.5769287661662403
 31
0.0
  0
LINE
  5
16B1
  8
TITLE
 10
180.6730384841980026
 20
38.7733017791797465
 30
0.0
 11
181.7324988401232133
 21
39.8327621351124606
 31
0.0
  0
LINE
  5
16B2
  8
TITLE
 10
179.307636322203507
 20
37.8443239804245692
 30
0.0
 11
181.3186005931370914
 21
39.8552882513581821
 31
0.0
  0
LINE
  5
16B3
  8
TITLE
 10
179.9825343084442011
 20
38.3446522213638374
 30
0.0
 11
181.4931703384314119
 21
39.8552882513581821
 31
0.0
  0
LINE
  5
16B4
  8
TITLE
 10
180.1749566122630881
 20
38.449789652542691
 30
0.0
 11
181.5804552110784869
 21
39.8552882513581821
 31
0.0
  0
LINE
  5
16B5
  8
TITLE
 10
179.8089045348305888
 20
38.2583073204044624
 30
0.0
 11
181.4058854657841948
 21
39.8552882513581821
 31
0.0
  0
LINE
  5
16B6
  8
TITLE
 10
180.396420817930391
 20
38.5839689855596788
 30
0.0
 11
181.6677400837257892
 21
39.8552882513548212
 31
0.0
  0
LINE
  5
16B7
  8
TITLE
 10
181.2907044130311078
 20
39.1291130900787891
 30
0.0
 11
181.865637794575207
 21
39.7040464716194208
 31
0.0
  0
LINE
  5
16B8
  8
TITLE
 10
181.2001762442878885
 20
39.2131546666266928
 30
0.0
 11
181.7762062203977109
 21
39.7891846427362594
 31
0.0
  0
LINE
  5
16B9
  8
TITLE
 10
181.2451882639174983
 20
39.1708818136084815
 30
0.0
 11
181.8205856969767069
 21
39.7462792466678394
 31
0.0
  0
LINE
  5
16BA
  8
TITLE
 10
181.2529236826015904
 20
34.2906643640881867
 30
0.0
 11
182.933841181155401
 21
35.9715818626495221
 31
0.0
  0
LINE
  5
16BB
  8
TITLE
 10
181.1656388099547996
 20
34.2906643640881867
 30
0.0
 11
182.8465563085086103
 21
35.9715818626495221
 31
0.0
  0
LINE
  5
16BC
  8
TITLE
 10
180.6419295740718951
 20
34.2906643640881867
 30
0.0
 11
181.3583122065087139
 21
35.0070469965218507
 31
0.0
  0
LINE
  5
16BD
  8
TITLE
 10
180.7292144467189132
 20
34.2906643640881867
 30
0.0
 11
181.4455970791491097
 21
35.0070469965218507
 31
0.0
  0
LINE
  5
16BE
  8
TITLE
 10
180.8164993193659882
 20
34.2906643640881867
 30
0.0
 11
181.5328819517959005
 21
35.0070469965218507
 31
0.0
  0
LINE
  5
16BF
  8
TITLE
 10
180.9037841920128926
 20
34.2906643640881867
 30
0.0
 11
181.6242289278310125
 21
35.0111090999062213
 31
0.0
  0
LINE
  5
16C0
  8
TITLE
 10
180.991069064660195
 20
34.2906643640881867
 30
0.0
 11
181.7314813860805884
 21
35.0310766855084808
 31
0.0
  0
LINE
  5
16C1
  8
TITLE
 10
181.0783539373074973
 20
34.2906643640881867
 30
0.0
 11
181.8695648940677074
 21
35.0818753208482192
 31
0.0
  0
LINE
  5
16C2
  8
TITLE
 10
180.6281169843055068
 20
36.2844038451849116
 30
0.0
 11
181.3319667215789082
 21
36.9882535824617804
 31
0.0
  0
LINE
  5
16C3
  8
TITLE
 10
180.7154018569455047
 20
36.2844038451849116
 30
0.0
 11
181.4192515942258979
 21
36.9882535824617804
 31
0.0
  0
LINE
  5
16C4
  8
TITLE
 10
180.8026867295928071
 20
36.2844038451849116
 30
0.0
 11
181.5065364668728876
 21
36.9882535824617804
 31
0.0
  0
LINE
  5
16C5
  8
TITLE
 10
180.8899716022399957
 20
36.2844038451849116
 30
0.0
 11
181.5938213395131982
 21
36.9882535824617804
 31
0.0
  0
LINE
  5
16C6
  8
TITLE
 10
180.9772564748870991
 20
36.2844038451849116
 30
0.0
 11
181.6811062121601879
 21
36.9882535824617804
 31
0.0
  0
LINE
  5
16C7
  8
TITLE
 10
181.0645413475336909
 20
36.2844038451849116
 30
0.0
 11
181.7683910848076039
 21
36.9882535824617804
 31
0.0
  0
LINE
  5
16C8
  8
TITLE
 10
181.1518262201813059
 20
36.2844038451849116
 30
0.0
 11
181.8556759574541957
 21
36.9882535824617804
 31
0.0
  0
LINE
  5
16C9
  8
TITLE
 10
181.2391110928286935
 20
36.2844038451849116
 30
0.0
 11
181.9429608301016117
 21
36.9882535824617804
 31
0.0
  0
LINE
  5
16CA
  8
TITLE
 10
180.5531431129485043
 20
37.4314181908844716
 30
0.0
 11
181.3351983765915065
 21
38.2134734545243901
 31
0.0
  0
LINE
  5
16CB
  8
TITLE
 10
180.6404279855960056
 20
37.4314181908844716
 30
0.0
 11
181.4224832492319024
 21
38.2134734545243901
 31
0.0
  0
LINE
  5
16CC
  8
TITLE
 10
180.7277128582425121
 20
37.4314181908844716
 30
0.0
 11
181.5097681218786931
 21
38.2134734545243901
 31
0.0
  0
LINE
  5
16CD
  8
TITLE
 10
180.8149977308898997
 20
37.4314181908844716
 30
0.0
 11
181.5970529945259102
 21
38.2134734545243901
 31
0.0
  0
LINE
  5
16CE
  8
TITLE
 10
180.9022826035368894
 20
37.4314181908844716
 30
0.0
 11
181.6843378671732125
 21
38.2134734545243901
 31
0.0
  0
LINE
  5
16CF
  8
TITLE
 10
180.9895674761841065
 20
37.4314181908844716
 30
0.0
 11
181.7716227398200886
 21
38.2134734545243901
 31
0.0
  0
LINE
  5
16D0
  8
TITLE
 10
181.0768523488312098
 20
37.4314181908844716
 30
0.0
 11
181.8589076124675046
 21
38.2134734545243901
 31
0.0
  0
LINE
  5
16D1
  8
TITLE
 10
181.1641372214712078
 20
37.4314181908844716
 30
0.0
 11
181.9461924851144943
 21
38.2134734545243901
 31
0.0
  0
LINE
  5
16D2
  8
TITLE
 10
181.2514220941185954
 20
37.4314181908844716
 30
0.0
 11
182.0334773577619103
 21
38.2134734545243901
 31
0.0
  0
LINE
  5
16D3
  8
TITLE
 10
176.5699415121972038
 20
38.4234543309819614
 30
0.0
 11
177.2742582123466946
 21
39.1277710311311395
 31
0.0
  0
LINE
  5
16D4
  8
TITLE
 10
176.6572263848445061
 20
38.4234543309819614
 30
0.0
 11
177.3615430849941959
 21
39.1277710311311395
 31
0.0
  0
LINE
  5
16D5
  8
TITLE
 10
176.7445112574916948
 20
38.4234543309819614
 30
0.0
 11
177.448827957641214
 21
39.1277710311311395
 31
0.0
  0
LINE
  5
16D6
  8
TITLE
 10
176.8317961301387982
 20
38.4234543309819614
 30
0.0
 11
177.5361128302884879
 21
39.1277710311311395
 31
0.0
  0
LINE
  5
16D7
  8
TITLE
 10
176.9190810027859868
 20
38.4234543309819614
 30
0.0
 11
177.6233977029357902
 21
39.1277710311311395
 31
0.0
  0
LINE
  5
16D8
  8
TITLE
 10
177.0063658754330049
 20
38.4234543309819614
 30
0.0
 11
177.7106825755828936
 21
39.1277710311311395
 31
0.0
  0
LINE
  5
16D9
  8
TITLE
 10
177.0936507480803925
 20
38.4234543309819614
 30
0.0
 11
177.7979674482297128
 21
39.1277710311311395
 31
0.0
  0
LINE
  5
16DA
  8
TITLE
 10
177.1809356207274959
 20
38.4234543309819614
 30
0.0
 11
177.8581519572329057
 21
39.1006706674913929
 31
0.0
  0
LINE
  5
16DB
  8
TITLE
 10
176.9700979576456916
 20
39.6091746302477787
 30
0.0
 11
177.2162115787567132
 21
39.8552882513581821
 31
0.0
  0
LINE
  5
16DC
  8
TITLE
 10
176.9700979576456916
 20
39.5218897576003201
 30
0.0
 11
177.3034964514037028
 21
39.8552882513581821
 31
0.0
  0
LINE
  5
16DD
  8
TITLE
 10
176.9700979576456916
 20
39.434604884953167
 30
0.0
 11
177.3907813240506925
 21
39.8552882513581821
 31
0.0
  0
LINE
  5
16DE
  8
TITLE
 10
177.0374929310810046
 20
39.4147149857487591
 30
0.0
 11
177.4780661966981086
 21
39.8552882513581821
 31
0.0
  0
LINE
  5
16DF
  8
TITLE
 10
177.1247778037287048
 20
39.4147149857487591
 30
0.0
 11
177.5653510693452972
 21
39.8552882513581821
 31
0.0
  0
LINE
  5
16E0
  8
TITLE
 10
177.2120626763756945
 20
39.4147149857487591
 30
0.0
 11
177.6526359419924006
 21
39.8552882513581821
 31
0.0
  0
LINE
  5
16E1
  8
TITLE
 10
176.6723455774938998
 20
35.20903323570748
 30
0.0
 11
177.2355996248811891
 21
35.7722872831022087
 31
0.0
  0
LINE
  5
16E2
  8
TITLE
 10
176.7133615709090861
 20
35.1627643564829668
 30
0.0
 11
177.2782361309047019
 21
35.7276389164713919
 31
0.0
  0
LINE
  5
16E3
  8
TITLE
 10
176.7550746515665026
 20
35.1171925644934788
 30
0.0
 11
177.321920318439993
 21
35.684038231366749
 31
0.0
  0
LINE
  5
16E4
  8
TITLE
 10
176.7974833485789929
 20
35.0723163888587877
 30
0.0
 11
177.3666522597119126
 21
35.6414852999916505
 31
0.0
  0
LINE
  5
16E5
  8
TITLE
 10
176.8405867235406959
 20
35.0281348911731385
 30
0.0
 11
177.412433841339606
 21
35.5999820089688228
 31
0.0
  0
LINE
  5
16E6
  8
TITLE
 10
176.8843843669639
 20
34.9846476619495803
 30
0.0
 11
177.4592687807611071
 21
35.5595320757468727
 31
0.0
  0
LINE
  5
16E7
  8
TITLE
 10
176.9288763967205114
 20
34.9418548190592517
 30
0.0
 11
177.5071626586967
 21
35.5201410810348719
 31
0.0
  0
LINE
  5
16E8
  8
TITLE
 10
177.0665279164601031
 20
34.8176517208606384
 30
0.0
 11
177.6572828396897137
 21
35.4084066440901779
 31
0.0
  0
LINE
  5
16E9
  8
TITLE
 10
177.1138092753527076
 20
34.7776482071100617
 30
0.0
 11
177.7095076513282947
 21
35.3733465830817622
 31
0.0
  0
LINE
  5
16EA
  8
TITLE
 10
177.1617936068211918
 20
34.7383476659308172
 30
0.0
 11
177.762849632745997
 21
35.339403691852219
 31
0.0
  0
LINE
  5
16EB
  8
TITLE
 10
177.2104842737396098
 20
34.6997534602022171
 30
0.0
 11
177.8173272602678878
 21
35.3065964467266582
 31
0.0
  0
LINE
  5
16EC
  8
TITLE
 10
176.9740634584738075
 20
34.8997570081684216
 30
0.0
 11
177.5561229683729039
 21
35.4818165180641927
 31
0.0
  0
LINE
  5
16ED
  8
TITLE
 10
177.0199467281611021
 20
34.8583554052122082
 30
0.0
 11
177.6061591825468895
 21
35.444567859590812
 31
0.0
  0
LINE
  5
16EE
  8
TITLE
 10
175.7163744855398022
 20
37.831741922261898
 30
0.0
 11
177.0124035944128877
 21
39.1277710311311395
 31
0.0
  0
LINE
  5
16EF
  8
TITLE
 10
175.7163744855398022
 20
37.7444570496182479
 30
0.0
 11
177.0996884670528004
 21
39.1277710311311395
 31
0.0
  0
LINE
  5
16F0
  8
TITLE
 10
175.7163744855398022
 20
38.0935965401996981
 30
0.0
 11
176.7505489764710092
 21
39.1277710311311395
 31
0.0
  0
LINE
  5
16F1
  8
TITLE
 10
175.7163744855398022
 20
38.0063116675561687
 30
0.0
 11
176.8378338491183115
 21
39.1277710311311395
 31
0.0
  0
LINE
  5
16F2
  8
TITLE
 10
175.7163744855398022
 20
37.9190267949088735
 30
0.0
 11
176.9251187217658128
 21
39.1277710311311395
 31
0.0
  0
LINE
  5
16F3
  8
TITLE
 10
175.0860986772100034
 20
38.4234543309819614
 30
0.0
 11
176.5179325975865936
 21
39.8552882513581821
 31
0.0
  0
LINE
  5
16F4
  8
TITLE
 10
175.1733835498571068
 20
38.4234543309819614
 30
0.0
 11
176.5521900557718027
 21
39.8022608368996913
 31
0.0
  0
LINE
  5
16F5
  8
TITLE
 10
175.2606684225044091
 20
38.4234543309819614
 30
0.0
 11
176.5521900557718027
 21
39.7149759642528579
 31
0.0
  0
LINE
  5
16F6
  8
TITLE
 10
175.3479532951513988
 20
38.4234543309819614
 30
0.0
 11
176.5521900557718027
 21
39.6276910916090586
 31
0.0
  0
LINE
  5
16F7
  8
TITLE
 10
175.4352381677919084
 20
38.4234543309819614
 30
0.0
 11
176.5521900557718027
 21
39.5404062189618983
 31
0.0
  0
LINE
  5
16F8
  8
TITLE
 10
175.5225230404386139
 20
38.4234543309819614
 30
0.0
 11
176.5521900557718027
 21
39.4531213463147878
 31
0.0
  0
LINE
  5
16F9
  8
TITLE
 10
175.6098079130860015
 20
38.4234543309819614
 30
0.0
 11
176.5521900557718027
 21
39.3658364736674784
 31
0.0
  0
LINE
  5
16FA
  8
TITLE
 10
175.6970927857329912
 20
38.4234543309819614
 30
0.0
 11
176.5521900557718027
 21
39.27855160102078
 31
0.0
  0
LINE
  5
16FB
  8
TITLE
 10
175.7163744855398022
 20
38.3554511581409372
 30
0.0
 11
176.5521900557718027
 21
39.1912667283732077
 31
0.0
  0
LINE
  5
16FC
  8
TITLE
 10
175.7163744855398022
 20
38.2681662854938196
 30
0.0
 11
176.5759792311766887
 21
39.1277710311311395
 31
0.0
  0
LINE
  5
16FD
  8
TITLE
 10
175.7163744855398022
 20
38.1808814128468015
 30
0.0
 11
176.6632641038239058
 21
39.1277710311311395
 31
0.0
  0
LINE
  5
16FE
  8
TITLE
 10
174.9988138045630137
 20
38.4234543309819614
 30
0.0
 11
175.7031305047127034
 21
39.1277710311311395
 31
0.0
  0
LINE
  5
16FF
  8
TITLE
 10
176.9700979576456916
 20
39.7837443755382694
 30
0.0
 11
177.0416418334619948
 21
39.8552882513581821
 31
0.0
  0
LINE
  5
1700
  8
TITLE
 10
176.9700979576456916
 20
39.696459502891102
 30
0.0
 11
177.1289267061096098
 21
39.8552882513581821
 31
0.0
  0
LINE
  5
1701
  8
TITLE
 10
175.7163744855398022
 20
39.1410150119582383
 30
0.0
 11
176.4306477249396039
 21
39.8552882513581821
 31
0.0
  0
LINE
  5
1702
  8
TITLE
 10
175.7163744855398022
 20
39.4028696298996906
 30
0.0
 11
176.1687931069980095
 21
39.8552882513581821
 31
0.0
  0
LINE
  5
1703
  8
TITLE
 10
175.7163744855398022
 20
39.3155847572523882
 30
0.0
 11
176.2560779796453119
 21
39.8552882513581821
 31
0.0
  0
LINE
  5
1704
  8
TITLE
 10
175.7163744855398022
 20
39.2282998846055477
 30
0.0
 11
176.3433628522926995
 21
39.8552882513581821
 31
0.0
  0
LINE
  5
1705
  8
TITLE
 10
175.7163744855398022
 20
39.6647242478377606
 30
0.0
 11
175.9069384890563867
 21
39.8552882513581821
 31
0.0
  0
LINE
  5
1706
  8
TITLE
 10
175.7163744855398022
 20
39.5774393751938192
 30
0.0
 11
175.9942233617036891
 21
39.8552882513581821
 31
0.0
  0
LINE
  5
1707
  8
TITLE
 10
175.7163744855398022
 20
39.4901545025468366
 30
0.0
 11
176.0815082343507925
 21
39.8552882513581821
 31
0.0
  0
LINE
  5
1708
  8
TITLE
 10
175.7163744855398022
 20
39.8392939931319034
 30
0.0
 11
175.7323687437690864
 21
39.8552882513581821
 31
0.0
  0
LINE
  5
1709
  8
TITLE
 10
175.7163744855398022
 20
39.7520091204847787
 30
0.0
 11
175.8196536164167867
 21
39.8552882513581821
 31
0.0
  0
LINE
  5
170A
  8
TITLE
 10
173.5149709695755007
 20
38.4234543309819614
 30
0.0
 11
174.2192876697251904
 21
39.1277710311311395
 31
0.0
  0
LINE
  5
170B
  8
TITLE
 10
173.6022558422154134
 20
38.4234543309819614
 30
0.0
 11
174.3065725423726917
 21
39.1277710311311395
 31
0.0
  0
LINE
  5
170C
  8
TITLE
 10
173.6895407148626873
 20
38.4234543309819614
 30
0.0
 11
174.3938574150124055
 21
39.1277710311311395
 31
0.0
  0
LINE
  5
170D
  8
TITLE
 10
173.7768255875099044
 20
38.4234543309819614
 30
0.0
 11
174.4811422876597931
 21
39.1277710311311395
 31
0.0
  0
LINE
  5
170E
  8
TITLE
 10
173.8641104601570078
 20
38.4234543309819614
 30
0.0
 11
174.5684271603066122
 21
39.1277710311311395
 31
0.0
  0
LINE
  5
170F
  8
TITLE
 10
173.9513953328041964
 20
38.4234543309819614
 30
0.0
 11
174.6557120329538861
 21
39.1277710311311395
 31
0.0
  0
LINE
  5
1710
  8
TITLE
 10
174.0386802054514135
 20
38.4234543309819614
 30
0.0
 11
174.7429969056011032
 21
39.1277710311311395
 31
0.0
  0
LINE
  5
1711
  8
TITLE
 10
174.1259650780984032
 20
38.4234543309819614
 30
0.0
 11
174.8302817782482066
 21
39.1277710311311395
 31
0.0
  0
LINE
  5
1712
  8
TITLE
 10
173.3404012242814076
 20
38.4234543309819614
 30
0.0
 11
174.0447179244310973
 21
39.1277710311311395
 31
0.0
  0
LINE
  5
1713
  8
TITLE
 10
173.42768609692871
 20
38.4234543309819614
 30
0.0
 11
174.1320027970782007
 21
39.1277710311311395
 31
0.0
  0
LINE
  5
1714
  8
TITLE
 10
173.1658314789870872
 20
38.4234543309819614
 30
0.0
 11
173.8701481791368906
 21
39.1277710311311395
 31
0.0
  0
LINE
  5
1715
  8
TITLE
 10
173.2531163516341906
 20
38.4234543309819614
 30
0.0
 11
173.9574330517837097
 21
39.1277710311311395
 31
0.0
  0
LINE
  5
1716
  8
TITLE
 10
174.2132499507455918
 20
38.4234543309819614
 30
0.0
 11
174.9175666508951963
 21
39.1277710311311395
 31
0.0
  0
LINE
  5
1717
  8
TITLE
 10
174.3005348233928942
 20
38.4234543309819614
 30
0.0
 11
175.0048515235426123
 21
39.1277710311311395
 31
0.0
  0
LINE
  5
1718
  8
TITLE
 10
174.3878196960401112
 20
38.4234543309819614
 30
0.0
 11
175.092136396189801
 21
39.1277710311311395
 31
0.0
  0
LINE
  5
1719
  8
TITLE
 10
174.4751045686799102
 20
38.4234543309819614
 30
0.0
 11
175.1794212688367907
 21
39.1277710311311395
 31
0.0
  0
LINE
  5
171A
  8
TITLE
 10
174.5623894413270136
 20
38.4234543309819614
 30
0.0
 11
175.266706141483894
 21
39.1277710311311395
 31
0.0
  0
LINE
  5
171B
  8
TITLE
 10
174.6496743139742875
 20
38.4234543309819614
 30
0.0
 11
175.353991014123693
 21
39.1277710311311395
 31
0.0
  0
LINE
  5
171C
  8
TITLE
 10
174.7369591866213909
 20
38.4234543309819614
 30
0.0
 11
175.4412758867709954
 21
39.1277710311311395
 31
0.0
  0
LINE
  5
171D
  8
TITLE
 10
174.8242440592684943
 20
38.4234543309819614
 30
0.0
 11
175.5285607594182125
 21
39.1277710311311395
 31
0.0
  0
LINE
  5
171E
  8
TITLE
 10
174.9115289319157114
 20
38.4234543309819614
 30
0.0
 11
175.6158456320656001
 21
39.1277710311311395
 31
0.0
  0
LINE
  5
171F
  8
TITLE
 10
176.441039780770609
 20
35.5014366748673211
 30
0.0
 11
177.0020096750918981
 21
36.0624065691887807
 31
0.0
  0
LINE
  5
1720
  8
TITLE
 10
176.4778115624297925
 20
35.4509235838760333
 30
0.0
 11
177.0382580576969929
 21
36.0113700791471913
 31
0.0
  0
LINE
  5
1721
  8
TITLE
 10
176.5153009055804887
 20
35.4011280543833209
 30
0.0
 11
177.0755928852439069
 21
35.9614200340467676
 31
0.0
  0
LINE
  5
1722
  8
TITLE
 10
176.5535029498246899
 20
35.3520452259801701
 30
0.0
 11
177.1140027875865997
 21
35.9125450637423
 31
0.0
  0
LINE
  5
1723
  8
TITLE
 10
176.5924134342282059
 20
35.3036708377438799
 30
0.0
 11
177.1534784526774047
 21
35.864735856185618
 31
0.0
  0
LINE
  5
1724
  8
TITLE
 10
176.6320286803168926
 20
35.2560012111778178
 30
0.0
 11
177.1940125419712047
 21
35.8179850728360307
 31
0.0
  0
LINE
  5
1725
  8
TITLE
 10
176.1734972755398871
 20
35.9321731508071309
 30
0.0
 11
176.7532860596267028
 21
36.5119619348971582
 31
0.0
  0
LINE
  5
1726
  8
TITLE
 10
176.2042737075101968
 20
35.875664710130259
 30
0.0
 11
176.7801393649448869
 21
36.4515303675651694
 31
0.0
  0
LINE
  5
1727
  8
TITLE
 10
176.2358311975154948
 20
35.819937327488347
 30
0.0
 11
176.8082626436834914
 21
36.3923687736562087
 31
0.0
  0
LINE
  5
1728
  8
TITLE
 10
176.2681591056986008
 20
35.7649803630280303
 30
0.0
 11
176.8376218239014861
 21
36.3344430812307309
 31
0.0
  0
LINE
  5
1729
  8
TITLE
 10
176.3012476450188046
 20
35.7107840297039871
 30
0.0
 11
176.8681866166535031
 21
36.2777230013358505
 31
0.0
  0
LINE
  5
172A
  8
TITLE
 10
176.3350878352871973
 20
35.6573393473256175
 30
0.0
 11
176.8999301521427014
 21
36.2221816641811714
 31
0.0
  0
LINE
  5
172B
  8
TITLE
 10
176.3696714621071919
 20
35.6046381014948281
 30
0.0
 11
176.9328286723622057
 21
36.1677953117534514
 31
0.0
  0
LINE
  5
172C
  8
TITLE
 10
176.4049910402054024
 20
35.5526728069499001
 30
0.0
 11
176.9668612712370077
 21
36.1145430379812495
 31
0.0
  0
LINE
  5
172D
  8
TITLE
 10
175.2436583081812103
 20
34.7404795655071368
 30
0.0
 11
175.7163744855398022
 21
35.2131957428688835
 31
0.0
  0
LINE
  5
172E
  8
TITLE
 10
175.3690118717364896
 20
34.778548256414993
 30
0.0
 11
175.7163744855398022
 21
35.1259108702214533
 31
0.0
  0
LINE
  5
172F
  8
TITLE
 10
175.4968155771273928
 20
34.8190670891627221
 30
0.0
 11
175.7163744855398022
 21
35.0386259975777818
 31
0.0
  0
LINE
  5
1730
  8
TITLE
 10
175.6272506006687877
 20
34.8622172400529919
 30
0.0
 11
175.7163744855398022
 21
34.9513411249307993
 31
0.0
  0
LINE
  5
1731
  8
TITLE
 10
175.8003916933409982
 20
36.9556255309484811
 30
0.0
 11
176.5512700011547054
 21
37.7065038387692866
 31
0.0
  0
LINE
  5
1732
  8
TITLE
 10
175.8162312859784038
 20
36.8841802509452492
 30
0.0
 11
176.5464481994098094
 21
37.6143971643770527
 31
0.0
  0
LINE
  5
1733
  8
TITLE
 10
175.8332078773902083
 20
36.8138719697065611
 30
0.0
 11
176.544929300890999
 21
37.5255933932037991
 31
0.0
  0
LINE
  5
1734
  8
TITLE
 10
175.8512832503676862
 20
36.7446624700406801
 30
0.0
 11
176.5463763816900098
 21
37.4397556013631601
 31
0.0
  0
LINE
  5
1735
  8
TITLE
 10
175.8704223549966059
 20
36.6765167020224894
 30
0.0
 11
176.5505149286942128
 21
37.3566092757165009
 31
0.0
  0
LINE
  5
1736
  8
TITLE
 10
175.2837060949887018
 20
36.9626491684790182
 30
0.0
 11
175.429062657060598
 21
37.108005730550687
 31
0.0
  0
LINE
  5
1737
  8
TITLE
 10
175.8905929855635861
 20
36.6094024599422667
 30
0.0
 11
176.5571178786429982
 21
37.2759273530221833
 31
0.0
  0
LINE
  5
1738
  8
TITLE
 10
175.9117655004747007
 20
36.5432901022132484
 30
0.0
 11
176.5659950045921107
 21
37.1975196063307791
 31
0.0
  0
LINE
  5
1739
  8
TITLE
 10
175.9339125784904923
 20
36.4781523075749874
 30
0.0
 11
176.5769851972875131
 21
37.1212249263718377
 31
0.0
  0
LINE
  5
173A
  8
TITLE
 10
175.9570090056263894
 20
36.4139638620634614
 30
0.0
 11
176.589950730478904
 21
37.046905586915571
 31
0.0
  0
LINE
  5
173B
  8
TITLE
 10
176.1143347233156078
 20
36.0475803438769304
 30
0.0
 11
176.7035472437829071
 21
36.6367928643446419
 31
0.0
  0
LINE
  5
173C
  8
TITLE
 10
176.1435134456166907
 20
35.9894741935312297
 30
0.0
 11
176.7277410143032057
 21
36.5737017622175884
 31
0.0
  0
LINE
  5
173D
  8
TITLE
 10
175.981031488392091
 20
36.3507014721857828
 30
0.0
 11
176.6047729202595917
 21
36.9744429040493898
 31
0.0
  0
LINE
  5
173E
  8
TITLE
 10
176.0059584894293891
 20
36.2883436005721407
 30
0.0
 11
176.6213487853497099
 21
36.903733896492497
 31
0.0
  0
LINE
  5
173F
  8
TITLE
 10
176.03177008247701
 20
36.226870320979863
 30
0.0
 11
176.6395884403218872
 21
36.8346886788249535
 31
0.0
  0
LINE
  5
1740
  8
TITLE
 10
176.0584478241106865
 20
36.1662631899627911
 30
0.0
 11
176.659413034717204
 21
36.7672284005690102
 31
0.0
  0
LINE
  5
1741
  8
TITLE
 10
176.0859746399019059
 20
36.1065051331102183
 30
0.0
 11
176.6807531050561124
 21
36.7012835982651922
 31
0.0
  0
LINE
  5
1742
  8
TITLE
 10
175.3709909676358905
 20
36.9626491684790182
 30
0.0
 11
175.429062657060598
 21
37.0207208579032496
 31
0.0
  0
LINE
  5
1743
  8
TITLE
 10
174.9996779682302872
 20
34.6710689708505129
 30
0.0
 11
175.7163744855398022
 21
35.3877654881595021
 31
0.0
  0
LINE
  5
1744
  8
TITLE
 10
175.1205945688728036
 20
34.7047006988528892
 30
0.0
 11
175.7163744855398022
 21
35.3004806155122495
 31
0.0
  0
LINE
  5
1745
  8
TITLE
 10
175.0218514770471927
 20
36.9626491684790182
 30
0.0
 11
175.429062657060598
 21
37.3698603484921179
 31
0.0
  0
LINE
  5
1746
  8
TITLE
 10
175.109136349694495
 20
36.9626491684790182
 30
0.0
 11
175.429062657060598
 21
37.2825754758447019
 31
0.0
  0
LINE
  5
1747
  8
TITLE
 10
175.1964212223419111
 20
36.9626491684790182
 30
0.0
 11
175.429062657060598
 21
37.1952906031978401
 31
0.0
  0
LINE
  5
1748
  8
TITLE
 10
173.6007159950142125
 20
35.803368304383639
 30
0.0
 11
174.3581739212137904
 21
36.5608262305829328
 31
0.0
  0
LINE
  5
1749
  8
TITLE
 10
173.6007159950142125
 20
35.716083431740131
 30
0.0
 11
174.3581739212137904
 21
36.4735413579356518
 31
0.0
  0
LINE
  5
174A
  8
TITLE
 10
173.6007159950142125
 20
35.6287985590928926
 30
0.0
 11
174.3581739212137904
 21
36.38625648528879
 31
0.0
  0
LINE
  5
174B
  8
TITLE
 10
173.6007159950142125
 20
35.5415136864458674
 30
0.0
 11
174.3581739212137904
 21
36.2989716126452677
 31
0.0
  0
LINE
  5
174C
  8
TITLE
 10
173.6007159950142125
 20
35.454228813798558
 30
0.0
 11
174.3581739212137904
 21
36.2116867399981572
 31
0.0
  0
LINE
  5
174D
  8
TITLE
 10
173.6007159950142125
 20
35.3669439411514475
 30
0.0
 11
174.3581739212137904
 21
36.1244018673507199
 31
0.0
  0
LINE
  5
174E
  8
TITLE
 10
173.6007159950142125
 20
35.2796590685041593
 30
0.0
 11
174.3581739212137904
 21
36.0371169947034176
 31
0.0
  0
LINE
  5
174F
  8
TITLE
 10
173.6007159950142125
 20
35.9779380496776611
 30
0.0
 11
174.3581739212137904
 21
36.7353959758737076
 31
0.0
  0
LINE
  5
1750
  8
TITLE
 10
173.6007159950142125
 20
35.8906531770308135
 30
0.0
 11
174.3581739212137904
 21
36.6481111032264621
 31
0.0
  0
LINE
  5
1751
  8
TITLE
 10
173.2813160296780097
 20
34.349264994645111
 30
0.0
 11
174.3581739212137904
 21
35.4261228861808632
 31
0.0
  0
LINE
  5
1752
  8
TITLE
 10
173.3793567509476929
 20
34.3600208432606067
 30
0.0
 11
174.3587945770256908
 21
35.3394586693462571
 31
0.0
  0
LINE
  5
1753
  8
TITLE
 10
173.4784247870925071
 20
34.3718040067655011
 30
0.0
 11
174.4646026384066033
 21
35.357981858079178
 31
0.0
  0
LINE
  5
1754
  8
TITLE
 10
173.5785566571256027
 20
34.3846510041477984
 30
0.0
 11
174.5714021776101958
 21
35.3774965246358306
 31
0.0
  0
LINE
  5
1755
  8
TITLE
 10
173.67979138452759
 20
34.3986008589061569
 30
0.0
 11
174.6792258417461881
 21
35.3980353161250818
 31
0.0
  0
LINE
  5
1756
  8
TITLE
 10
173.7821707452054056
 20
34.4136953469369189
 30
0.0
 11
174.7881082927468981
 21
35.4196328944784611
 31
0.0
  0
LINE
  5
1757
  8
TITLE
 10
173.8857395479280115
 20
34.4299792770120376
 30
0.0
 11
174.8980863865936897
 21
35.4423261156778935
 31
0.0
  0
LINE
  5
1758
  8
TITLE
 10
173.1842683890166086
 20
34.3395022266237504
 30
0.0
 11
174.3581739212137904
 21
35.5134077588243926
 31
0.0
  0
LINE
  5
1759
  8
TITLE
 10
173.2761540241187106
 20
36.9626491684790182
 30
0.0
 11
174.0326423635557944
 21
37.7191375079163294
 31
0.0
  0
LINE
  5
175A
  8
TITLE
 10
173.363438896765814
 20
36.9626491684790182
 30
0.0
 11
174.1199272362032104
 21
37.7191375079163294
 31
0.0
  0
LINE
  5
175B
  8
TITLE
 10
173.4507237694128037
 20
36.9626491684790182
 30
0.0
 11
174.2072121088498875
 21
37.7191375079163294
 31
0.0
  0
LINE
  5
175C
  8
TITLE
 10
173.5380086420599071
 20
36.9626491684790182
 30
0.0
 11
174.2944969814973888
 21
37.7191375079163294
 31
0.0
  0
LINE
  5
175D
  8
TITLE
 10
173.6007159950142125
 20
36.938071648785872
 30
0.0
 11
174.381781854144208
 21
37.7191375079163294
 31
0.0
  0
LINE
  5
175E
  8
TITLE
 10
173.6007159950142125
 20
36.8507867761423924
 30
0.0
 11
174.4690667267846038
 21
37.7191375079163294
 31
0.0
  0
LINE
  5
175F
  8
TITLE
 10
173.6007159950142125
 20
36.7635019034952393
 30
0.0
 11
174.5563515994315082
 21
37.7191375079163294
 31
0.0
  0
LINE
  5
1760
  8
TITLE
 10
173.6007159950142125
 20
36.6762170308482567
 30
0.0
 11
174.6436364720790095
 21
37.7191375079163294
 31
0.0
  0
LINE
  5
1761
  8
TITLE
 10
173.1888691514710104
 20
36.9626491684790182
 30
0.0
 11
173.9453574909084068
 21
37.7191375079163294
 31
0.0
  0
LINE
  5
1762
  8
TITLE
 10
173.6007159950142125
 20
36.5889321582044573
 30
0.0
 11
174.7309213447258003
 21
37.7191375079163294
 31
0.0
  0
LINE
  5
1763
  8
TITLE
 10
173.6007159950142125
 20
36.5016472855571479
 30
0.0
 11
174.8182062173729889
 21
37.7191375079163294
 31
0.0
  0
LINE
  5
1764
  8
TITLE
 10
173.6007159950142125
 20
36.4143624129098669
 30
0.0
 11
174.9054910900202913
 21
37.7191375079163294
 31
0.0
  0
LINE
  5
1765
  8
TITLE
 10
173.6007159950142125
 20
36.1525077949687486
 30
0.0
 11
174.3581739212137904
 21
36.9099657211681631
 31
0.0
  0
LINE
  5
1766
  8
TITLE
 10
173.6007159950142125
 20
36.0652229223214533
 30
0.0
 11
174.3581739212137904
 21
36.8226808485208679
 31
0.0
  0
LINE
  5
1767
  8
TITLE
 10
174.0966418348345996
 20
34.46631181863156
 30
0.0
 11
175.1214891236222115
 21
35.4911591074192785
 31
0.0
  0
LINE
  5
1768
  8
TITLE
 10
174.2040831984548106
 20
34.4864683096012214
 30
0.0
 11
175.2350003774465961
 21
35.5173854885963465
 31
0.0
  0
LINE
  5
1769
  8
TITLE
 10
173.9905459528982874
 20
34.4475008093424577
 30
0.0
 11
175.009199373716001
 21
35.4661542301571586
 31
0.0
  0
LINE
  5
176A
  8
TITLE
 10
174.410857368524205
 20
36.9626491684790182
 30
0.0
 11
175.1673457079616014
 21
37.7191375079163294
 31
0.0
  0
LINE
  5
176B
  8
TITLE
 10
173.6007159950142125
 20
36.2397926676158733
 30
0.0
 11
175.080060835314498
 21
37.7191375079163294
 31
0.0
  0
LINE
  5
176C
  8
TITLE
 10
173.6007159950142125
 20
36.3270775402631614
 30
0.0
 11
174.9927759626673947
 21
37.7191375079163294
 31
0.0
  0
LINE
  5
176D
  8
TITLE
 10
174.312930655958894
 20
34.5080308944579599
 30
0.0
 11
175.3497810328410083
 21
35.5448812713436482
 31
0.0
  0
LINE
  5
176E
  8
TITLE
 10
174.4232499782397099
 20
34.5310653440952819
 30
0.0
 11
175.4658824663727046
 21
35.5736978322280919
 31
0.0
  0
LINE
  5
176F
  8
TITLE
 10
174.5351127341972131
 20
34.5556432274055894
 30
0.0
 11
175.5833598996667888
 21
35.6038903928750869
 31
0.0
  0
LINE
  5
1770
  8
TITLE
 10
174.6485970360550937
 20
34.5818426566200472
 30
0.0
 11
175.7022728168298897
 21
35.6355184373913616
 31
0.0
  0
LINE
  5
1771
  8
TITLE
 10
174.7637884130807038
 20
34.6097491609950083
 30
0.0
 11
175.7163744855398022
 21
35.5623352334538367
 31
0.0
  0
LINE
  5
1772
  8
TITLE
 10
174.8807808417514877
 20
34.6394567170185184
 30
0.0
 11
175.7163744855398022
 21
35.4750503608065202
 31
0.0
  0
LINE
  5
1773
  8
TITLE
 10
174.4981422411713083
 20
36.9626491684790182
 30
0.0
 11
175.2546305806089038
 21
37.7191375079163294
 31
0.0
  0
LINE
  5
1774
  8
TITLE
 10
174.5854271138188949
 20
36.9626491684790182
 30
0.0
 11
175.3419154532489017
 21
37.7191375079163294
 31
0.0
  0
LINE
  5
1775
  8
TITLE
 10
174.6727119864654867
 20
36.9626491684790182
 30
0.0
 11
175.429062657060598
 21
37.7189998390731205
 31
0.0
  0
LINE
  5
1776
  8
TITLE
 10
174.7599968591055131
 20
36.9626491684790182
 30
0.0
 11
175.429062657060598
 21
37.6317149664297332
 31
0.0
  0
LINE
  5
1777
  8
TITLE
 10
174.8472817317529859
 20
36.9626491684790182
 30
0.0
 11
175.429062657060598
 21
37.5444300937828928
 31
0.0
  0
LINE
  5
1778
  8
TITLE
 10
174.9345666043998904
 20
36.9626491684790182
 30
0.0
 11
175.429062657060598
 21
37.4571452211354696
 31
0.0
  0
LINE
  5
1779
  8
TITLE
 10
175.7174881079955071
 20
37.6582857994231972
 30
0.0
 11
177.1869733396999038
 21
39.1277710311311395
 31
0.0
  0
LINE
  5
177A
  8
TITLE
 10
175.7318792822939031
 20
37.410822355783921
 30
0.0
 11
176.5521900557718027
 21
38.2311331292620409
 31
0.0
  0
LINE
  5
177B
  8
TITLE
 10
175.7398608433084917
 20
37.3315190441515483
 30
0.0
 11
176.5521900557718027
 21
38.1438482566147385
 31
0.0
  0
LINE
  5
177C
  8
TITLE
 10
175.7206034077514119
 20
37.574116226535871
 30
0.0
 11
176.5521900557718027
 21
38.4057028745561766
 31
0.0
  0
LINE
  5
177D
  8
TITLE
 10
175.7254320336807041
 20
37.4916599798181096
 30
0.0
 11
176.5521900557718027
 21
38.3184180019090519
 31
0.0
  0
LINE
  5
177E
  8
TITLE
 10
175.785730858278697
 20
37.0282495685408009
 30
0.0
 11
176.5521900557718027
 21
37.794708766033331
 31
0.0
  0
LINE
  5
177F
  8
TITLE
 10
175.7493012988566079
 20
37.2536746270561778
 30
0.0
 11
176.5521900557718027
 21
38.0565633839707971
 31
0.0
  0
LINE
  5
1780
  8
TITLE
 10
175.7601328934273965
 20
37.1772213489798204
 30
0.0
 11
176.5521900557718027
 21
37.9692785113237221
 31
0.0
  0
LINE
  5
1781
  8
TITLE
 10
175.7722945170650064
 20
37.1020980999700498
 30
0.0
 11
176.5521900557718027
 21
37.8819936386768177
 31
0.0
  0
LINE
  5
1782
  8
TITLE
 10
179.0937551089996873
 20
37.97958225780242
 30
0.0
 11
180.9694611025556128
 21
39.8552882513581821
 31
0.0
  0
LINE
  5
1783
  8
TITLE
 10
179.2227114978983877
 20
38.0212537740578682
 30
0.0
 11
181.0567459752028867
 21
39.8552882513581821
 31
0.0
  0
LINE
  5
1784
  8
TITLE
 10
179.307636322203507
 20
38.0188937257151878
 30
0.0
 11
181.1440308478497059
 21
39.8552882513581821
 31
0.0
  0
LINE
  5
1785
  8
TITLE
 10
179.307636322203507
 20
37.9316088530718574
 30
0.0
 11
181.2313157204897038
 21
39.8552882513581821
 31
0.0
  0
LINE
  5
1786
  8
TITLE
 10
179.307636322203507
 20
37.7570391077773877
 30
0.0
 11
179.7640706689500973
 21
38.2134734545243901
 31
0.0
  0
LINE
  5
1787
  8
TITLE
 10
179.4259709626452093
 20
35.6059670594108226
 30
0.0
 11
180.8082574856960036
 21
36.9882535824617804
 31
0.0
  0
LINE
  5
1788
  8
TITLE
 10
179.5478773615959085
 20
35.902443203652382
 30
0.0
 11
180.6336877404089023
 21
36.9882535824617804
 31
0.0
  0
LINE
  5
1789
  8
TITLE
 10
179.5045604392348082
 20
35.7718414086442991
 30
0.0
 11
180.7209726130485876
 21
36.9882535824617804
 31
0.0
  0
LINE
  5
178A
  8
TITLE
 10
179.0708018664371934
 20
34.2906643640881867
 30
0.0
 11
180.2896936921580107
 21
35.5095561898091319
 31
0.0
  0
LINE
  5
178B
  8
TITLE
 10
179.1580867390846095
 20
34.2906643640881867
 30
0.0
 11
180.200732370263097
 21
35.3333099952704615
 31
0.0
  0
LINE
  5
178C
  8
TITLE
 10
179.2453716117314002
 20
34.2906643640881867
 30
0.0
 11
180.0375804128354957
 21
35.0828731651923391
 31
0.0
  0
LINE
  5
178D
  8
TITLE
 10
179.3326564843787878
 20
34.2906643640881867
 30
0.0
 11
180.0490391168087001
 21
35.0070469965218507
 31
0.0
  0
LINE
  5
178E
  8
TITLE
 10
179.4199413570260049
 20
34.2906643640881867
 30
0.0
 11
180.1363239894556898
 21
35.0070469965218507
 31
0.0
  0
LINE
  5
178F
  8
TITLE
 10
179.5072262296727104
 20
34.2906643640881867
 30
0.0
 11
180.2236088621033048
 21
35.0070469965218507
 31
0.0
  0
LINE
  5
1790
  8
TITLE
 10
179.0569892766638986
 20
36.2844038451849116
 30
0.0
 11
179.7608390139369874
 21
36.9882535824617804
 31
0.0
  0
LINE
  5
1791
  8
TITLE
 10
179.1442741493108883
 20
36.2844038451849116
 30
0.0
 11
179.8481238865846024
 21
36.9882535824617804
 31
0.0
  0
LINE
  5
1792
  8
TITLE
 10
179.2315590219583044
 20
36.2844038451849116
 30
0.0
 11
179.9354087592313931
 21
36.9882535824617804
 31
0.0
  0
LINE
  5
1793
  8
TITLE
 10
179.318843894605493
 20
36.2844038451849116
 30
0.0
 11
180.0226936318788091
 21
36.9882535824617804
 31
0.0
  0
LINE
  5
1794
  8
TITLE
 10
179.4061287672525111
 20
36.2844038451849116
 30
0.0
 11
180.1099785045257136
 21
36.9882535824617804
 31
0.0
  0
LINE
  5
1795
  8
TITLE
 10
179.4934136398996998
 20
36.2844038451849116
 30
0.0
 11
180.1972633771727033
 21
36.9882535824617804
 31
0.0
  0
LINE
  5
1796
  8
TITLE
 10
179.5945111023129073
 20
34.2906643640881867
 30
0.0
 11
180.3108937347500103
 21
35.0070469965218507
 31
0.0
  0
LINE
  5
1797
  8
TITLE
 10
179.6817959749600959
 20
34.2906643640881867
 30
0.0
 11
180.3981786073973979
 21
35.0070469965218507
 31
0.0
  0
LINE
  5
1798
  8
TITLE
 10
179.769080847607114
 20
34.2906643640881867
 30
0.0
 11
180.4854634800447002
 21
35.0070469965218507
 31
0.0
  0
LINE
  5
1799
  8
TITLE
 10
179.8563657202545869
 20
34.2906643640881867
 30
0.0
 11
180.5727483526846129
 21
35.0070469965218507
 31
0.0
  0
LINE
  5
179A
  8
TITLE
 10
179.943650592901804
 20
34.2906643640881867
 30
0.0
 11
180.6600332253316878
 21
35.0070469965218507
 31
0.0
  0
LINE
  5
179B
  8
TITLE
 10
180.0309354655487937
 20
34.2906643640881867
 30
0.0
 11
180.747318097978706
 21
35.0070469965218507
 31
0.0
  0
LINE
  5
179C
  8
TITLE
 10
180.1182203381960107
 20
34.2906643640881867
 30
0.0
 11
180.8346029706258946
 21
35.0070469965218507
 31
0.0
  0
LINE
  5
179D
  8
TITLE
 10
180.2055052108428868
 20
34.2906643640881867
 30
0.0
 11
180.921887843272799
 21
35.0070469965218507
 31
0.0
  0
LINE
  5
179E
  8
TITLE
 10
180.2927900834901891
 20
34.2906643640881867
 30
0.0
 11
181.0091727159201866
 21
35.0070469965218507
 31
0.0
  0
LINE
  5
179F
  8
TITLE
 10
180.3800749561376051
 20
34.2906643640881867
 30
0.0
 11
181.0964575885674037
 21
35.0070469965218507
 31
0.0
  0
LINE
  5
17A0
  8
TITLE
 10
180.4673598287845095
 20
34.2906643640881867
 30
0.0
 11
181.1837424612147061
 21
35.0070469965218507
 31
0.0
  0
LINE
  5
17A1
  8
TITLE
 10
180.5546447014247065
 20
34.2906643640881867
 30
0.0
 11
181.2710273338614115
 21
35.0070469965218507
 31
0.0
  0
LINE
  5
17A2
  8
TITLE
 10
179.5806985125468032
 20
36.2844038451849116
 30
0.0
 11
180.2845482498202045
 21
36.9882535824617804
 31
0.0
  0
LINE
  5
17A3
  8
TITLE
 10
179.5941752098590882
 20
36.2105956698498801
 30
0.0
 11
180.3718331224671942
 21
36.9882535824617804
 31
0.0
  0
LINE
  5
17A4
  8
TITLE
 10
179.5880001154912122
 20
36.1171357028387376
 30
0.0
 11
180.4591179951144966
 21
36.9882535824617804
 31
0.0
  0
LINE
  5
17A5
  8
TITLE
 10
179.5736017282071941
 20
36.0154524429112115
 30
0.0
 11
180.5464028677617137
 21
36.9882535824617804
 31
0.0
  0
LINE
  5
17A6
  8
TITLE
 10
180.5408321116584034
 20
36.2844038451849116
 30
0.0
 11
181.2446818489316058
 21
36.9882535824617804
 31
0.0
  0
LINE
  5
17A7
  8
TITLE
 10
179.307636322203507
 20
37.6697542351301493
 30
0.0
 11
179.8513555415968881
 21
38.2134734545243901
 31
0.0
  0
LINE
  5
17A8
  8
TITLE
 10
179.307636322203507
 20
37.582469362483117
 30
0.0
 11
179.9386404142445031
 21
38.2134734545243901
 31
0.0
  0
LINE
  5
17A9
  8
TITLE
 10
179.307636322203507
 20
37.4951844898358289
 30
0.0
 11
180.0259252868916917
 21
38.2134734545243901
 31
0.0
  0
LINE
  5
17AA
  8
TITLE
 10
179.3311548958953097
 20
37.4314181908844716
 30
0.0
 11
180.1132101595385961
 21
38.2134734545243901
 31
0.0
  0
LINE
  5
17AB
  8
TITLE
 10
179.4184397685426973
 20
37.4314181908844716
 30
0.0
 11
180.2004950321858985
 21
38.2134734545243901
 31
0.0
  0
LINE
  5
17AC
  8
TITLE
 10
179.5057246411899996
 20
37.4314181908844716
 30
0.0
 11
180.2877799048330019
 21
38.2134734545243901
 31
0.0
  0
LINE
  5
17AD
  8
TITLE
 10
179.5930095138367051
 20
37.4314181908844716
 30
0.0
 11
180.3750647774799063
 21
38.2134734545243901
 31
0.0
  0
LINE
  5
17AE
  8
TITLE
 10
179.6802943864842064
 20
37.4314181908844716
 30
0.0
 11
180.4623496501274929
 21
38.2134734545243901
 31
0.0
  0
LINE
  5
17AF
  8
TITLE
 10
179.7675792591311961
 20
37.4314181908844716
 30
0.0
 11
180.5496345227672919
 21
38.2134734545243901
 31
0.0
  0
LINE
  5
17B0
  8
TITLE
 10
179.8548641317779868
 20
37.4314181908844716
 30
0.0
 11
180.6369193954143952
 21
38.2134734545243901
 31
0.0
  0
LINE
  5
17B1
  8
TITLE
 10
179.9421490044254028
 20
37.4314181908844716
 30
0.0
 11
180.7242042680616976
 21
38.2134734545243901
 31
0.0
  0
LINE
  5
17B2
  8
TITLE
 10
180.0294338770725062
 20
37.4314181908844716
 30
0.0
 11
180.8114891407089999
 21
38.2134734545243901
 31
0.0
  0
LINE
  5
17B3
  8
TITLE
 10
180.1167187497196096
 20
37.4314181908844716
 30
0.0
 11
180.8987740133559043
 21
38.2134734545243901
 31
0.0
  0
LINE
  5
17B4
  8
TITLE
 10
180.2040036223669119
 20
37.4314181908844716
 30
0.0
 11
180.986058886003093
 21
38.2134734545243901
 31
0.0
  0
LINE
  5
17B5
  8
TITLE
 10
180.2912884950069099
 20
37.4314181908844716
 30
0.0
 11
181.0733437586501964
 21
38.2134734545243901
 31
0.0
  0
LINE
  5
17B6
  8
TITLE
 10
180.3785733676540133
 20
37.4314181908844716
 30
0.0
 11
181.1606286312974987
 21
38.2134734545243901
 31
0.0
  0
LINE
  5
17B7
  8
TITLE
 10
180.4658582403012019
 20
37.4314181908844716
 30
0.0
 11
181.2479135039446874
 21
38.2134734545243901
 31
0.0
  0
LINE
  5
17B8
  8
TITLE
 10
177.6173599839559074
 20
38.4234543309819614
 30
0.0
 11
177.8581519572329057
 21
38.6642463042591871
 31
0.0
  0
LINE
  5
17B9
  8
TITLE
 10
177.7046448566028971
 20
38.4234543309819614
 30
0.0
 11
177.8581519572329057
 21
38.5769614316118918
 31
0.0
  0
LINE
  5
17BA
  8
TITLE
 10
177.7919297292501994
 20
38.4234543309819614
 30
0.0
 11
177.8581519572329057
 21
38.4896765589647529
 31
0.0
  0
LINE
  5
17BB
  8
TITLE
 10
178.4201710002826076
 20
38.6152712387818795
 30
0.0
 11
178.5058177253528982
 21
38.7009179638557796
 31
0.0
  0
LINE
  5
17BC
  8
TITLE
 10
178.4201710002826076
 20
38.5279863661348969
 30
0.0
 11
178.6134336205873012
 21
38.7212489864428591
 31
0.0
  0
LINE
  5
17BD
  8
TITLE
 10
178.4201710002826076
 20
38.4407014934915594
 30
0.0
 11
178.7250497232872988
 21
38.745580216496208
 31
0.0
  0
LINE
  5
17BE
  8
TITLE
 10
178.4201710002826076
 20
38.3534166208441221
 30
0.0
 11
178.8412384816190865
 21
38.7744841021807787
 31
0.0
  0
LINE
  5
17BF
  8
TITLE
 10
177.442790238661587
 20
38.4234543309819614
 30
0.0
 11
177.8581519572329057
 21
38.8388160495530101
 31
0.0
  0
LINE
  5
17C0
  8
TITLE
 10
177.5300751113086903
 20
38.4234543309819614
 30
0.0
 11
177.8581519572329057
 21
38.7515311769061697
 31
0.0
  0
LINE
  5
17C1
  8
TITLE
 10
178.4201710002826076
 20
38.2661317481968197
 30
0.0
 11
178.9627386019020037
 21
38.8086993498164787
 31
0.0
  0
LINE
  5
17C2
  8
TITLE
 10
177.2682204933676076
 20
38.4234543309819614
 30
0.0
 11
177.8581519572329057
 21
39.0133857948438205
 31
0.0
  0
LINE
  5
17C3
  8
TITLE
 10
177.3555053660147109
 20
38.4234543309819614
 30
0.0
 11
177.8581519572329057
 21
38.9261009222003196
 31
0.0
  0
LINE
  5
17C4
  8
TITLE
 10
177.2993475490227127
 20
39.4147149857487591
 30
0.0
 11
177.7399208146397029
 21
39.8552882513581821
 31
0.0
  0
LINE
  5
17C5
  8
TITLE
 10
177.3866324216697876
 20
39.4147149857487591
 30
0.0
 11
177.8272056872795872
 21
39.8552882513581821
 31
0.0
  0
LINE
  5
17C6
  8
TITLE
 10
177.473917294316891
 20
39.4147149857487591
 30
0.0
 11
177.8581519572329057
 21
39.7989496486647312
 31
0.0
  0
LINE
  5
17C7
  8
TITLE
 10
177.5612021669641081
 20
39.4147149857487591
 30
0.0
 11
177.8581519572329057
 21
39.7116647760174786
 31
0.0
  0
LINE
  5
17C8
  8
TITLE
 10
177.6484870396116094
 20
39.4147149857487591
 30
0.0
 11
177.8581519572329057
 21
39.6243799033707802
 31
0.0
  0
LINE
  5
17C9
  8
TITLE
 10
177.7357719122585991
 20
39.4147149857487591
 30
0.0
 11
177.8581519572329057
 21
39.5370950307231581
 31
0.0
  0
LINE
  5
17CA
  8
TITLE
 10
177.8230567849055888
 20
39.4147149857487591
 30
0.0
 11
177.8581519572329057
 21
39.4498101580758913
 31
0.0
  0
LINE
  5
17CB
  8
TITLE
 10
177.2598852130869886
 20
34.6618695268986983
 30
0.0
 11
177.8581519572329057
 21
35.2601362710487365
 31
0.0
  0
LINE
  5
17CC
  8
TITLE
 10
177.3100009515626994
 20
34.624700392730773
 30
0.0
 11
177.8581519572329057
 21
35.1728513984013134
 31
0.0
  0
LINE
  5
17CD
  8
TITLE
 10
177.360836623840413
 20
34.5882511923583209
 30
0.0
 11
177.8581519572329057
 21
35.0855665257538476
 31
0.0
  0
LINE
  5
17CE
  8
TITLE
 10
177.4123979934958015
 20
34.5525276893731217
 30
0.0
 11
177.8581519572329057
 21
34.9982816531071492
 31
0.0
  0
LINE
  5
17CF
  8
TITLE
 10
178.7072920514297039
 20
34.8872881481920629
 30
0.0
 11
178.9244753400975867
 21
35.1044714368596189
 31
0.0
  0
LINE
  5
17D0
  8
TITLE
 10
177.6813393473049132
 20
34.3850446799467591
 30
0.0
 11
177.8581519572329057
 21
34.5618572898749505
 31
0.0
  0
LINE
  5
17D1
  8
TITLE
 10
177.7374145998118991
 20
34.3538350598100806
 30
0.0
 11
177.8581519572329057
 21
34.4745724172276624
 31
0.0
  0
LINE
  5
17D2
  8
TITLE
 10
177.7942759570472049
 20
34.3234115443981409
 30
0.0
 11
177.8581519572329057
 21
34.3872875445844386
 31
0.0
  0
LINE
  5
17D3
  8
TITLE
 10
177.8519353854929932
 20
34.2937861001932731
 30
0.0
 11
177.8581519572329057
 21
34.3000026719370226
 31
0.0
  0
LINE
  5
17D4
  8
TITLE
 10
177.4646914769919022
 20
34.517536300218687
 30
0.0
 11
177.8581519572329057
 21
34.9109967804598682
 31
0.0
  0
LINE
  5
17D5
  8
TITLE
 10
177.5177241707366989
 20
34.483284121316693
 30
0.0
 11
177.8581519572329057
 21
34.8237119078128785
 31
0.0
  0
LINE
  5
17D6
  8
TITLE
 10
177.5715038817594973
 20
34.4497789596920683
 30
0.0
 11
177.8581519572329057
 21
34.7364270351655833
 31
0.0
  0
LINE
  5
17D7
  8
TITLE
 10
177.6260391620799908
 20
34.4170293673652168
 30
0.0
 11
177.8581519572329057
 21
34.6491421625217981
 31
0.0
  0
LINE
  5
17D8
  8
TITLE
 10
178.7072920514297039
 20
34.9745730208391876
 30
0.0
 11
178.7586009908606002
 21
35.0258819602737503
 31
0.0
  0
LINE
  5
17D9
  8
TITLE
 10
178.4201710002826076
 20
36.4331494226207795
 30
0.0
 11
178.9752751601203045
 21
36.9882535824617804
 31
0.0
  0
LINE
  5
17DA
  8
TITLE
 10
178.4201710002826076
 20
36.6950040405590414
 30
0.0
 11
178.7134205421859008
 21
36.9882535824617804
 31
0.0
  0
LINE
  5
17DB
  8
TITLE
 10
178.4201710002826076
 20
36.6077191679150999
 30
0.0
 11
178.8007054148326915
 21
36.9882535824617804
 31
0.0
  0
LINE
  5
17DC
  8
TITLE
 10
178.4201710002826076
 20
36.5204342952680818
 30
0.0
 11
178.8879902874728032
 21
36.9882535824617804
 31
0.0
  0
LINE
  5
17DD
  8
TITLE
 10
178.4201710002826076
 20
36.9568586584968415
 30
0.0
 11
178.4515659242441075
 21
36.9882535824617804
 31
0.0
  0
LINE
  5
17DE
  8
TITLE
 10
178.4201710002826076
 20
36.8695737858495391
 30
0.0
 11
178.5388507968912108
 21
36.9882535824617804
 31
0.0
  0
LINE
  5
17DF
  8
TITLE
 10
178.4201710002826076
 20
36.782288913206159
 30
0.0
 11
178.6261356695385984
 21
36.9882535824617804
 31
0.0
  0
LINE
  5
17E0
  8
TITLE
 10
178.4201710002826076
 20
37.9169922576081007
 30
0.0
 11
179.5287731075877105
 21
39.0255943649170689
 31
0.0
  0
LINE
  5
17E1
  8
TITLE
 10
178.4201710002826076
 20
37.8297073849608125
 30
0.0
 11
179.7044384100886134
 21
39.1139747947700585
 31
0.0
  0
LINE
  5
17E2
  8
TITLE
 10
178.5127011256329013
 20
37.8349526376638323
 30
0.0
 11
179.9086611793788961
 21
39.2309126914102535
 31
0.0
  0
LINE
  5
17E3
  8
TITLE
 10
178.6219517500717018
 20
37.856918389459338
 30
0.0
 11
180.1714378962263936
 21
39.4064045356141506
 31
0.0
  0
LINE
  5
17E4
  8
TITLE
 10
178.7343118213098023
 20
37.8819935880501504
 30
0.0
 11
180.7076064846139047
 21
39.8552882513581821
 31
0.0
  0
LINE
  5
17E5
  8
TITLE
 10
178.8501146317063899
 20
37.9105115258069674
 30
0.0
 11
180.7948913572612071
 21
39.8552882513581821
 31
0.0
  0
LINE
  5
17E6
  8
TITLE
 10
178.9697636220797108
 20
37.9428756435333696
 30
0.0
 11
180.8821762299085094
 21
39.8552882513581821
 31
0.0
  0
LINE
  5
17E7
  8
TITLE
 10
178.7072920514297039
 20
34.8000032755448885
 30
0.0
 11
180.8955423583429081
 21
36.9882535824617804
 31
0.0
  0
LINE
  5
17E8
  8
TITLE
 10
178.7072920514297039
 20
34.7127184028977496
 30
0.0
 11
180.9828272309902104
 21
36.9882535824617804
 31
0.0
  0
LINE
  5
17E9
  8
TITLE
 10
178.7072920514297039
 20
34.6254335302509233
 30
0.0
 11
181.070112103637598
 21
36.9882535824617804
 31
0.0
  0
LINE
  5
17EA
  8
TITLE
 10
178.7072920514297039
 20
34.5381486576071168
 30
0.0
 11
181.1573969762845877
 21
36.9882535824617804
 31
0.0
  0
LINE
  5
17EB
  8
TITLE
 10
178.7072920514297039
 20
34.4508637849602621
 30
0.0
 11
180.4790912648522863
 21
36.2226629983788513
 31
0.0
  0
LINE
  5
17EC
  8
TITLE
 10
178.7072920514297039
 20
34.363578912316477
 30
0.0
 11
180.4674022030251876
 21
36.1236890639120389
 31
0.0
  0
LINE
  5
17ED
  8
TITLE
 10
178.7216623758484104
 20
34.2906643640881867
 30
0.0
 11
180.4502123478320073
 21
36.0192143360717765
 31
0.0
  0
LINE
  5
17EE
  8
TITLE
 10
178.808947248495997
 20
34.2906643640881867
 30
0.0
 11
180.4263167608104084
 21
35.9080338764028184
 31
0.0
  0
LINE
  5
17EF
  8
TITLE
 10
178.8962321211429867
 20
34.2906643640881867
 30
0.0
 11
180.3939215569571957
 21
35.7883537999024526
 31
0.0
  0
LINE
  5
17F0
  8
TITLE
 10
178.9835169937900048
 20
34.2906643640881867
 30
0.0
 11
180.3501351100588863
 21
35.6572824803566917
 31
0.0
  0
LINE
  5
17F1
  8
TITLE
 10
178.8824195313696066
 20
36.2844038451849116
 30
0.0
 11
179.586269268649886
 21
36.9882535824617804
 31
0.0
  0
LINE
  5
17F2
  8
TITLE
 10
178.9697044040169089
 20
36.2844038451849116
 30
0.0
 11
179.6735541412971884
 21
36.9882535824617804
 31
0.0
  0
LINE
  5
17F3
  8
TITLE
 10
178.7951346587296086
 20
36.2844038451849116
 30
0.0
 11
179.4989843960026974
 21
36.9882535824617804
 31
0.0
  0
LINE
  5
17F4
  8
TITLE
 10
178.4201710002826076
 20
36.3458645499739532
 30
0.0
 11
179.0625600327670099
 21
36.9882535824617804
 31
0.0
  0
LINE
  5
17F5
  8
TITLE
 10
178.4459951681409109
 20
36.2844038451849116
 30
0.0
 11
179.1498449054141133
 21
36.9882535824617804
 31
0.0
  0
LINE
  5
17F6
  8
TITLE
 10
178.5332800407882985
 20
36.2844038451849116
 30
0.0
 11
179.2371297780616999
 21
36.9882535824617804
 31
0.0
  0
LINE
  5
17F7
  8
TITLE
 10
178.6205649134354871
 20
36.2844038451849116
 30
0.0
 11
179.3244146507088033
 21
36.9882535824617804
 31
0.0
  0
LINE
  5
17F8
  8
TITLE
 10
178.7078497860825905
 20
36.2844038451849116
 30
0.0
 11
179.4116995233557077
 21
36.9882535824617804
 31
0.0
  0
LINE
  5
17F9
  8
TITLE
 10
178.4201710002826076
 20
38.1788468755496595
 30
0.0
 11
179.0905322058239051
 21
38.8492080810944316
 31
0.0
  0
LINE
  5
17FA
  8
TITLE
 10
178.4201710002826076
 20
38.091562002902819
 30
0.0
 11
179.2259754433945886
 21
38.8973664460148285
 31
0.0
  0
LINE
  5
17FB
  8
TITLE
 10
178.4201710002826076
 20
38.0042771302558506
 30
0.0
 11
179.371036394586099
 21
38.9551425245589371
 31
0.0
  0
LINE
  5
17FC
  8
TITLE
 10
184.9308673585740053
 20
38.3177475306491289
 30
0.0
 11
186.4151772655440027
 21
39.8020574376186786
 31
0.0
  0
LINE
  5
17FD
  8
TITLE
 10
185.0181522312213076
 20
38.3177475306491289
 30
0.0
 11
186.4151772655440027
 21
39.7147725649713905
 31
0.0
  0
LINE
  5
17FE
  8
TITLE
 10
185.1054371038611066
 20
38.3177475306491289
 30
0.0
 11
186.4151772655440027
 21
39.6274876923246921
 31
0.0
  0
LINE
  5
17FF
  8
TITLE
 10
185.19272197650821
 20
38.3177475306491289
 30
0.0
 11
186.4151772655440027
 21
39.5402028196772406
 31
0.0
  0
LINE
  5
1800
  8
TITLE
 10
185.2800068491555123
 20
38.3177475306491289
 30
0.0
 11
186.4151772655440027
 21
39.4529179470302722
 31
0.0
  0
LINE
  5
1801
  8
TITLE
 10
185.367291721802701
 20
38.3177475306491289
 30
0.0
 11
186.4151772655440027
 21
39.3656330743829912
 31
0.0
  0
LINE
  5
1802
  8
TITLE
 10
184.7562976132799974
 20
38.3177475306491289
 30
0.0
 11
185.4165327229925992
 21
38.9779826403585687
 31
0.0
  0
LINE
  5
1803
  8
TITLE
 10
184.8435824859267882
 20
38.3177475306491289
 30
0.0
 11
185.5038175956325119
 21
38.9779826403585687
 31
0.0
  0
LINE
  5
1804
  8
TITLE
 10
185.3434612796854992
 20
35.9372255270732026
 30
0.0
 11
186.9893401981364036
 21
37.5831044455240928
 31
0.0
  0
LINE
  5
1805
  8
TITLE
 10
184.5358391153245918
 20
35.8278823438856122
 30
0.0
 11
187.2366957539009888
 21
38.5287389824584992
 31
0.0
  0
LINE
  5
1806
  8
TITLE
 10
184.7065052689405036
 20
35.7366938795638589
 30
0.0
 11
187.1898718456457118
 21
38.2200604562656991
 31
0.0
  0
LINE
  5
1807
  8
TITLE
 10
184.8185934087435101
 20
35.7614971467196412
 30
0.0
 11
187.1650685784898087
 21
38.107972316465947
 31
0.0
  0
LINE
  5
1808
  8
TITLE
 10
184.9366621867999925
 20
35.7922810521288284
 30
0.0
 11
187.1342846730807139
 21
37.9899035384099975
 31
0.0
  0
LINE
  5
1809
  8
TITLE
 10
185.062023667367896
 20
35.8303576600493798
 30
0.0
 11
187.0962080651528936
 21
37.864542057835088
 31
0.0
  0
LINE
  5
180A
  8
TITLE
 10
185.1966062580787025
 20
35.8776553781134382
 30
0.0
 11
187.0489103470960117
 21
37.7299594671307403
 31
0.0
  0
LINE
  5
180B
  8
TITLE
 10
184.5358391153245918
 20
35.7405974712421184
 30
0.0
 11
187.225063254163814
 21
38.4298216100744483
 31
0.0
  0
LINE
  5
180C
  8
TITLE
 10
184.5994564604127106
 20
35.7169299436831125
 30
0.0
 11
187.2096357815260035
 21
38.3271092647897902
 31
0.0
  0
LINE
  5
180D
  8
TITLE
 10
184.5358391153245918
 20
38.9701377591582911
 30
0.0
 11
184.5436839965288129
 21
38.9779826403585687
 31
0.0
  0
LINE
  5
180E
  8
TITLE
 10
184.5358391153245918
 20
38.8828528865108183
 30
0.0
 11
184.6309688691686119
 21
38.9779826403585687
 31
0.0
  0
LINE
  5
180F
  8
TITLE
 10
184.5358391153245918
 20
38.7955680138638499
 30
0.0
 11
184.7182537418156869
 21
38.9779826403585687
 31
0.0
  0
LINE
  5
1810
  8
TITLE
 10
183.1573236828357949
 20
38.0280466899047696
 30
0.0
 11
183.8400505491366062
 21
38.7107735562057087
 31
0.0
  0
LINE
  5
1811
  8
TITLE
 10
183.2227347411161986
 20
38.0061728755387875
 30
0.0
 11
183.9140643925302072
 21
38.6975025269524977
 31
0.0
  0
LINE
  5
1812
  8
TITLE
 10
183.2888547683089087
 20
37.9850080300841597
 30
0.0
 11
183.9798796460163999
 21
38.6760329077917078
 31
0.0
  0
LINE
  5
1813
  8
TITLE
 10
183.355698115171009
 20
37.9645665042953766
 30
0.0
 11
183.9798796460163999
 21
38.5887480351442917
 31
0.0
  0
LINE
  5
1814
  8
TITLE
 10
183.6306236067256066
 20
37.8903525052652412
 30
0.0
 11
183.9798796460163999
 21
38.2396085445594665
 31
0.0
  0
LINE
  5
1815
  8
TITLE
 10
183.70133171112019
 20
37.8737757370122097
 30
0.0
 11
183.9798796460163999
 21
38.1523236719156813
 31
0.0
  0
LINE
  5
1816
  8
TITLE
 10
183.42328000347581
 20
37.944863519952797
 30
0.0
 11
183.9798796460163999
 21
38.5014631624971173
 31
0.0
  0
LINE
  5
1817
  8
TITLE
 10
183.4916165907083041
 20
37.9259152345381381
 30
0.0
 11
183.9798796460163999
 21
38.4141782898538011
 31
0.0
  0
LINE
  5
1818
  8
TITLE
 10
183.5607250415062026
 20
37.9077388126927133
 30
0.0
 11
183.9798796460163999
 21
38.3268934172067404
 31
0.0
  0
LINE
  5
1819
  8
TITLE
 10
183.7728700508220072
 20
37.8580292040742918
 30
0.0
 11
183.9798796460163999
 21
38.0650387992685566
 31
0.0
  0
LINE
  5
181A
  8
TITLE
 10
183.8452607019808056
 20
37.8431349825858234
 30
0.0
 11
183.9798796460163999
 21
37.9777539266213893
 31
0.0
  0
LINE
  5
181B
  8
TITLE
 10
183.9185272420924946
 20
37.8291166500504588
 30
0.0
 11
183.9798796460163999
 21
37.8904690539745488
 31
0.0
  0
LINE
  5
181C
  8
TITLE
 10
184.6690127406326098
 20
38.3177475306491289
 30
0.0
 11
185.3292478503456948
 21
38.9779826403585687
 31
0.0
  0
LINE
  5
181D
  8
TITLE
 10
184.5358391153245918
 20
38.4464285232821297
 30
0.0
 11
185.0673932324042141
 21
38.9779826403585687
 31
0.0
  0
LINE
  5
181E
  8
TITLE
 10
184.5358391153245918
 20
38.3591436506351116
 30
0.0
 11
185.1546781050512891
 21
38.9779826403585687
 31
0.0
  0
LINE
  5
181F
  8
TITLE
 10
184.5817278679855917
 20
38.3177475306491289
 30
0.0
 11
185.2419629776987051
 21
38.9779826403585687
 31
0.0
  0
LINE
  5
1820
  8
TITLE
 10
184.5358391153245918
 20
38.6209982685732172
 30
0.0
 11
184.8928234871098937
 21
38.9779826403585687
 31
0.0
  0
LINE
  5
1821
  8
TITLE
 10
184.5358391153245918
 20
38.5337133959260498
 30
0.0
 11
184.9801083597571107
 21
38.9779826403585687
 31
0.0
  0
LINE
  5
1822
  8
TITLE
 10
184.5358391153245918
 20
38.7082831412200505
 30
0.0
 11
184.8055386144625913
 21
38.9779826403585687
 31
0.0
  0
LINE
  5
1823
  8
TITLE
 10
181.4302861585044013
 20
39.0068402176138278
 30
0.0
 11
182.0048422895812053
 21
39.5813963486871074
 31
0.0
  0
LINE
  5
1824
  8
TITLE
 10
181.4778283758406872
 20
38.9670975622961322
 30
0.0
 11
182.052599790371886
 21
39.5418689768271108
 31
0.0
  0
LINE
  5
1825
  8
TITLE
 10
181.5258805350810007
 20
38.9278648488961778
 30
0.0
 11
182.1010398397930885
 21
39.5030241536010323
 31
0.0
  0
LINE
  5
1826
  8
TITLE
 10
181.5744444305570084
 20
38.8891438717217923
 30
0.0
 11
182.1501659344831978
 21
39.4648653756444787
 31
0.0
  0
LINE
  5
1827
  8
TITLE
 10
181.6235220747578012
 20
38.8509366432788994
 30
0.0
 11
182.1999821004110061
 21
39.4273966689320972
 31
0.0
  0
LINE
  5
1828
  8
TITLE
 10
181.6731157025577943
 20
38.8132453984319028
 30
0.0
 11
182.2504929079811973
 21
39.3906226038557818
 31
0.0
  0
LINE
  5
1829
  8
TITLE
 10
181.723227775873994
 20
38.7760725991010702
 30
0.0
 11
182.3017034893977097
 21
39.3545483126242814
 31
0.0
  0
LINE
  5
182A
  8
TITLE
 10
181.7738609889186989
 20
38.7394209394981104
 30
0.0
 11
182.3536195584837003
 21
39.3191795090634315
 31
0.0
  0
LINE
  5
182B
  8
TITLE
 10
182.1431634326787048
 20
38.4977292747350504
 30
0.0
 11
182.7373995581299084
 21
39.0919654001864885
 31
0.0
  0
LINE
  5
182C
  8
TITLE
 10
182.1980928200563028
 20
38.4653737894661489
 30
0.0
 11
182.7952438587797133
 21
39.0625248281892326
 31
0.0
  0
LINE
  5
182D
  8
TITLE
 10
182.2535792102247001
 20
38.4335753069906971
 30
0.0
 11
182.8538760133322114
 21
39.0338721100946913
 31
0.0
  0
LINE
  5
182E
  8
TITLE
 10
181.9289180179212053
 20
38.6326233505632572
 30
0.0
 11
182.5136670454560885
 21
39.2173723780977923
 31
0.0
  0
LINE
  5
182F
  8
TITLE
 10
181.9816675919977911
 20
38.5980880519962
 30
0.0
 11
182.5684746822257125
 21
39.1848951422168881
 31
0.0
  0
LINE
  5
1830
  8
TITLE
 10
182.0349554842289024
 20
38.56409107157981
 30
0.0
 11
182.6240259897674889
 21
39.1531615771184676
 31
0.0
  0
LINE
  5
1831
  8
TITLE
 10
182.088785925430102
 20
38.5306366401340696
 30
0.0
 11
182.680330751285311
 21
39.1221814659887315
 31
0.0
  0
LINE
  5
1832
  8
TITLE
 10
181.8250182739328125
 20
38.7032933518657671
 30
0.0
 11
182.406247433117187
 21
39.2845225110499285
 31
0.0
  0
LINE
  5
1833
  8
TITLE
 10
181.8767028075886003
 20
38.6676930128741105
 30
0.0
 11
182.4595940604924067
 21
39.2505842657776114
 31
0.0
  0
LINE
  5
1834
  8
TITLE
 10
182.3662451093987897
 20
38.3716714608669704
 30
0.0
 11
182.9735582541206043
 21
38.9789846055922808
 31
0.0
  0
LINE
  5
1835
  8
TITLE
 10
182.4234365256029946
 20
38.3415780044273191
 30
0.0
 11
183.0346382012118909
 21
38.9527796800401376
 31
0.0
  0
LINE
  5
1836
  8
TITLE
 10
182.4812087898968116
 20
38.3120653960743383
 30
0.0
 11
183.0965658840952983
 21
38.9274224902688601
 31
0.0
  0
LINE
  5
1837
  8
TITLE
 10
182.3096280470913939
 20
38.4023392712069125
 30
0.0
 11
182.9133093542556878
 21
39.006020578374482
 31
0.0
  0
LINE
  5
1838
  8
TITLE
 10
181.3367254414685874
 20
39.0878492458694566
 30
0.0
 11
181.911363518276687
 21
39.6624873226769168
 31
0.0
  0
LINE
  5
1839
  8
TITLE
 10
181.3832523032496056
 20
39.0470912350026325
 30
0.0
 11
181.9577643571541898
 21
39.6216032889110181
 31
0.0
  0
LINE
  5
183A
  8
TITLE
 10
183.0926080550300128
 20
38.0506159347394899
 30
0.0
 11
183.7672288749504048
 21
38.7252367546598819
 31
0.0
  0
LINE
  5
183B
  8
TITLE
 10
182.5985237740707987
 20
38.2548106349498767
 30
0.0
 11
183.2230377924055915
 21
38.8793246532923291
 31
0.0
  0
LINE
  5
183C
  8
TITLE
 10
182.6580814751017101
 20
38.227083463337209
 30
0.0
 11
183.28762230785631
 21
38.856624296095859
 31
0.0
  0
LINE
  5
183D
  8
TITLE
 10
182.5395687796057018
 20
38.2831405131360683
 30
0.0
 11
183.1593592862608944
 21
38.9029310197911471
 31
0.0
  0
LINE
  5
183E
  8
TITLE
 10
184.5358391153245918
 20
35.9151672165327511
 30
0.0
 11
185.3606146811997917
 21
36.7399427824048601
 31
0.0
  0
LINE
  5
183F
  8
TITLE
 10
183.1731908808176001
 20
34.2906643640881867
 30
0.0
 11
183.6805173432416041
 21
34.7979908265119775
 31
0.0
  0
LINE
  5
1840
  8
TITLE
 10
183.2604757534647888
 20
34.2906643640881867
 30
0.0
 11
183.7129087705156962
 21
34.7430973811391368
 31
0.0
  0
LINE
  5
1841
  8
TITLE
 10
183.3477606261118069
 20
34.2906643640881867
 30
0.0
 11
183.7453001977972917
 21
34.688203935773231
 31
0.0
  0
LINE
  5
1842
  8
TITLE
 10
183.4350454987591093
 20
34.2906643640881867
 30
0.0
 11
183.7776916250714123
 21
34.6333104904004969
 31
0.0
  0
LINE
  5
1843
  8
TITLE
 10
183.5223303714060989
 20
34.2906643640881867
 30
0.0
 11
183.8100830523528089
 21
34.5784170450311308
 31
0.0
  0
LINE
  5
1844
  8
TITLE
 10
183.6096152440537139
 20
34.2906643640881867
 30
0.0
 11
183.842474479626901
 21
34.5235235996619068
 31
0.0
  0
LINE
  5
1845
  8
TITLE
 10
183.6969001167005899
 20
34.2906643640881867
 30
0.0
 11
183.8748659069015901
 21
34.4686301542926188
 31
0.0
  0
LINE
  5
1846
  8
TITLE
 10
183.7841849893476933
 20
34.2906643640881867
 30
0.0
 11
183.9072573341829866
 21
34.413736708923139
 31
0.0
  0
LINE
  5
1847
  8
TITLE
 10
183.8714698619949104
 20
34.2906643640881867
 30
0.0
 11
183.9396487614571924
 21
34.3588432635540499
 31
0.0
  0
LINE
  5
1848
  8
TITLE
 10
183.9587547346419001
 20
34.2906643640881867
 30
0.0
 11
183.9720401887317109
 21
34.3039498181846483
 31
0.0
  0
LINE
  5
1849
  8
TITLE
 10
183.6830875269270109
 20
36.2844038451849116
 30
0.0
 11
183.9798796460163999
 21
36.5811959642776117
 31
0.0
  0
LINE
  5
184A
  8
TITLE
 10
184.5358391153245918
 20
36.0897369618235331
 30
0.0
 11
184.9792293203298073
 21
36.5331271668288196
 31
0.0
  0
LINE
  5
184B
  8
TITLE
 10
184.5358391153245918
 20
36.0024520891797408
 30
0.0
 11
185.1425361522722142
 21
36.6091491261241373
 31
0.0
  0
LINE
  5
184C
  8
TITLE
 10
183.1593782910514108
 20
36.2844038451849116
 30
0.0
 11
183.8632280283246132
 21
36.9882535824617804
 31
0.0
  0
LINE
  5
184D
  8
TITLE
 10
183.2466631636987984
 20
36.2844038451849116
 30
0.0
 11
183.9505129009718871
 21
36.9882535824617804
 31
0.0
  0
LINE
  5
184E
  8
TITLE
 10
183.333948036345987
 20
36.2844038451849116
 30
0.0
 11
183.9798796460163999
 21
36.930335454862842
 31
0.0
  0
LINE
  5
184F
  8
TITLE
 10
183.4212329089857008
 20
36.2844038451849116
 30
0.0
 11
183.9798796460163999
 21
36.8430505822156817
 31
0.0
  0
LINE
  5
1850
  8
TITLE
 10
183.5085177816328894
 20
36.2844038451849116
 30
0.0
 11
183.9798796460163999
 21
36.7557657095687134
 31
0.0
  0
LINE
  5
1851
  8
TITLE
 10
183.5958026542801917
 20
36.2844038451849116
 30
0.0
 11
183.9798796460163999
 21
36.6684808369212902
 31
0.0
  0
LINE
  5
1852
  8
TITLE
 10
183.7703723995743985
 20
36.2844038451849116
 30
0.0
 11
183.9798796460163999
 21
36.493911091630757
 31
0.0
  0
LINE
  5
1853
  8
TITLE
 10
183.8576572722215019
 20
36.2844038451849116
 30
0.0
 11
183.9798796460163999
 21
36.4066262189834688
 31
0.0
  0
LINE
  5
1854
  8
TITLE
 10
184.5358391153245918
 20
36.1770218344708212
 30
0.0
 11
184.8401198459065995
 21
36.4813025650570424
 31
0.0
  0
LINE
  5
1855
  8
TITLE
 10
184.5358391153245918
 20
36.3515915797649711
 30
0.0
 11
184.6017558515482051
 21
36.4175083159891315
 31
0.0
  0
LINE
  5
1856
  8
TITLE
 10
184.5358391153245918
 20
36.2643067071177896
 30
0.0
 11
184.7157710607689864
 21
36.4442386525623689
 31
0.0
  0
LINE
  5
1857
  8
TITLE
 10
183.9449421448688895
 20
36.2844038451849116
 30
0.0
 11
183.9798796460163999
 21
36.3193413463401384
 31
0.0
  0
LINE
  5
1858
  8
TITLE
 10
181.3402085552486938
 20
34.2906643640881867
 30
0.0
 11
183.0002973704241072
 21
35.9507531792708832
 31
0.0
  0
LINE
  5
1859
  8
TITLE
 10
181.4274934278888054
 20
34.2906643640881867
 30
0.0
 11
183.0326887976981993
 21
35.8958597338976872
 31
0.0
  0
LINE
  5
185A
  8
TITLE
 10
181.5147783005361077
 20
34.2906643640881867
 30
0.0
 11
183.0650802249799085
 21
35.8409662885321012
 31
0.0
  0
LINE
  5
185B
  8
TITLE
 10
181.6020631731828985
 20
34.2906643640881867
 30
0.0
 11
183.0974716522543133
 21
35.7860728431592392
 31
0.0
  0
LINE
  5
185C
  8
TITLE
 10
181.6893480458302008
 20
34.2906643640881867
 30
0.0
 11
183.1298630795355962
 21
35.7311793977901431
 31
0.0
  0
LINE
  5
185D
  8
TITLE
 10
182.2478221248825889
 20
35.7219871696083615
 30
0.0
 11
182.4974168179273022
 21
35.9715818626495221
 31
0.0
  0
LINE
  5
185E
  8
TITLE
 10
182.2802135521639002
 20
35.6670937242391304
 30
0.0
 11
182.5847016905742066
 21
35.9715818626495221
 31
0.0
  0
LINE
  5
185F
  8
TITLE
 10
182.2755652090212095
 20
35.5751605084527327
 30
0.0
 11
182.67198656322131
 21
35.9715818626495221
 31
0.0
  0
LINE
  5
1860
  8
TITLE
 10
182.2247665736886972
 20
35.4370770004693227
 30
0.0
 11
182.7592714358688113
 21
35.9715818626495221
 31
0.0
  0
LINE
  5
1861
  8
TITLE
 10
182.1182564157782053
 20
35.9415609510853002
 30
0.0
 11
182.1482773273384907
 21
35.9715818626495221
 31
0.0
  0
LINE
  5
1862
  8
TITLE
 10
182.1506478430526101
 20
35.8866675057163533
 30
0.0
 11
182.2355621999853952
 21
35.9715818626495221
 31
0.0
  0
LINE
  5
1863
  8
TITLE
 10
182.1830392703340067
 20
35.8317740603468593
 30
0.0
 11
182.3228470726328965
 21
35.9715818626495221
 31
0.0
  0
LINE
  5
1864
  8
TITLE
 10
182.2154306976082978
 20
35.7768806149774434
 30
0.0
 11
182.4101319452801135
 21
35.9715818626495221
 31
0.0
  0
LINE
  5
1865
  8
TITLE
 10
181.850105201351397
 20
36.2844038451849116
 30
0.0
 11
182.5539549386245994
 21
36.9882535824617804
 31
0.0
  0
LINE
  5
1866
  8
TITLE
 10
181.9373900739983867
 20
36.2844038451849116
 30
0.0
 11
182.6412398112719018
 21
36.9882535824617804
 31
0.0
  0
LINE
  5
1867
  8
TITLE
 10
182.0246749466458027
 20
36.2844038451849116
 30
0.0
 11
182.7285246839186925
 21
36.9882535824617804
 31
0.0
  0
LINE
  5
1868
  8
TITLE
 10
182.1119598192929061
 20
36.2844038451849116
 30
0.0
 11
182.8158095565659949
 21
36.9882535824617804
 31
0.0
  0
LINE
  5
1869
  8
TITLE
 10
182.2865295645869992
 20
36.2844038451849116
 30
0.0
 11
182.9903793018602869
 21
36.9882535824617804
 31
0.0
  0
LINE
  5
186A
  8
TITLE
 10
182.3738144372341026
 20
36.2844038451849116
 30
0.0
 11
183.077664174507504
 21
36.9882535824617804
 31
0.0
  0
LINE
  5
186B
  8
TITLE
 10
182.1992446919398958
 20
36.2844038451849116
 30
0.0
 11
182.9030944292132119
 21
36.9882535824617804
 31
0.0
  0
LINE
  5
186C
  8
TITLE
 10
181.326395965475399
 20
36.2844038451849116
 30
0.0
 11
182.0302457027486867
 21
36.9882535824617804
 31
0.0
  0
LINE
  5
186D
  8
TITLE
 10
181.4136808381229002
 20
36.2844038451849116
 30
0.0
 11
182.11753057539579
 21
36.9882535824617804
 31
0.0
  0
LINE
  5
186E
  8
TITLE
 10
181.5009657107698047
 20
36.2844038451849116
 30
0.0
 11
182.2048154480428934
 21
36.9882535824617804
 31
0.0
  0
LINE
  5
186F
  8
TITLE
 10
181.5882505834098026
 20
36.2844038451849116
 30
0.0
 11
182.2921003206903947
 21
36.9882535824617804
 31
0.0
  0
LINE
  5
1870
  8
TITLE
 10
181.6755354560569913
 20
36.2844038451849116
 30
0.0
 11
182.379385193337697
 21
36.9882535824617804
 31
0.0
  0
LINE
  5
1871
  8
TITLE
 10
181.7628203287040094
 20
36.2844038451849116
 30
0.0
 11
182.4666700659846015
 21
36.9882535824617804
 31
0.0
  0
LINE
  5
1872
  8
TITLE
 10
182.909834674407108
 20
37.4314181908844716
 30
0.0
 11
183.0924145576051956
 21
37.6139980740858491
 31
0.0
  0
LINE
  5
1873
  8
TITLE
 10
182.8225498017596919
 20
37.4314181908844716
 30
0.0
 11
183.0924145576051956
 21
37.7012829467331514
 31
0.0
  0
LINE
  5
1874
  8
TITLE
 10
182.9971195470475038
 20
37.4314181908844716
 30
0.0
 11
183.0924145576051956
 21
37.5267132014387386
 31
0.0
  0
LINE
  5
1875
  8
TITLE
 10
183.0844044196940104
 20
37.4314181908844716
 30
0.0
 11
183.0924145576051956
 21
37.4394283287917133
 31
0.0
  0
LINE
  5
1876
  8
TITLE
 10
181.7868426202309138
 20
34.3008740658416613
 30
0.0
 11
183.162254506810001
 21
35.6762859524207911
 31
0.0
  0
LINE
  5
1877
  8
TITLE
 10
181.8989347320843137
 20
34.3256813050478087
 30
0.0
 11
183.1946459340842921
 21
35.6213925070512332
 31
0.0
  0
LINE
  5
1878
  8
TITLE
 10
182.0237603146042034
 20
34.3632220149242684
 30
0.0
 11
183.2270373613660013
 21
35.5664990616821513
 31
0.0
  0
LINE
  5
1879
  8
TITLE
 10
182.168819282774507
 20
34.420996110446751
 30
0.0
 11
183.2594287886400082
 21
35.511605616312778
 31
0.0
  0
LINE
  5
187A
  8
TITLE
 10
182.3563362815625055
 20
34.5212282365919023
 30
0.0
 11
183.2918202159142993
 21
35.4567121709432271
 31
0.0
  0
LINE
  5
187B
  8
TITLE
 10
182.863259243150992
 20
34.679011707588252
 30
0.0
 11
183.421385925025902
 21
35.2371383894664376
 31
0.0
  0
LINE
  5
187C
  8
TITLE
 10
182.8956506704253115
 20
34.6241182622187011
 30
0.0
 11
183.4537773523001079
 21
35.1822449440932985
 31
0.0
  0
LINE
  5
187D
  8
TITLE
 10
182.928042097699489
 20
34.5692248168497969
 30
0.0
 11
183.4861687795815897
 21
35.1273514987277196
 31
0.0
  0
LINE
  5
187E
  8
TITLE
 10
182.9604335249809992
 20
34.5143313714802389
 30
0.0
 11
183.5185602068559092
 21
35.0724580533548078
 31
0.0
  0
LINE
  5
187F
  8
TITLE
 10
182.992824952255404
 20
34.459437926110887
 30
0.0
 11
183.5509516341373057
 21
35.0175646079892076
 31
0.0
  0
LINE
  5
1880
  8
TITLE
 10
183.0252163795368858
 20
34.4045444807417979
 30
0.0
 11
183.5833430614115969
 21
34.9626711626164806
 31
0.0
  0
LINE
  5
1881
  8
TITLE
 10
182.7660849613212122
 20
34.8436920436962367
 30
0.0
 11
183.3242116431958948
 21
35.4018187255746213
 31
0.0
  0
LINE
  5
1882
  8
TITLE
 10
182.7984763885955886
 20
34.788798598330203
 30
0.0
 11
183.3566030704702996
 21
35.3469252802048004
 31
0.0
  0
LINE
  5
1883
  8
TITLE
 10
182.8308678158695102
 20
34.7339051529578029
 30
0.0
 11
183.3889944977516109
 21
35.2920318348355266
 31
0.0
  0
LINE
  5
1884
  8
TITLE
 10
183.0576078068110064
 20
34.3496510353722613
 30
0.0
 11
183.615734488685689
 21
34.9077777172504398
 31
0.0
  0
LINE
  5
1885
  8
TITLE
 10
183.0899992340856102
 20
34.2947575900030373
 30
0.0
 11
183.6481259159668866
 21
34.8528842718774285
 31
0.0
  0
LINE
  5
1886
  8
TITLE
 10
182.4610993098814049
 20
36.2844038451849116
 30
0.0
 11
183.1649490471546073
 21
36.9882535824617804
 31
0.0
  0
LINE
  5
1887
  8
TITLE
 10
182.8975236731099017
 20
36.2844038451849116
 30
0.0
 11
183.6013734103831041
 21
36.9882535824617804
 31
0.0
  0
LINE
  5
1888
  8
TITLE
 10
182.984808545757005
 20
36.2844038451849116
 30
0.0
 11
183.6886582830306907
 21
36.9882535824617804
 31
0.0
  0
LINE
  5
1889
  8
TITLE
 10
183.0720934184043074
 20
36.2844038451849116
 30
0.0
 11
183.7759431556775098
 21
36.9882535824617804
 31
0.0
  0
LINE
  5
188A
  8
TITLE
 10
182.5483841825214029
 20
36.2844038451849116
 30
0.0
 11
183.2522339198017107
 21
36.9882535824617804
 31
0.0
  0
LINE
  5
188B
  8
TITLE
 10
182.6356690551687052
 20
36.2844038451849116
 30
0.0
 11
183.3395187924490983
 21
36.9882535824617804
 31
0.0
  0
LINE
  5
188C
  8
TITLE
 10
182.7229539278158938
 20
36.2844038451849116
 30
0.0
 11
183.4268036650890963
 21
36.9882535824617804
 31
0.0
  0
LINE
  5
188D
  8
TITLE
 10
182.8102388004629972
 20
36.2844038451849116
 30
0.0
 11
183.5140885377361997
 21
36.9882535824617804
 31
0.0
  0
LINE
  5
188E
  8
TITLE
 10
181.3387069667656988
 20
37.4314181908844716
 30
0.0
 11
182.1207622304092979
 21
38.2134734545243901
 31
0.0
  0
LINE
  5
188F
  8
TITLE
 10
181.4259918394130011
 20
37.4314181908844716
 30
0.0
 11
182.2080471030558897
 21
38.2134734545243901
 31
0.0
  0
LINE
  5
1890
  8
TITLE
 10
181.5132767120597066
 20
37.4314181908844716
 30
0.0
 11
182.2953319756958876
 21
38.2134734545243901
 31
0.0
  0
LINE
  5
1891
  8
TITLE
 10
181.6005615847068952
 20
37.4314181908844716
 30
0.0
 11
182.38261684834319
 21
38.2134734545243901
 31
0.0
  0
LINE
  5
1892
  8
TITLE
 10
181.6878464573543113
 20
37.4314181908844716
 30
0.0
 11
182.4699017209904923
 21
38.2134734545243901
 31
0.0
  0
LINE
  5
1893
  8
TITLE
 10
181.7751313300011873
 20
37.4314181908844716
 30
0.0
 11
182.5571865936375957
 21
38.2134734545243901
 31
0.0
  0
LINE
  5
1894
  8
TITLE
 10
181.8624162026484044
 20
37.4314181908844716
 30
0.0
 11
182.6444714662846991
 21
38.2134734545243901
 31
0.0
  0
LINE
  5
1895
  8
TITLE
 10
182.4734103111715058
 20
37.4314181908844716
 30
0.0
 11
183.0924145576051956
 21
38.0504224373141469
 31
0.0
  0
LINE
  5
1896
  8
TITLE
 10
182.5606951838188081
 20
37.4314181908844716
 30
0.0
 11
183.0924145576051956
 21
37.9631375646708094
 31
0.0
  0
LINE
  5
1897
  8
TITLE
 10
182.6479800564657126
 20
37.4314181908844716
 30
0.0
 11
183.0924145576051956
 21
37.8758526920239191
 31
0.0
  0
LINE
  5
1898
  8
TITLE
 10
182.7352649291131002
 20
37.4314181908844716
 30
0.0
 11
183.0924145576051956
 21
37.7885678193801198
 31
0.0
  0
LINE
  5
1899
  8
TITLE
 10
181.9497010752957067
 20
37.4314181908844716
 30
0.0
 11
183.3531353932193895
 21
38.8348525088122329
 31
0.0
  0
LINE
  5
189A
  8
TITLE
 10
182.036985947943009
 20
37.4314181908844716
 30
0.0
 11
183.4196014165559063
 21
38.814033659504851
 31
0.0
  0
LINE
  5
189B
  8
TITLE
 10
182.124270820582808
 20
37.4314181908844716
 30
0.0
 11
183.4870467258714939
 21
38.7941940961698677
 31
0.0
  0
LINE
  5
189C
  8
TITLE
 10
182.2115556932299967
 20
37.4314181908844716
 30
0.0
 11
183.5554998451796109
 21
38.7753623428305403
 31
0.0
  0
LINE
  5
189D
  8
TITLE
 10
182.298840565877299
 20
37.4314181908844716
 30
0.0
 11
183.6249916982600041
 21
38.7575693232672904
 31
0.0
  0
LINE
  5
189E
  8
TITLE
 10
182.3861254385242034
 20
37.4314181908844716
 30
0.0
 11
183.695555864814196
 21
38.7408486171783082
 31
0.0
  0
LINE
  5
189F
  8
TITLE
 10
188.2508451536189114
 20
39.0191791463007718
 30
0.0
 11
189.0869542586765988
 21
39.8552882513581821
 31
0.0
  0
LINE
  5
18A0
  8
TITLE
 10
188.2508451536189114
 20
38.9318942736538034
 30
0.0
 11
189.1292750556405053
 21
39.8103241756788719
 31
0.0
  0
LINE
  5
18A1
  8
TITLE
 10
188.2508451536189114
 20
38.8446094010067924
 30
0.0
 11
189.1292750556405053
 21
39.7230393030317117
 31
0.0
  0
LINE
  5
18A2
  8
TITLE
 10
188.2508451536189114
 20
38.7573245283594687
 30
0.0
 11
189.1292750556405053
 21
39.6357544303877702
 31
0.0
  0
LINE
  5
18A3
  8
TITLE
 10
187.480064311592912
 20
37.7246890683954135
 30
0.0
 11
189.1292750556405053
 21
39.3738998124463535
 31
0.0
  0
LINE
  5
18A4
  8
TITLE
 10
187.5673491842401006
 20
37.7246890683954135
 30
0.0
 11
189.1292750556405053
 21
39.2866149397994988
 31
0.0
  0
LINE
  5
18A5
  8
TITLE
 10
187.654634056887204
 20
37.7246890683954135
 30
0.0
 11
189.1292750556405053
 21
39.1993300671521894
 31
0.0
  0
LINE
  5
18A6
  8
TITLE
 10
187.7419189295343926
 20
37.7246890683954135
 30
0.0
 11
189.1292750556405053
 21
39.112045194505221
 31
0.0
  0
LINE
  5
18A7
  8
TITLE
 10
187.829203802181496
 20
37.7246890683954135
 30
0.0
 11
189.1292750556405053
 21
39.0247603218583805
 31
0.0
  0
LINE
  5
18A8
  8
TITLE
 10
188.2508451536189114
 20
38.6700396557122303
 30
0.0
 11
189.1292750556405053
 21
39.5484695577408019
 31
0.0
  0
LINE
  5
18A9
  8
TITLE
 10
188.2508451536189114
 20
38.5827547830651909
 30
0.0
 11
189.1292750556405053
 21
39.4611846850936416
 31
0.0
  0
LINE
  5
18AA
  8
TITLE
 10
187.4226111726036947
 20
37.9290905473443019
 30
0.0
 11
188.0704493914186912
 21
38.5769287661662403
 31
0.0
  0
LINE
  5
18AB
  8
TITLE
 10
187.4226111726036947
 20
37.8418056747007796
 30
0.0
 11
188.1577342640655104
 21
38.5769287661662403
 31
0.0
  0
LINE
  5
18AC
  8
TITLE
 10
187.4226111726036947
 20
37.7545208020534702
 30
0.0
 11
188.245019136712699
 21
38.5769287661662403
 31
0.0
  0
LINE
  5
18AD
  8
TITLE
 10
187.4226111726036947
 20
38.0163754199912916
 30
0.0
 11
187.9831645187782954
 21
38.5769287661662403
 31
0.0
  0
LINE
  5
18AE
  8
TITLE
 10
187.4226111726036947
 20
38.2782300379331133
 30
0.0
 11
187.7213099008368999
 21
38.5769287661662403
 31
0.0
  0
LINE
  5
18AF
  8
TITLE
 10
187.4226111726036947
 20
38.1909451652856902
 30
0.0
 11
187.8085947734840886
 21
38.5769287661662403
 31
0.0
  0
LINE
  5
18B0
  8
TITLE
 10
187.4226111726036947
 20
38.1036602926384518
 30
0.0
 11
187.895879646131192
 21
38.5769287661662403
 31
0.0
  0
LINE
  5
18B1
  8
TITLE
 10
187.4226111726036947
 20
38.4527997832268511
 30
0.0
 11
187.546740155542409
 21
38.5769287661662403
 31
0.0
  0
LINE
  5
18B2
  8
TITLE
 10
187.4226111726036947
 20
38.3655149105798188
 30
0.0
 11
187.6340250281901092
 21
38.5769287661662403
 31
0.0
  0
LINE
  5
18B3
  8
TITLE
 10
188.1783432927628894
 20
37.7246890683954135
 30
0.0
 11
189.1292750556405053
 21
38.6756208312763192
 31
0.0
  0
LINE
  5
18B4
  8
TITLE
 10
187.4226111726036947
 20
38.5400846558741392
 30
0.0
 11
187.4594552828955898
 21
38.5769287661662403
 31
0.0
  0
LINE
  5
18B5
  8
TITLE
 10
188.0037735474689953
 20
37.7246890683954135
 30
0.0
 11
189.1292750556405053
 21
38.850190576567293
 31
0.0
  0
LINE
  5
18B6
  8
TITLE
 10
188.091058420115786
 20
37.7246890683954135
 30
0.0
 11
189.1292750556405053
 21
38.7629057039199978
 31
0.0
  0
LINE
  5
18B7
  8
TITLE
 10
187.916488674821494
 20
37.7246890683954135
 30
0.0
 11
189.1292750556405053
 21
38.9374754492141193
 31
0.0
  0
LINE
  5
18B8
  8
TITLE
 10
188.2508451536189114
 20
39.1064640189477473
 30
0.0
 11
188.9996693860292112
 21
39.8552882513581821
 31
0.0
  0
LINE
  5
18B9
  8
TITLE
 10
188.2508451536189114
 20
39.6301732548239372
 30
0.0
 11
188.475960150153611
 21
39.8552882513581821
 31
0.0
  0
LINE
  5
18BA
  8
TITLE
 10
188.2508451536189114
 20
39.5428883821765211
 30
0.0
 11
188.5632450228007997
 21
39.8552882513581821
 31
0.0
  0
LINE
  5
18BB
  8
TITLE
 10
188.2508451536189114
 20
39.4556035095293609
 30
0.0
 11
188.6505298954407124
 21
39.8552882513581821
 31
0.0
  0
LINE
  5
18BC
  8
TITLE
 10
188.2508451536189114
 20
39.3683186368858671
 30
0.0
 11
188.7378147680877021
 21
39.8552882513581821
 31
0.0
  0
LINE
  5
18BD
  8
TITLE
 10
188.2508451536189114
 20
39.2810337642388419
 30
0.0
 11
188.8250996407346918
 21
39.8552882513581821
 31
0.0
  0
LINE
  5
18BE
  8
TITLE
 10
188.2508451536189114
 20
39.1937488915917172
 30
0.0
 11
188.9123845133819941
 21
39.8552882513581821
 31
0.0
  0
LINE
  5
18BF
  8
TITLE
 10
188.2508451536189114
 20
39.80474300011808
 30
0.0
 11
188.3013904048588927
 21
39.8552882513581821
 31
0.0
  0
LINE
  5
18C0
  8
TITLE
 10
188.2508451536189114
 20
39.7174581274707919
 30
0.0
 11
188.388675277506394
 21
39.8552882513581821
 31
0.0
  0
LINE
  5
18C1
  8
TITLE
 10
188.2508451536189114
 20
35.7023539857341135
 30
0.0
 11
189.1292750556405053
 21
36.5807838877590399
 31
0.0
  0
LINE
  5
18C2
  8
TITLE
 10
188.2508451536189114
 20
35.6150691130868182
 30
0.0
 11
189.1292750556405053
 21
36.4934990151118015
 31
0.0
  0
LINE
  5
18C3
  8
TITLE
 10
188.2508451536189114
 20
35.5277842404399635
 30
0.0
 11
189.1292750556405053
 21
36.4062141424647834
 31
0.0
  0
LINE
  5
18C4
  8
TITLE
 10
188.2508451536189114
 20
35.4404993677961784
 30
0.0
 11
189.1292750556405053
 21
36.3189292698176516
 31
0.0
  0
LINE
  5
18C5
  8
TITLE
 10
188.2508451536189114
 20
35.3532144951493308
 30
0.0
 11
189.1292750556405053
 21
36.2316443971741435
 31
0.0
  0
LINE
  5
18C6
  8
TITLE
 10
188.2508451536189114
 20
35.2659296225019006
 30
0.0
 11
189.1292750556405053
 21
36.1443595245272888
 31
0.0
  0
LINE
  5
18C7
  8
TITLE
 10
188.2508451536189114
 20
35.1786447498547403
 30
0.0
 11
189.1292750556405053
 21
36.0570746518798515
 31
0.0
  0
LINE
  5
18C8
  8
TITLE
 10
188.2508451536189114
 20
35.9642086036717572
 30
0.0
 11
189.1292750556405053
 21
36.84263850570062
 31
0.0
  0
LINE
  5
18C9
  8
TITLE
 10
188.2508451536189114
 20
35.8769237310247604
 30
0.0
 11
189.1292750556405053
 21
36.7553536330535024
 31
0.0
  0
LINE
  5
18CA
  8
TITLE
 10
188.2508451536189114
 20
35.7896388583776286
 30
0.0
 11
189.1292750556405053
 21
36.6680687604064772
 31
0.0
  0
LINE
  5
18CB
  8
TITLE
 10
187.2755798952055102
 20
34.2906643640881867
 30
0.0
 11
188.1278195929718891
 21
35.1429040618584878
 31
0.0
  0
LINE
  5
18CC
  8
TITLE
 10
187.3628647678521872
 20
34.2906643640881867
 30
0.0
 11
188.2151044656189924
 21
35.1429040618584878
 31
0.0
  0
LINE
  5
18CD
  8
TITLE
 10
187.4501496404996885
 20
34.2906643640881867
 30
0.0
 11
189.1292750556405053
 21
35.9697897792362014
 31
0.0
  0
LINE
  5
18CE
  8
TITLE
 10
187.537434513146593
 20
34.2906643640881867
 30
0.0
 11
189.1292750556405053
 21
35.8825049065892188
 31
0.0
  0
LINE
  5
18CF
  8
TITLE
 10
187.624719385794009
 20
34.2906643640881867
 30
0.0
 11
189.1292750556405053
 21
35.7952200339419093
 31
0.0
  0
LINE
  5
18D0
  8
TITLE
 10
187.7120042584407997
 20
34.2906643640881867
 30
0.0
 11
189.1292750556405053
 21
35.7079351612950688
 31
0.0
  0
LINE
  5
18D1
  8
TITLE
 10
187.7992891310807977
 20
34.2906643640881867
 30
0.0
 11
189.1292750556405053
 21
35.6206502886477807
 31
0.0
  0
LINE
  5
18D2
  8
TITLE
 10
187.8865740037279863
 20
34.2906643640881867
 30
0.0
 11
189.1292750556405053
 21
35.5333654160004571
 31
0.0
  0
LINE
  5
18D3
  8
TITLE
 10
187.9738588763752034
 20
34.2906643640881867
 30
0.0
 11
189.1292750556405053
 21
35.4460805433530624
 31
0.0
  0
LINE
  5
18D4
  8
TITLE
 10
188.0611437490221931
 20
34.2906643640881867
 30
0.0
 11
189.1292750556405053
 21
35.3587956707062077
 31
0.0
  0
LINE
  5
18D5
  8
TITLE
 10
188.1484286216694102
 20
34.2906643640881867
 30
0.0
 11
189.1292750556405053
 21
35.2715107980628204
 31
0.0
  0
LINE
  5
18D6
  8
TITLE
 10
188.2357134943169115
 20
34.2906643640881867
 30
0.0
 11
189.1292750556405053
 21
35.184225925415717
 31
0.0
  0
LINE
  5
18D7
  8
TITLE
 10
188.3229983669637022
 20
34.2906643640881867
 30
0.0
 11
189.1752380647307064
 21
35.1429040618584878
 31
0.0
  0
LINE
  5
18D8
  8
TITLE
 10
188.4102832396112035
 20
34.2906643640881867
 30
0.0
 11
189.2625229373778097
 21
35.1429040618584878
 31
0.0
  0
LINE
  5
18D9
  8
TITLE
 10
188.4975681122581932
 20
34.2906643640881867
 30
0.0
 11
189.3498078100249131
 21
35.1429040618584878
 31
0.0
  0
LINE
  5
18DA
  8
TITLE
 10
188.5848529849052966
 20
34.2906643640881867
 30
0.0
 11
189.4370926826719028
 21
35.1429040618584878
 31
0.0
  0
LINE
  5
18DB
  8
TITLE
 10
188.2508451536189114
 20
36.8370573301361901
 30
0.0
 11
189.1292750556405053
 21
37.7154872321649535
 31
0.0
  0
LINE
  5
18DC
  8
TITLE
 10
188.2508451536189114
 20
36.7497724574892217
 30
0.0
 11
189.1292750556405053
 21
37.6282023595179069
 31
0.0
  0
LINE
  5
18DD
  8
TITLE
 10
188.2508451536189114
 20
36.6624875848420473
 30
0.0
 11
189.1292750556405053
 21
37.5409174868708106
 31
0.0
  0
LINE
  5
18DE
  8
TITLE
 10
188.2508451536189114
 20
36.57520271219812
 30
0.0
 11
189.1292750556405053
 21
37.4536326142232028
 31
0.0
  0
LINE
  5
18DF
  8
TITLE
 10
188.2508451536189114
 20
36.4879178395511516
 30
0.0
 11
189.1292750556405053
 21
37.3663477415763481
 31
0.0
  0
LINE
  5
18E0
  8
TITLE
 10
188.2508451536189114
 20
36.4006329669078923
 30
0.0
 11
189.1292750556405053
 21
37.2790628689290529
 31
0.0
  0
LINE
  5
18E1
  8
TITLE
 10
188.2508451536189114
 20
36.3133480942604621
 30
0.0
 11
189.1292750556405053
 21
37.1917779962822124
 31
0.0
  0
LINE
  5
18E2
  8
TITLE
 10
188.2508451536189114
 20
36.2260632216132024
 30
0.0
 11
189.1292750556405053
 21
37.1044931236384201
 31
0.0
  0
LINE
  5
18E3
  8
TITLE
 10
188.2508451536189114
 20
36.1387783489662979
 30
0.0
 11
189.1292750556405053
 21
37.0172082509913025
 31
0.0
  0
LINE
  5
18E4
  8
TITLE
 10
188.2508451536189114
 20
36.0514934763190595
 30
0.0
 11
189.1292750556405053
 21
36.9299233783477803
 31
0.0
  0
LINE
  5
18E5
  8
TITLE
 10
188.2508451536189114
 20
37.7099060566007935
 30
0.0
 11
189.1292750556405053
 21
38.5883359586292229
 31
0.0
  0
LINE
  5
18E6
  8
TITLE
 10
188.2508451536189114
 20
37.6226211839537683
 30
0.0
 11
189.205152735824214
 21
38.5769287661662403
 31
0.0
  0
LINE
  5
18E7
  8
TITLE
 10
188.2508451536189114
 20
37.5353363113098197
 30
0.0
 11
189.2924376084714027
 21
38.5769287661662403
 31
0.0
  0
LINE
  5
18E8
  8
TITLE
 10
188.2508451536189114
 20
37.4480514386628585
 30
0.0
 11
189.379722481118506
 21
38.5769287661662403
 31
0.0
  0
LINE
  5
18E9
  8
TITLE
 10
188.2508451536189114
 20
37.360766566015549
 30
0.0
 11
189.4670073537654957
 21
38.5769287661662403
 31
0.0
  0
LINE
  5
18EA
  8
TITLE
 10
185.4545765944498896
 20
38.3177475306491289
 30
0.0
 11
186.4151772655440027
 21
39.2783482017358168
 31
0.0
  0
LINE
  5
18EB
  8
TITLE
 10
185.541861467096993
 20
38.3177475306491289
 30
0.0
 11
186.4151772655440027
 21
39.1910633290888413
 31
0.0
  0
LINE
  5
18EC
  8
TITLE
 10
185.6291463397442101
 20
38.3177475306491289
 30
0.0
 11
186.4151772655440027
 21
39.1037784564450277
 31
0.0
  0
LINE
  5
18ED
  8
TITLE
 10
186.2207086047233133
 20
38.0364610691638205
 30
0.0
 11
187.1622301759215077
 21
38.9779826403585687
 31
0.0
  0
LINE
  5
18EE
  8
TITLE
 10
186.1939782681496069
 20
37.9224458599432808
 30
0.0
 11
187.2495150485686963
 21
38.9779826403585687
 31
0.0
  0
LINE
  5
18EF
  8
TITLE
 10
185.7164312123913135
 20
38.3177475306491289
 30
0.0
 11
186.4151772655440027
 21
39.0164935837977467
 31
0.0
  0
LINE
  5
18F0
  8
TITLE
 10
185.8037160850385021
 20
38.3177475306491289
 30
0.0
 11
186.4639511947441974
 21
38.9779826403585687
 31
0.0
  0
LINE
  5
18F1
  8
TITLE
 10
185.8910009576858045
 20
38.3177475306491289
 30
0.0
 11
186.5512360673916135
 21
38.9779826403585687
 31
0.0
  0
LINE
  5
18F2
  8
TITLE
 10
185.9782858303258024
 20
38.3177475306491289
 30
0.0
 11
186.6385209400386032
 21
38.9779826403585687
 31
0.0
  0
LINE
  5
18F3
  8
TITLE
 10
186.0655707029727068
 20
38.3177475306491289
 30
0.0
 11
186.7258058126855929
 21
38.9779826403585687
 31
0.0
  0
LINE
  5
18F4
  8
TITLE
 10
186.1528555756198955
 20
38.3177475306491289
 30
0.0
 11
186.8130906853330089
 21
38.9779826403585687
 31
0.0
  0
LINE
  5
18F5
  8
TITLE
 10
186.2401404482669136
 20
38.3177475306491289
 30
0.0
 11
186.9003755579803112
 21
38.9779826403585687
 31
0.0
  0
LINE
  5
18F6
  8
TITLE
 10
186.2522682942305892
 20
38.2425905039585103
 30
0.0
 11
186.9876604306269883
 21
38.9779826403585687
 31
0.0
  0
LINE
  5
18F7
  8
TITLE
 10
186.239610747422887
 20
38.1426480845104479
 30
0.0
 11
187.0749453032742053
 21
38.9779826403585687
 31
0.0
  0
LINE
  5
18F8
  8
TITLE
 10
185.5799160470656943
 20
39.1413659644347121
 30
0.0
 11
186.2938383339889867
 21
39.8552882513581821
 31
0.0
  0
LINE
  5
18F9
  8
TITLE
 10
185.5799160470656943
 20
39.0540810917872818
 30
0.0
 11
186.3811232066360049
 21
39.8552882513581821
 31
0.0
  0
LINE
  5
18FA
  8
TITLE
 10
185.5799160470656943
 20
39.6650752003103975
 30
0.0
 11
185.7701290981129887
 21
39.8552882513581821
 31
0.0
  0
LINE
  5
18FB
  8
TITLE
 10
185.5799160470656943
 20
39.5777903276632728
 30
0.0
 11
185.85741397076049
 21
39.8552882513581821
 31
0.0
  0
LINE
  5
18FC
  8
TITLE
 10
185.5799160470656943
 20
39.4905054550165602
 30
0.0
 11
185.9446988434002037
 21
39.8552882513581821
 31
0.0
  0
LINE
  5
18FD
  8
TITLE
 10
185.5799160470656943
 20
39.4032205823727821
 30
0.0
 11
186.031983716047904
 21
39.8552882513581821
 31
0.0
  0
LINE
  5
18FE
  8
TITLE
 10
185.5799160470656943
 20
39.3159357097254798
 30
0.0
 11
186.1192685886946947
 21
39.8552882513581821
 31
0.0
  0
LINE
  5
18FF
  8
TITLE
 10
185.5799160470656943
 20
39.228650837078213
 30
0.0
 11
186.2065534613419118
 21
39.8552882513581821
 31
0.0
  0
LINE
  5
1900
  8
TITLE
 10
185.5799160470656943
 20
39.8396449456048529
 30
0.0
 11
185.5955593528190093
 21
39.8552882513581821
 31
0.0
  0
LINE
  5
1901
  8
TITLE
 10
185.5799160470656943
 20
39.7523600729577211
 30
0.0
 11
185.682844225465999
 21
39.8552882513581821
 31
0.0
  0
LINE
  5
1902
  8
TITLE
 10
185.5799160470656943
 20
35.4754013132832497
 30
0.0
 11
186.4151772655440027
 21
36.3106625317581475
 31
0.0
  0
LINE
  5
1903
  8
TITLE
 10
185.5799160470656943
 20
35.3881164406358195
 30
0.0
 11
186.4151772655440027
 21
36.2233776591109091
 31
0.0
  0
LINE
  5
1904
  8
TITLE
 10
185.5799160470656943
 20
35.3008315679888511
 30
0.0
 11
186.4151772655440027
 21
36.1360927864671027
 31
0.0
  0
LINE
  5
1905
  8
TITLE
 10
185.5799160470656943
 20
35.2135466953416909
 30
0.0
 11
186.4151772655440027
 21
36.0488079138198003
 31
0.0
  0
LINE
  5
1906
  8
TITLE
 10
186.8694715563586897
 20
35.979392968755171
 30
0.0
 11
187.2504387175245029
 21
36.3603601299245582
 31
0.0
  0
LINE
  5
1907
  8
TITLE
 10
186.9186959791954905
 20
35.9413325189485278
 30
0.0
 11
187.2504387175245029
 21
36.2730752572772488
 31
0.0
  0
LINE
  5
1908
  8
TITLE
 10
186.9679204020318934
 20
35.9032720691377705
 30
0.0
 11
187.2504387175245029
 21
36.1857903846337905
 31
0.0
  0
LINE
  5
1909
  8
TITLE
 10
187.017144824868808
 20
35.8652116193311201
 30
0.0
 11
187.2504387175245029
 21
36.0985055119867582
 31
0.0
  0
LINE
  5
190A
  8
TITLE
 10
187.0663692477124869
 20
35.8271511695243277
 30
0.0
 11
187.2504387175245029
 21
36.0112206393397827
 31
0.0
  0
LINE
  5
190B
  8
TITLE
 10
185.5799160470656943
 20
35.9118256765112278
 30
0.0
 11
186.7842701066797133
 21
37.1161797361330699
 31
0.0
  0
LINE
  5
190C
  8
TITLE
 10
185.5799160470656943
 20
35.8245408038641315
 30
0.0
 11
186.826760947308486
 21
37.0713857041109094
 31
0.0
  0
LINE
  5
190D
  8
TITLE
 10
185.5799160470656943
 20
35.737255931220723
 30
0.0
 11
186.8692517879368893
 21
37.0265916720891397
 31
0.0
  0
LINE
  5
190E
  8
TITLE
 10
185.5799160470656943
 20
35.6499710585738896
 30
0.0
 11
186.9117426285586134
 21
36.9817976400704609
 31
0.0
  0
LINE
  5
190F
  8
TITLE
 10
185.5799160470656943
 20
35.5626861859264665
 30
0.0
 11
186.9542334691873009
 21
36.9370036080519526
 31
0.0
  0
LINE
  5
1910
  8
TITLE
 10
185.5799160470656943
 20
34.7771223321093288
 30
0.0
 11
186.4151772655440027
 21
35.6123835505840987
 31
0.0
  0
LINE
  5
1911
  8
TITLE
 10
185.5799160470656943
 20
34.6898374594621686
 30
0.0
 11
186.4151772655440027
 21
35.5250986779405835
 31
0.0
  0
LINE
  5
1912
  8
TITLE
 10
185.5799160470656943
 20
34.6025525868188524
 30
0.0
 11
186.4151772655440027
 21
35.4378138052934588
 31
0.0
  0
LINE
  5
1913
  8
TITLE
 10
185.5799160470656943
 20
34.5152677141713866
 30
0.0
 11
186.4151772655440027
 21
35.3505289326461565
 31
0.0
  0
LINE
  5
1914
  8
TITLE
 10
185.5799160470656943
 20
34.4279828415245106
 30
0.0
 11
186.4151772655440027
 21
35.2632440600026484
 31
0.0
  0
LINE
  5
1915
  8
TITLE
 10
185.5799160470656943
 20
34.3406979688770804
 30
0.0
 11
186.4151772655440027
 21
35.1759591873558009
 31
0.0
  0
LINE
  5
1916
  8
TITLE
 10
185.6171673149237051
 20
34.2906643640881867
 30
0.0
 11
186.4151772655440027
 21
35.0886743147083635
 31
0.0
  0
LINE
  5
1917
  8
TITLE
 10
185.7044521875708085
 20
34.2906643640881867
 30
0.0
 11
186.4151772655440027
 21
35.0013894420610612
 31
0.0
  0
LINE
  5
1918
  8
TITLE
 10
185.5799160470656943
 20
34.8644072047567732
 30
0.0
 11
186.4151772655440027
 21
35.6996684232312091
 31
0.0
  0
LINE
  5
1919
  8
TITLE
 10
185.791737060217713
 20
34.2906643640881867
 30
0.0
 11
186.4151772655440027
 21
34.9141045694142278
 31
0.0
  0
LINE
  5
191A
  8
TITLE
 10
185.8790219328649869
 20
34.2906643640881867
 30
0.0
 11
186.4151772655440027
 21
34.8268196967670818
 31
0.0
  0
LINE
  5
191B
  8
TITLE
 10
185.9663068055052122
 20
34.2906643640881867
 30
0.0
 11
186.4151772655440027
 21
34.7395348241196373
 31
0.0
  0
LINE
  5
191C
  8
TITLE
 10
186.0535916781520882
 20
34.2906643640881867
 30
0.0
 11
186.4151772655440027
 21
34.6522499514725126
 31
0.0
  0
LINE
  5
191D
  8
TITLE
 10
186.1408765507993053
 20
34.2906643640881867
 30
0.0
 11
186.4151772655440027
 21
34.5649650788288483
 31
0.0
  0
LINE
  5
191E
  8
TITLE
 10
186.2281614234464939
 20
34.2906643640881867
 30
0.0
 11
186.4151772655440027
 21
34.477680206182157
 31
0.0
  0
LINE
  5
191F
  8
TITLE
 10
186.315446296093711
 20
34.2906643640881867
 30
0.0
 11
186.4151772655440027
 21
34.3903953335348902
 31
0.0
  0
LINE
  5
1920
  8
TITLE
 10
186.402731168740587
 20
34.2906643640881867
 30
0.0
 11
186.4151772655440027
 21
34.303110460891503
 31
0.0
  0
LINE
  5
1921
  8
TITLE
 10
185.5799160470656943
 20
35.1262618226943886
 30
0.0
 11
186.4151772655440027
 21
35.9615230411727609
 31
0.0
  0
LINE
  5
1922
  8
TITLE
 10
185.5799160470656943
 20
35.038976950047271
 30
0.0
 11
186.4151772655440027
 21
35.8742381685259417
 31
0.0
  0
LINE
  5
1923
  8
TITLE
 10
185.5799160470656943
 20
34.9516920773999828
 30
0.0
 11
186.4151772655440027
 21
35.7869532958783694
 31
0.0
  0
LINE
  5
1924
  8
TITLE
 10
187.096337102250402
 20
35.0715551702448565
 30
0.0
 11
187.1676859938606867
 21
35.1429040618584878
 31
0.0
  0
LINE
  5
1925
  8
TITLE
 10
187.2140425162224915
 20
35.7129698200997083
 30
0.0
 11
187.2504387175245029
 21
35.7493660214017126
 31
0.0
  0
LINE
  5
1926
  8
TITLE
 10
187.1155936705488898
 20
35.7890907197137622
 30
0.0
 11
187.2504387175245029
 21
35.9239357666962533
 31
0.0
  0
LINE
  5
1927
  8
TITLE
 10
187.1648180933856054
 20
35.7510302699069271
 30
0.0
 11
187.2504387175245029
 21
35.8366508940491428
 31
0.0
  0
LINE
  5
1928
  8
TITLE
 10
185.5079806615916027
 20
36.0144600363353931
 30
0.0
 11
186.9121056888706107
 21
37.418585063610827
 31
0.0
  0
LINE
  5
1929
  8
TITLE
 10
185.5799160470656943
 20
35.9991105491586509
 30
0.0
 11
186.8057226284911962
 21
37.2249171305846929
 31
0.0
  0
LINE
  5
192A
  8
TITLE
 10
186.7217982878414944
 20
36.0935743181797832
 30
0.0
 11
187.2504387175245029
 21
36.6222147478661171
 31
0.0
  0
LINE
  5
192B
  8
TITLE
 10
186.7710227106782099
 20
36.0555138683728416
 30
0.0
 11
187.2504387175245029
 21
36.534929875218829
 31
0.0
  0
LINE
  5
192C
  8
TITLE
 10
186.4264517508142092
 20
36.32193701702802
 30
0.0
 11
186.996724309816301
 21
36.8922095760335296
 31
0.0
  0
LINE
  5
192D
  8
TITLE
 10
186.4756761736508111
 20
36.283876567221192
 30
0.0
 11
187.0392151504375988
 21
36.8474155440117812
 31
0.0
  0
LINE
  5
192E
  8
TITLE
 10
186.5249005964878108
 20
36.2458161174108824
 30
0.0
 11
187.0817059910664
 21
36.8026215119898694
 31
0.0
  0
LINE
  5
192F
  8
TITLE
 10
186.5741250193242138
 20
36.2077556676038128
 30
0.0
 11
187.1241968316948885
 21
36.7578274799711906
 31
0.0
  0
LINE
  5
1930
  8
TITLE
 10
186.6233494421609862
 20
36.1696952177971696
 30
0.0
 11
187.1666876723168969
 21
36.7130334479528031
 31
0.0
  0
LINE
  5
1931
  8
TITLE
 10
186.6725738650050062
 20
36.1316347679864194
 30
0.0
 11
187.2091785129454138
 21
36.6682394159307492
 31
0.0
  0
LINE
  5
1932
  8
TITLE
 10
186.8202471335146981
 20
36.0174534185622406
 30
0.0
 11
187.2504387175245029
 21
36.4476450025718535
 31
0.0
  0
LINE
  5
1933
  8
TITLE
 10
186.0290677945878883
 20
37.4956807684434423
 30
0.0
 11
187.2502040925560891
 21
38.7168170664151319
 31
0.0
  0
LINE
  5
1934
  8
TITLE
 10
185.8982741383074995
 20
37.2776022395158932
 30
0.0
 11
187.2449610480709907
 21
38.6242891492798393
 31
0.0
  0
LINE
  5
1935
  8
TITLE
 10
187.1882950225580089
 20
34.2906643640881867
 30
0.0
 11
188.0405347203248994
 21
35.1429040618584878
 31
0.0
  0
LINE
  5
1936
  8
TITLE
 10
187.096337102250402
 20
34.4605610617151399
 30
0.0
 11
187.7786801023904957
 21
35.1429040618584878
 31
0.0
  0
LINE
  5
1937
  8
TITLE
 10
187.096337102250402
 20
34.3732761890712126
 30
0.0
 11
187.8659649750375991
 21
35.1429040618584878
 31
0.0
  0
LINE
  5
1938
  8
TITLE
 10
187.1010101499109055
 20
34.2906643640881867
 30
0.0
 11
187.9532498476775118
 21
35.1429040618584878
 31
0.0
  0
LINE
  5
1939
  8
TITLE
 10
187.096337102250402
 20
34.8097005523032834
 30
0.0
 11
187.4295406118017127
 21
35.1429040618584878
 31
0.0
  0
LINE
  5
193A
  8
TITLE
 10
187.096337102250402
 20
34.7224156796561374
 30
0.0
 11
187.5168254844489866
 21
35.1429040618584878
 31
0.0
  0
LINE
  5
193B
  8
TITLE
 10
187.096337102250402
 20
34.6351308070091619
 30
0.0
 11
187.60411035709609
 21
35.1429040618584878
 31
0.0
  0
LINE
  5
193C
  8
TITLE
 10
187.096337102250402
 20
34.5478459343619875
 30
0.0
 11
187.6913952297435912
 21
35.1429040618584878
 31
0.0
  0
LINE
  5
193D
  8
TITLE
 10
187.096337102250402
 20
34.8969854249507279
 30
0.0
 11
187.3422557391550072
 21
35.1429040618584878
 31
0.0
  0
LINE
  5
193E
  8
TITLE
 10
187.096337102250402
 20
34.9842702975975612
 30
0.0
 11
187.2549708665075059
 21
35.1429040618584878
 31
0.0
  0
LINE
  5
193F
  8
TITLE
 10
186.1050897538835045
 20
37.6589876003859132
 30
0.0
 11
187.2527078800841025
 21
38.8066057265869091
 31
0.0
  0
LINE
  5
1940
  8
TITLE
 10
186.1569143556588983
 20
37.7980970748018308
 30
0.0
 11
187.2527079652925863
 21
38.8938906844352204
 31
0.0
  0
LINE
  5
1941
  8
TITLE
 10
189.5749012551102055
 20
37.7246890683954135
 30
0.0
 11
189.982607113916913
 21
38.1323949272057803
 31
0.0
  0
LINE
  5
1942
  8
TITLE
 10
189.6621861277502035
 20
37.7246890683954135
 30
0.0
 11
189.982607113916913
 21
38.0451100545586272
 31
0.0
  0
LINE
  5
1943
  8
TITLE
 10
189.7494710003975911
 20
37.7246890683954135
 30
0.0
 11
189.982607113916913
 21
37.9578251819117867
 31
0.0
  0
LINE
  5
1944
  8
TITLE
 10
189.8367558730444955
 20
37.7246890683954135
 30
0.0
 11
189.982607113916913
 21
37.8705403092642072
 31
0.0
  0
LINE
  5
1945
  8
TITLE
 10
189.9240407456917126
 20
37.7246890683954135
 30
0.0
 11
189.982607113916913
 21
37.783255436617047
 31
0.0
  0
LINE
  5
1946
  8
TITLE
 10
189.5449865840164989
 20
34.2906643640881867
 30
0.0
 11
190.2335869524935958
 21
34.979264732564971
 31
0.0
  0
LINE
  5
1947
  8
TITLE
 10
189.9814109472455925
 20
34.2906643640881867
 30
0.0
 11
190.2335869524935958
 21
34.5428403693360622
 31
0.0
  0
LINE
  5
1948
  8
TITLE
 10
190.0686958198926106
 20
34.2906643640881867
 30
0.0
 11
190.2335869524935958
 21
34.4555554966892288
 31
0.0
  0
LINE
  5
1949
  8
TITLE
 10
189.6322714566566106
 20
34.2906643640881867
 30
0.0
 11
190.2335869524935958
 21
34.8919798599175266
 31
0.0
  0
LINE
  5
194A
  8
TITLE
 10
189.7195563293039129
 20
34.2906643640881867
 30
0.0
 11
190.2335869524935958
 21
34.804694987274182
 31
0.0
  0
LINE
  5
194B
  8
TITLE
 10
189.8068412019509879
 20
34.2906643640881867
 30
0.0
 11
190.2335869524935958
 21
34.7174101146268796
 31
0.0
  0
LINE
  5
194C
  8
TITLE
 10
189.8941260745980912
 20
34.2906643640881867
 30
0.0
 11
190.2335869524935958
 21
34.6301252419833503
 31
0.0
  0
LINE
  5
194D
  8
TITLE
 10
190.1559806925396003
 20
34.2906643640881867
 30
0.0
 11
190.2335869524935958
 21
34.3682706240419265
 31
0.0
  0
LINE
  5
394D
  8
TITLE
 10
127.0465728752538013
 20
43.6715728752538084
 30
0.0
 11
132.7034271247462129
 21
49.3284271247461774
 31
0.0
  0
LINE
  5
4B69
  8
CENTER
 10
59.8749999999999432
 20
225.9961163943223141
 30
0.0
 11
159.8749999999998863
 21
225.9961163943223141
 31
0.0
  0
LINE
  5
4B6A
  8
CENTER
 10
109.875
 20
275.9961163943223141
 30
0.0
 11
109.875
 21
175.9961163943222004
 31
0.0
  0
CIRCLE
  5
4B6B
  8
MODEL
 10
109.8749999999999005
 20
225.9961163943223141
 30
0.0
 40
39.5
  0
CIRCLE
  5
4B6C
  8
MODEL
 10
109.8749999999999005
 20
225.9961163943223141
 30
0.0
 40
17.5
  0
CIRCLE
  5
4B6D
  8
MODEL
 10
109.8749999999999005
 20
225.9961163943223141
 30
0.0
 40
19.0
  0
LINE
  5
4B6E
  8
MODEL
 10
70.375
 20
95.9961163943222431
 30
0.0
 11
149.375
 21
95.9961163943222857
 31
0.0
  0
LINE
  5
4B6F
  8
MODEL
 10
71.3750000000000568
 20
98.9961163943222857
 30
0.0
 11
148.375
 21
98.9961163943222857
 31
0.0
  0
LINE
  5
4B70
  8
MODEL
 10
70.375
 20
97.9961163943222289
 30
0.0
 11
70.375
 21
95.9961163943222857
 31
0.0
  0
LINE
  5
4B71
  8
MODEL
 10
149.3749999999998863
 20
97.9961163943222857
 30
0.0
 11
149.3749999999998863
 21
95.9961163943222857
 31
0.0
  0
LINE
  5
4B72
  8
MODEL
 10
90.8749999999998863
 20
146.9961163943223141
 30
0.0
 11
90.8749999999999432
 21
98.9961163943223141
 31
0.0
  0
LINE
  5
4B73
  8
HIDDEN
 10
92.3749999999999432
 20
146.9961163943223141
 30
0.0
 11
92.375
 21
95.9961163943222857
 31
0.0
  0
LINE
  5
4B74
  8
MODEL
 10
90.8749999999999432
 20
146.9961163943223141
 30
0.0
 11
128.8750000000001137
 21
146.9961163943223141
 31
0.0
  0
LINE
  5
4B75
  8
HIDDEN
 10
127.375
 20
146.9961163943223141
 30
0.0
 11
127.375
 21
95.9961163943222857
 31
0.0
  0
LINE
  5
4B76
  8
MODEL
 10
128.8750000000001137
 20
146.9961163943223141
 30
0.0
 11
128.875
 21
98.9961163943223141
 31
0.0
  0
LINE
  5
4B77
  8
MODEL
 10
70.375
 20
97.9961163943222573
 30
0.0
 11
149.375
 21
97.9961163943222857
 31
0.0
  0
LINE
  5
4B78
  8
MODEL
 10
71.3750000000000568
 20
98.9961163943223141
 30
0.0
 11
70.375
 21
97.9961163943222573
 31
0.0
  0
LINE
  5
4B79
  8
MODEL
 10
148.3749999999998863
 20
98.9961163943223141
 30
0.0
 11
149.375
 21
97.9961163943222573
 31
0.0
  0
CIRCLE
  5
4B7A
  8
MODEL
 10
136.2887748154253131
 20
210.7461163943223141
 30
0.0
 40
4.5
  0
LINE
  5
4B7B
  8
CENTER
 10
109.875
 20
156.9961163943223141
 30
0.0
 11
109.8749999999999005
 21
90.1428816163297881
 31
0.0
  0
CIRCLE
  5
4B7C
  8
MODEL
 10
109.875
 20
225.9961163943223141
 30
0.0
 40
38.4999999999999432
  0
CIRCLE
  5
4B82
  8
CENTER
 10
109.8749999999999005
 20
225.9961163943223141
 30
0.0
 40
30.4999999999998614
  0
LINE
  5
4B86
  8
CENTER
 10
83.4612251845745163
 20
103.849351172314698
 30
0.0
 11
83.4612251845745732
 21
90.1428816163297881
 31
0.0
  0
LINE
  5
4B87
  8
CENTER
 10
136.2887748154253131
 20
103.849351172314698
 30
0.0
 11
136.2887748154253131
 21
90.1428816163297881
 31
0.0
  0
LINE
  5
4B88
  8
HIDDEN
 10
140.7887748154253131
 20
98.9961163943222857
 30
0.0
 11
140.7887748154253131
 21
95.9961163943222857
 31
0.0
  0
LINE
  5
4B89
  8
HIDDEN
 10
131.7887748154253131
 20
98.9961163943222857
 30
0.0
 11
131.7887748154253131
 21
95.9961163943222857
 31
0.0
  0
LINE
  5
4B8A
  8
CENTER
 10
92.1214792224190262
 20
215.7461163943223994
 30
0.0
 11
74.8009711467302338
 21
205.7461163943225131
 31
0.0
  0
LINE
  5
4B8B
  8
CENTER
 10
127.6285207775809027
 20
215.7461163943223141
 30
0.0
 11
144.9490288532697093
 21
205.7461163943223141
 31
0.0
  0
LINE
  5
4B8C
  8
HIDDEN
 10
114.3749999999999005
 20
98.9961163943222857
 30
0.0
 11
114.3749999999999005
 21
95.9961163943222857
 31
0.0
  0
LINE
  5
4B8D
  8
HIDDEN
 10
105.3749999999999005
 20
98.9961163943222857
 30
0.0
 11
105.3749999999999005
 21
95.9961163943222857
 31
0.0
  0
LINE
  5
4B8E
  8
HIDDEN
 10
87.9612251845745163
 20
98.9961163943222857
 30
0.0
 11
87.9612251845745163
 21
95.9961163943222857
 31
0.0
  0
LINE
  5
4B8F
  8
HIDDEN
 10
78.9612251845745163
 20
98.9961163943222857
 30
0.0
 11
78.9612251845744879
 21
95.9961163943222857
 31
0.0
  0
CIRCLE
  5
4B90
  8
MODEL
 10
83.46122518457463
 20
210.7461163943223994
 30
0.0
 40
4.5
  0
CIRCLE
  5
4B91
  8
MODEL
 10
109.875
 20
256.4961163943223141
 30
0.0
 40
4.5
  0
LINE
  5
4DB2
  8
TITLE
 10
20.0
 20
12.625
 30
0.0
 11
199.75
 21
12.625
 31
0.0
  0
LINE
  5
4DB3
  8
TITLE
 10
199.75
 20
12.625
 30
0.0
 11
199.75
 21
284.3749999999998863
 31
0.0
  0
LINE
  5
4DB4
  8
TITLE
 10
199.75
 20
284.3749999999998863
 30
0.0
 11
20.0
 21
284.3749999999998863
 31
0.0
  0
LINE
  5
4DB5
  8
TITLE
 10
20.0
 20
284.3749999999998863
 30
0.0
 11
20.0
 21
12.625
 31
0.0
  0
TEXT
  5
4DB6
  8
TITLE
 10
32.3333333333333286
 20
48.6754970657066082
 30
0.0
 40
2.5
  1
経          歴
  0
TEXT
  5
4DB7
  8
TITLE
 10
32.4166666666666714
 20
63.6754970657066224
 30
0.0
 40
2.5
  1
品          名
  0
TEXT
  5
4DB8
  8
TITLE
 10
21.3344716269190791
 20
28.7393561497941583
 30
0.0
 40
2.5
  1
特記事項
  0
LINE
  5
4DB9
  8
TITLE
 10
24.375
 20
42.0
 30
0.0
 11
22.2099364905388903
 21
38.25
 31
0.0
  0
LINE
  5
4DBA
  8
TITLE
 10
22.2099364905388903
 20
38.25
 30
0.0
 11
26.5400635094610813
 21
38.25
 31
0.0
  0
LINE
  5
4DBB
  8
TITLE
 10
26.5400635094610813
 20
38.25
 30
0.0
 11
24.375
 21
42.0
 31
0.0
  0
LINE
  5
4DBC
  8
TITLE
 10
24.375
 20
37.0
 30
0.0
 11
22.2099364905388903
 21
33.25
 31
0.0
  0
LINE
  5
4DBD
  8
TITLE
 10
22.2099364905388903
 20
33.25
 30
0.0
 11
26.5400635094610813
 21
33.25
 31
0.0
  0
LINE
  5
4DBE
  8
TITLE
 10
26.5400635094610813
 20
33.25
 30
0.0
 11
24.375
 21
37.0
 31
0.0
  0
LINE
  5
4DBF
  8
TITLE
 10
24.375
 20
47.0
 30
0.0
 11
22.2099364905388903
 21
43.25
 31
0.0
  0
LINE
  5
4DC0
  8
TITLE
 10
22.2099364905388903
 20
43.25
 30
0.0
 11
26.5400635094610813
 21
43.25
 31
0.0
  0
LINE
  5
4DC1
  8
TITLE
 10
26.5400635094610813
 20
43.25
 30
0.0
 11
24.375
 21
47.0
 31
0.0
  0
TEXT
  5
4DC2
  8
TITLE
 10
23.2234825825339009
 20
33.6774030267489408
 30
0.0
 40
2.0
  1
3
  0
TEXT
  5
4DC3
  8
TITLE
 10
23.2521454054043311
 20
43.6774030267489195
 30
0.0
 40
2.0
  1
1
  0
TEXT
  5
4DC4
  8
TITLE
 10
23.2234825825339009
 20
38.6774030267489266
 30
0.0
 40
2.0
  1
2
  0
TEXT
  5
4DC5
  8
TITLE
 10
66.9872932265987657
 20
34.6040665842766799
 30
0.0
 40
2.5
  1
重量
  0
TEXT
  5
4DC6
  8
TITLE
 10
67.0587217980273351
 20
41.2707332509433513
 30
0.0
 40
2.5
  1
規格
  0
TEXT
  5
4DC7
  8
TITLE
 10
66.9872932265987657
 20
47.9373999176100227
 30
0.0
 40
2.5
  1
材質
  0
TEXT
  5
4DC8
  8
TITLE
 10
77.2916666666666714
 20
63.6754970657066508
 30
0.0
 40
2.5
  1
群          別
  0
TEXT
  5
4DC9
  8
TITLE
 10
170.7342709278354107
 20
48.828796392541328
 30
0.0
 40
2.5
  1
日付
  0
TEXT
  5
4DCA
  8
TITLE
 10
167.125
 20
63.6754970657066792
 30
0.0
 40
2.5
  1
図  面  番  号
  0
TEXT
  5
4DCB
  8
TITLE
 10
110.9366518802164023
 20
48.828796392541328
 30
0.0
 40
2.5
  1
縮尺
  0
TEXT
  5
4DCC
  8
TITLE
 10
141.1866518802162886
 20
48.828796392541328
 30
0.0
 40
2.5
  1
仕上
  0
TEXT
  5
4DCD
  8
TITLE
 10
122.0416666666666003
 20
63.6754970657066508
 30
0.0
 40
2.5
  1
タ    イ    プ
  0
LINE
  5
4DCE
  8
DEFPOINTS
 10
0.0
 20
0.0
 30
0.0
 11
210.0
 21
0.0
 31
0.0
  0
LINE
  5
4DCF
  8
DEFPOINTS
 10
210.0
 20
0.0
 30
0.0
 11
210.0
 21
297.0
 31
0.0
  0
LINE
  5
4DD0
  8
DEFPOINTS
 10
210.0
 20
297.0
 30
0.0
 11
0.0
 21
297.0
 31
0.0
  0
LINE
  5
4DD1
  8
DEFPOINTS
 10
0.0
 20
297.0
 30
0.0
 11
0.0
 21
0.0
 31
0.0
  0
TEXT
  5
4DD2
  8
TITLE
 10
131.6200937914128133
 20
43.2215728752538126
 30
0.0
 40
2.5
  1
１
  0
TEXT
  5
4DD3
  8
TITLE
 10
30.8333333333333393
 20
56.25
 30
0.0
 40
2.5
  1
ハンドレール丸型
  0
TEXT
  5
4DD4
  8
TITLE
 10
167.208333333333286
 20
56.25
 30
0.0
 40
2.5
  1
３Ｂ－０７０２
  0
TEXT
  5
4DD5
  8
TITLE
 10
125.9632395419204016
 20
47.2784271247461803
 30
0.0
 40
2.5
  1
１
  0
TEXT
  5
4DD6
  8
TITLE
 10
78.7083333333333428
 20
47.9166666666666572
 30
0.0
 40
2.5
  1
ＳＵＳ３０４
  0
TEXT
  5
4DD7
  8
TITLE
 10
81.8749999999999858
 20
56.25
 30
0.0
 40
2.5
  1
ソケット
  0
LINE
  5
4DD8
  8
DIMS
 10
92.3749999999999432
 20
147.6211163952023924
 30
0.0
 11
92.3749999999999432
 21
161.193080353897102
 31
0.0
  0
LINE
  5
4DD9
  8
DIMS
 10
127.375
 20
147.6211163952023924
 30
0.0
 11
127.375
 21
161.193080353897102
 31
0.0
  0
LINE
  5
4DDA
  8
DIMS
 10
94.3750000028164067
 20
159.9430803521368034
 30
0.0
 11
125.3749999971835933
 21
159.9430803521368034
 31
0.0
  0
SOLID
  5
4DDB
  8
DIMS
 10
94.3750000028164067
 20
160.2764136859395023
 30
0.0
 11
94.3750000028164067
 21
159.6097470183339908
 31
0.0
 12
92.3749999999999432
 22
159.9430803521368034
 32
0.0
 13
92.3749999999999432
 23
159.9430803521368034
 33
0.0
  0
SOLID
  5
4DDC
  8
DIMS
 10
125.3749999971835933
 20
160.2764136859395023
 30
0.0
 11
125.3749999971835933
 21
159.6097470183339908
 31
0.0
 12
127.375
 22
159.9430803521368034
 32
0.0
 13
127.375
 23
159.9430803521368034
 33
0.0
  0
INSERT
  5
4DDD
  8
0
  2
*U12
 10
0.0
 20
0.0
 30
0.0
  0
LINE
  5
4DDE
  8
DIMS
 10
90.8749999999998863
 20
147.6211163952023924
 30
0.0
 11
90.8749999999998863
 21
167.3855284935964107
 31
0.0
  0
LINE
  5
4DDF
  8
DIMS
 10
128.8750000000001137
 20
147.6211163952023924
 30
0.0
 11
128.8750000000001137
 21
167.3855284935964107
 31
0.0
  0
LINE
  5
4DE0
  8
DIMS
 10
92.8750000028163498
 20
166.1355284918361122
 30
0.0
 11
126.8749999971835933
 21
166.1355284918361122
 31
0.0
  0
SOLID
  5
4DE1
  8
DIMS
 10
92.8750000028163498
 20
166.4688618256388111
 30
0.0
 11
92.8750000028163498
 21
165.8021951580332995
 31
0.0
 12
90.8749999999998863
 22
166.1355284918361122
 32
0.0
 13
90.8749999999998863
 23
166.1355284918361122
 33
0.0
  0
SOLID
  5
4DE2
  8
DIMS
 10
126.8749999971835933
 20
166.4688618256388111
 30
0.0
 11
126.8749999971835933
 21
165.8021951580332995
 31
0.0
 12
128.8750000000001137
 22
166.1355284918361122
 32
0.0
 13
128.8750000000001137
 23
166.1355284918361122
 33
0.0
  0
INSERT
  5
4DE3
  8
0
  2
*U13
 10
0.0
 20
0.0
 30
0.0
  0
LINE
  5
4DE4
  8
DIMS
 10
70.375
 20
95.3711163934420938
 30
0.0
 11
70.375
 21
78.776829725639999
 31
0.0
  0
LINE
  5
4DE5
  8
DIMS
 10
149.375
 20
95.3711163934421364
 30
0.0
 11
149.375
 21
78.776829725639999
 31
0.0
  0
LINE
  5
4DE6
  8
DIMS
 10
72.3750000028164635
 20
80.0268297274002975
 30
0.0
 11
147.3749999971834939
 21
80.0268297274002975
 31
0.0
  0
SOLID
  5
4DE7
  8
DIMS
 10
72.3750000028164635
 20
80.3601630612030391
 30
0.0
 11
72.3750000028164635
 21
79.693496393597556
 31
0.0
 12
70.375
 22
80.0268297274002975
 32
0.0
 13
70.375
 23
80.0268297274002975
 33
0.0
  0
SOLID
  5
4DE8
  8
DIMS
 10
147.3749999971834939
 20
80.3601630612030391
 30
0.0
 11
147.3749999971834939
 21
79.693496393597556
 31
0.0
 12
149.375
 22
80.0268297274002975
 32
0.0
 13
149.375
 23
80.0268297274002975
 33
0.0
  0
INSERT
  5
4DE9
  8
0
  2
*U14
 10
0.0
 20
0.0
 30
0.0
  0
LINE
  5
4DEA
  8
DIMS
 10
129.5000000008803056
 20
146.9961163943223141
 30
0.0
 11
165.2253621320793116
 21
146.9961163943223141
 31
0.0
  0
LINE
  5
4DEB
  8
DIMS
 10
150.0000000008801919
 20
95.9961163943223141
 30
0.0
 11
165.2253621320793116
 21
95.9961163943223141
 31
0.0
  0
LINE
  5
4DEC
  8
DIMS
 10
163.975362130319013
 20
144.9961163915058933
 30
0.0
 11
163.975362130319013
 21
97.9961163971388061
 31
0.0
  0
SOLID
  5
4DED
  8
DIMS
 10
163.6420287965162004
 20
144.9961163915058933
 30
0.0
 11
164.3086954641217119
 21
144.9961163915058933
 31
0.0
 12
163.975362130319013
 22
146.9961163943223141
 32
0.0
 13
163.975362130319013
 23
146.9961163943223141
 33
0.0
  0
SOLID
  5
4DEE
  8
DIMS
 10
163.6420287965162004
 20
97.9961163971388061
 30
0.0
 11
164.3086954641217119
 21
97.9961163971388061
 31
0.0
 12
163.975362130319013
 22
95.9961163943223141
 32
0.0
 13
163.975362130319013
 23
95.9961163943223141
 33
0.0
  0
INSERT
  5
4DEF
  8
0
  2
*U15
 10
0.0
 20
0.0
 30
0.0
  0
LINE
  5
4DF0
  8
DIMS
 10
150.0000000008801919
 20
95.9961163943223141
 30
0.0
 11
159.7551447785976961
 21
95.9961163943223141
 31
0.0
  0
LINE
  5
4DF1
  8
DIMS
 10
149.0000000008801067
 20
98.996116394322371
 30
0.0
 11
159.7551447785976961
 21
98.996116394322371
 31
0.0
  0
LINE
  5
4DF2
  8
DIMS
 10
158.5051447768373976
 20
93.9961163915058506
 30
0.0
 11
158.5051447768373976
 21
91.9961163886893729
 31
0.0
  0
LINE
  5
4DF3
  8
DIMS
 10
158.5051447768373976
 20
100.9961163971388061
 30
0.0
 11
158.5051447768373976
 21
102.996116399955298
 31
0.0
  0
LINE
  5
4DF4
  8
DIMS
 10
158.5051447768373976
 20
95.9961163943223141
 30
0.0
 11
158.5051447768373976
 21
98.996116394322371
 31
0.0
  0
SOLID
  5
4DF5
  8
DIMS
 10
158.1718114430346986
 20
93.9961163915058506
 30
0.0
 11
158.8384781106402102
 21
93.9961163915058506
 31
0.0
 12
158.5051447768373976
 22
95.9961163943223141
 32
0.0
 13
158.5051447768373976
 23
95.9961163943223141
 33
0.0
  0
SOLID
  5
4DF6
  8
DIMS
 10
158.1718114430346986
 20
100.9961163971388061
 30
0.0
 11
158.8384781106402102
 21
100.9961163971388061
 31
0.0
 12
158.5051447768373976
 22
98.996116394322371
 32
0.0
 13
158.5051447768373976
 23
98.996116394322371
 33
0.0
  0
INSERT
  5
4DF7
  8
0
  2
*U16
 10
0.0
 20
0.0
 30
0.0
  0
LINE
  5
4DF8
  8
DIMS
 10
114.8985224681271973
 20
230.4355397283540867
 30
0.0
 11
131.2308127281008012
 21
244.868828508952987
 31
0.0
  0
INSERT
  5
4DF9
  8
0
  2
*U17
 10
0.0
 20
0.0
 30
0.0
  0
SOLID
  5
4DFA
  8
DIMS
 10
131.0100792527431963
 20
245.118604096792609
 30
0.0
 11
131.4515462034584061
 21
244.6190529211135072
 31
0.0
 12
132.7294662551383908
 22
246.1932293610985027
 32
0.0
 13
132.7294662551383908
 23
246.1932293610985027
 33
0.0
  0
SOLID
  5
4DFB
  8
DIMS
 10
137.6532746147948103
 20
204.3822141788076863
 30
0.0
 11
137.4562954766541054
 21
206.4002107918495881
 31
0.0
 12
138.2971124818278099
 22
204.5551802026934922
 32
0.0
 13
138.2971124818278099
 23
204.5551802026934922
 33
0.0
1001
ACAD
1000
DSTYLE
1002
{
1070
     5
1000

1070
    40
1040
1.0
1002
}
  0
POLYLINE
  5
4DFC
  8
DIMS
 66
     1
 10
0.0
 20
0.0
 30
0.0
1001
ACAD
1000
DSTYLE
1002
{
1070
     5
1000

1070
    40
1040
1.0
1002
}
  0
VERTEX
  5
4E78
  8
DIMS
 10
137.9751935483112959
 20
204.4686971907505892
 30
0.0
  0
VERTEX
  5
4E79
  8
DIMS
 10
143.6534292412081868
 20
183.3323891754837973
 30
0.0
  0
VERTEX
  5
4E7A
  8
DIMS
 10
157.2784292412081868
 20
183.3323891754837973
 30
0.0
  0
SEQEND
  5
4E7B
  8
DIMS
  0
TEXT
  5
4DFD
  8
DIMS
 62
     7
 10
145.9450959078747871
 20
185.2073891754837973
 30
0.0
 40
2.5
  1
３－９穴
  0
TEXT
  5
4DFE
  8
TITLE
 10
174.434523809523796
 20
44.2440476190476204
 30
0.0
 40
2.5
  1
2001．２．９
  0
TEXT
  5
4DFF
  8
TITLE
 10
123.7916666666666003
 20
58.3333333333333286
 30
0.0
 40
2.5
  1
ＹＭＯ－３４
  0
TEXT
  5
4E00
  8
TITLE
 10
125.2916666666666003
 20
54.1666666666666714
 30
0.0
 40
2.5
  1
アンカー用
  0
TEXT
  5
4E01
  8
TITLE
 10
27.5238095238095291
 20
43.5674720162578026
 30
0.0
 40
2.5
  1
'22.5.11：タイプ名変更
1001
ACAD
1000
ACAD_MTEXT_DEFINED_HEIGHT_BEGIN
1070
    46
1040
4.3730056796802916
1000
ACAD_MTEXT_DEFINED_HEIGHT_END
  0
TEXT
  5
4E02
  8
TITLE
 10
27.5238095238095291
 20
38.5674720162578026
 30
0.0
 40
2.5
  1
'22.5.11：穴サイズ訂正
1001
ACAD
1000
ACAD_MTEXT_DEFINED_HEIGHT_BEGIN
1070
    46
1040
4.3730056796802916
1000
ACAD_MTEXT_DEFINED_HEIGHT_END
  0
ENDSEC
  0
EOF
